  0
SECTION
  2
HEADER
  9
$ACADVER
  1
AC1014
  9
$ACADMAINTVER
 70
     9
  9
$DWGCODEPAGE
  3
ANSI_1250
  9
$INSBASE
 10
0.0
 20
0.0
 30
0.0
  9
$EXTMIN
 10
-28.5892
 20
-38.1602
 30
0.0
  9
$EXTMAX
 10
28.5541
 20
38.213
 30
0.0
  9
$LIMMIN
 10
0.0
 20
0.0
  9
$LIMMAX
 10
12.0
 20
9.0
  9
$ORTHOMODE
 70
     0
  9
$REGENMODE
 70
     1
  9
$FILLMODE
 70
     1
  9
$QTEXTMODE
 70
     0
  9
$MIRRTEXT
 70
     1
  9
$DRAGMODE
 70
     2
  9
$LTSCALE
 40
1.0
  9
$OSMODE
 70
    37
  9
$ATTMODE
 70
     1
  9
$TEXTSIZE
 40
0.2
  9
$TRACEWID
 40
0.05
  9
$TEXTSTYLE
  7
STANDARD
  9
$CLAYER
  8
0
  9
$CELTYPE
  6
BYLAYER
  9
$CECOLOR
 62
   256
  9
$CELTSCALE
 40
1.0
  9
$DELOBJ
 70
     1
  9
$DISPSILH
 70
     0
  9
$DIMSCALE
 40
1.0
  9
$DIMASZ
 40
0.18
  9
$DIMEXO
 40
0.0625
  9
$DIMDLI
 40
0.38
  9
$DIMRND
 40
0.0
  9
$DIMDLE
 40
0.0
  9
$DIMEXE
 40
0.18
  9
$DIMTP
 40
0.0
  9
$DIMTM
 40
0.0
  9
$DIMTXT
 40
0.18
  9
$DIMCEN
 40
0.09
  9
$DIMTSZ
 40
0.0
  9
$DIMTOL
 70
     0
  9
$DIMLIM
 70
     0
  9
$DIMTIH
 70
     1
  9
$DIMTOH
 70
     1
  9
$DIMSE1
 70
     0
  9
$DIMSE2
 70
     0
  9
$DIMTAD
 70
     0
  9
$DIMZIN
 70
     0
  9
$DIMBLK
  1

  9
$DIMASO
 70
     1
  9
$DIMSHO
 70
     1
  9
$DIMPOST
  1

  9
$DIMAPOST
  1

  9
$DIMALT
 70
     0
  9
$DIMALTD
 70
     2
  9
$DIMALTF
 40
25.4
  9
$DIMLFAC
 40
1.0
  9
$DIMTOFL
 70
     0
  9
$DIMTVP
 40
0.0
  9
$DIMTIX
 70
     0
  9
$DIMSOXD
 70
     0
  9
$DIMSAH
 70
     0
  9
$DIMBLK1
  1

  9
$DIMBLK2
  1

  9
$DIMSTYLE
  2
STANDARD
  9
$DIMCLRD
 70
     0
  9
$DIMCLRE
 70
     0
  9
$DIMCLRT
 70
     0
  9
$DIMTFAC
 40
1.0
  9
$DIMGAP
 40
0.09
  9
$DIMJUST
 70
     0
  9
$DIMSD1
 70
     0
  9
$DIMSD2
 70
     0
  9
$DIMTOLJ
 70
     1
  9
$DIMTZIN
 70
     0
  9
$DIMALTZ
 70
     0
  9
$DIMALTTZ
 70
     0
  9
$DIMFIT
 70
     3
  9
$DIMUPT
 70
     0
  9
$DIMUNIT
 70
     2
  9
$DIMDEC
 70
     4
  9
$DIMTDEC
 70
     4
  9
$DIMALTU
 70
     2
  9
$DIMALTTD
 70
     2
  9
$DIMTXSTY
  7
STANDARD
  9
$DIMAUNIT
 70
     0
  9
$LUNITS
 70
     2
  9
$LUPREC
 70
     4
  9
$SKETCHINC
 40
0.1
  9
$FILLETRAD
 40
0.5
  9
$AUNITS
 70
     0
  9
$AUPREC
 70
     0
  9
$MENU
  1
.
  9
$ELEVATION
 40
0.0
  9
$PELEVATION
 40
0.0
  9
$THICKNESS
 40
0.0
  9
$LIMCHECK
 70
     0
  9
$CHAMFERA
 40
0.5
  9
$CHAMFERB
 40
0.5
  9
$CHAMFERC
 40
1.0
  9
$CHAMFERD
 40
0.0
  9
$SKPOLY
 70
     0
  9
$TDCREATE
 40
2456247.399735162
  9
$TDUPDATE
 40
2456247.399735174
  9
$TDINDWG
 40
0.0000000116
  9
$TDUSRTIMER
 40
0.0000000116
  9
$USRTIMER
 70
     1
  9
$ANGBASE
 50
0.0
  9
$ANGDIR
 70
     0
  9
$PDMODE
 70
     0
  9
$PDSIZE
 40
0.0
  9
$PLINEWID
 40
0.0
  9
$COORDS
 70
     1
  9
$SPLFRAME
 70
     0
  9
$SPLINETYPE
 70
     6
  9
$SPLINESEGS
 70
     8
  9
$ATTDIA
 70
     0
  9
$ATTREQ
 70
     1
  9
$HANDLING
 70
     1
  9
$HANDSEED
  5
EE
  9
$SURFTAB1
 70
     6
  9
$SURFTAB2
 70
     6
  9
$SURFTYPE
 70
     6
  9
$SURFU
 70
     6
  9
$SURFV
 70
     6
  9
$UCSNAME
  2

  9
$UCSORG
 10
0.0
 20
0.0
 30
0.0
  9
$UCSXDIR
 10
1.0
 20
0.0
 30
0.0
  9
$UCSYDIR
 10
0.0
 20
1.0
 30
0.0
  9
$PUCSNAME
  2

  9
$PUCSORG
 10
0.0
 20
0.0
 30
0.0
  9
$PUCSXDIR
 10
1.0
 20
0.0
 30
0.0
  9
$PUCSYDIR
 10
0.0
 20
1.0
 30
0.0
  9
$USERI1
 70
     0
  9
$USERI2
 70
     0
  9
$USERI3
 70
     0
  9
$USERI4
 70
     0
  9
$USERI5
 70
     0
  9
$USERR1
 40
0.0
  9
$USERR2
 40
0.0
  9
$USERR3
 40
0.0
  9
$USERR4
 40
0.0
  9
$USERR5
 40
0.0
  9
$WORLDVIEW
 70
     1
  9
$SHADEDGE
 70
     3
  9
$SHADEDIF
 70
    70
  9
$TILEMODE
 70
     1
  9
$MAXACTVP
 70
    64
  9
$PINSBASE
 10
0.0
 20
0.0
 30
0.0
  9
$PLIMCHECK
 70
     0
  9
$PEXTMIN
 10
1.000000000000000E+20
 20
1.000000000000000E+20
 30
1.000000000000000E+20
  9
$PEXTMAX
 10
-1.000000000000000E+20
 20
-1.000000000000000E+20
 30
-1.000000000000000E+20
  9
$PLIMMIN
 10
0.0
 20
0.0
  9
$PLIMMAX
 10
12.0
 20
9.0
  9
$UNITMODE
 70
     0
  9
$VISRETAIN
 70
     1
  9
$PLINEGEN
 70
     0
  9
$PSLTSCALE
 70
     1
  9
$TREEDEPTH
 70
  3020
  9
$PICKSTYLE
 70
     1
  9
$CMLSTYLE
  2
STANDARD
  9
$CMLJUST
 70
     0
  9
$CMLSCALE
 40
1.0
  9
$PROXYGRAPHICS
 70
     1
  9
$MEASUREMENT
 70
     0
  0
ENDSEC
  0
SECTION
  2
CLASSES
  0
CLASS
  1
ACDBDICTIONARYWDFLT
  2
AcDbDictionaryWithDefault
  3
ObjectDBX Classes
 90
        0
280
     0
281
     0
  0
CLASS
  1
VISUALSTYLE
  2
AcDbVisualStyle
  3
ObjectDBX Classes
 90
     4095
280
     0
281
     0
  0
CLASS
  1
MATERIAL
  2
AcDbMaterial
  3
ObjectDBX Classes
 90
     1153
280
     0
281
     0
  0
CLASS
  1
DICTIONARYVAR
  2
AcDbDictionaryVar
  3
ObjectDBX Classes
 90
        0
280
     0
281
     0
  0
CLASS
  1
XRECORD
  2
AcDbXrecord
  3
AutoCAD 2000
 90
        0
280
     0
281
     0
  0
CLASS
  1
LWPOLYLINE
  2
AcDbPolyline
  3
AutoCAD 2000
 90
        0
280
     0
281
     1
  0
CLASS
  1
HATCH
  2
AcDbHatch
  3
AutoCAD 2000
 90
        0
280
     0
281
     1
  0
CLASS
  1
ACDBPLACEHOLDER
  2
AcDbPlaceHolder
  3
ObjectDBX Classes
 90
        0
280
     0
281
     0
  0
CLASS
  1
LAYOUT
  2
AcDbLayout
  3
ObjectDBX Classes
 90
        0
280
     0
281
     0
  0
ENDSEC
  0
SECTION
  2
TABLES
  0
TABLE
  2
VPORT
  5
8
330
0
100
AcDbSymbolTable
 70
     1
  0
VPORT
  5
29
330
8
100
AcDbSymbolTableRecord
100
AcDbViewportTableRecord
  2
*ACTIVE
 70
     0
 10
0.0
 20
0.0
 11
1.0
 21
1.0
 12
10.42990654205607
 22
4.5
 13
0.0
 23
0.0
 14
0.5
 24
0.5
 15
0.5
 25
0.5
 16
0.0
 26
0.0
 36
1.0
 17
0.0
 27
0.0
 37
0.0
 40
9.0
 41
1.972972972850329
 42
50.0
 43
0.0
 44
0.0
 50
0.0
 51
0.0
 71
     0
 72
   100
 73
     1
 74
     3
 75
     0
 76
     0
 77
     0
 78
     0
  0
ENDTAB
  0
TABLE
  2
LTYPE
  5
5
330
0
100
AcDbSymbolTable
 70
     4
  0
LTYPE
  5
14
330
5
100
AcDbSymbolTableRecord
100
AcDbLinetypeTableRecord
  2
BYBLOCK
 70
     0
  3

 72
    65
 73
     0
 40
0.0
  0
LTYPE
  5
15
330
5
100
AcDbSymbolTableRecord
100
AcDbLinetypeTableRecord
  2
BYLAYER
 70
     0
  3

 72
    65
 73
     0
 40
0.0
  0
LTYPE
  5
16
330
5
100
AcDbSymbolTableRecord
100
AcDbLinetypeTableRecord
  2
CONTINUOUS
 70
     0
  3
Solid line
 72
    65
 73
     0
 40
0.0
  0
LTYPE
  5
4E
330
5
100
AcDbSymbolTableRecord
100
AcDbLinetypeTableRecord
  2
NEW_LINE1
 70
     0
  3

 72
    65
 73
     4
 40
1.2
 49
0.5
 74
     4
 75
     0
340
0
 46
1.0
 50
0.0
 44
0.0
 45
0.0
 49
-0.3
 74
     4
 75
     0
340
0
 46
1.0
 50
0.0
 44
0.0
 45
0.0
 49
0.1
 74
     4
 75
     0
340
0
 46
1.0
 50
0.0
 44
0.0
 45
0.0
 49
-0.3
 74
     4
 75
     0
340
0
 46
1.0
 50
0.0
 44
0.0
 45
0.0
  0
LTYPE
  5
50
330
5
100
AcDbSymbolTableRecord
100
AcDbLinetypeTableRecord
  2
NEW_LINE2
 70
     0
  3

 72
    65
 73
     4
 40
1.2
 49
0.5
 74
     4
 75
     0
340
0
 46
1.0
 50
0.0
 44
0.0
 45
0.0
 49
-0.3
 74
     4
 75
     0
340
0
 46
1.0
 50
0.0
 44
0.0
 45
0.0
 49
0.1
 74
     4
 75
     0
340
0
 46
1.0
 50
0.0
 44
0.0
 45
0.0
 49
-0.3
 74
     4
 75
     0
340
0
 46
1.0
 50
0.0
 44
0.0
 45
0.0
  0
LTYPE
  5
53
330
5
100
AcDbSymbolTableRecord
100
AcDbLinetypeTableRecord
  2
NEW_LINE3
 70
     0
  3

 72
    65
 73
     4
 40
1.2
 49
0.5
 74
     4
 75
     0
340
0
 46
1.0
 50
0.0
 44
0.0
 45
0.0
 49
-0.3
 74
     4
 75
     0
340
0
 46
1.0
 50
0.0
 44
0.0
 45
0.0
 49
0.1
 74
     4
 75
     0
340
0
 46
1.0
 50
0.0
 44
0.0
 45
0.0
 49
-0.3
 74
     4
 75
     0
340
0
 46
1.0
 50
0.0
 44
0.0
 45
0.0
  0
ENDTAB
  0
TABLE
  2
LAYER
  5
2
330
0
100
AcDbSymbolTable
 70
     2
  0
LAYER
  5
10
330
2
100
AcDbSymbolTableRecord
100
AcDbLayerTableRecord
  2
0
 70
     0
 62
     7
  6
CONTINUOUS
  0
LAYER
  5
40
330
2
100
AcDbSymbolTableRecord
100
AcDbLayerTableRecord
  2
DEFAULT_1
 70
     0
 62
     7
  6
CONTINUOUS
  0
ENDTAB
  0
TABLE
  2
STYLE
  5
3
330
0
100
AcDbSymbolTable
 70
     1
  0
STYLE
  5
11
330
3
100
AcDbSymbolTableRecord
100
AcDbTextStyleTableRecord
  2
STANDARD
 70
     0
 40
0.0
 41
1.0
 50
0.0
 71
     0
 42
0.2
  3
txt
  4

  0
ENDTAB
  0
TABLE
  2
VIEW
  5
6
330
0
100
AcDbSymbolTable
 70
     0
  0
ENDTAB
  0
TABLE
  2
UCS
  5
7
330
0
100
AcDbSymbolTable
 70
     0
  0
ENDTAB
  0
TABLE
  2
APPID
  5
9
330
0
100
AcDbSymbolTable
 70
     2
  0
APPID
  5
12
330
9
100
AcDbSymbolTableRecord
100
AcDbRegAppTableRecord
  2
ACAD
 70
     0
  0
APPID
  5
3F
330
9
100
AcDbSymbolTableRecord
100
AcDbRegAppTableRecord
  2
ODA
 70
     0
  0
ENDTAB
  0
TABLE
  2
DIMSTYLE
  5
A
330
0
100
AcDbSymbolTable
 70
     1
  0
DIMSTYLE
105
27
330
A
100
AcDbSymbolTableRecord
100
AcDbDimStyleTableRecord
  2
STANDARD
 70
     0
  3

  4

  5

  6

  7

 40
1.0
 41
0.18
 42
0.0625
 43
0.38
 44
0.18
 45
0.0
 46
0.0
 47
0.0
 48
0.0
140
0.18
141
0.09
142
0.0
143
25.4
144
1.0
145
0.0
146
1.0
147
0.09
 71
     0
 72
     0
 73
     1
 74
     1
 75
     0
 76
     0
 77
     0
 78
     0
170
     0
171
     2
172
     0
173
     0
174
     0
175
     0
176
     0
177
     0
178
     0
270
     2
271
     4
272
     4
273
     2
274
     2
340
11
275
     0
280
     0
281
     0
282
     0
283
     1
284
     0
285
     0
286
     0
287
     3
288
     0
  0
ENDTAB
  0
TABLE
  2
BLOCK_RECORD
  5
1
330
0
100
AcDbSymbolTable
 70
     1
  0
BLOCK_RECORD
  5
1F
330
1
100
AcDbSymbolTableRecord
100
AcDbBlockTableRecord
  2
*MODEL_SPACE
  0
BLOCK_RECORD
  5
1B
330
1
100
AcDbSymbolTableRecord
100
AcDbBlockTableRecord
  2
*PAPER_SPACE
  0
ENDTAB
  0
ENDSEC
  0
SECTION
  2
BLOCKS
  0
BLOCK
  5
20
330
1F
100
AcDbEntity
  8
0
100
AcDbBlockBegin
  2
*MODEL_SPACE
 70
     0
 10
0.0
 20
0.0
 30
0.0
  3
*MODEL_SPACE
  1

  0
ENDBLK
  5
21
330
1F
100
AcDbEntity
  8
0
100
AcDbBlockEnd
  0
BLOCK
  5
1C
330
1B
100
AcDbEntity
 67
     1
  8
0
100
AcDbBlockBegin
  2
*PAPER_SPACE
 70
     0
 10
0.0
 20
0.0
 30
0.0
  3
*PAPER_SPACE
  1

  0
ENDBLK
  5
1D
330
1B
100
AcDbEntity
 67
     1
  8
0
100
AcDbBlockEnd
  0
ENDSEC
  0
SECTION
  2
ENTITIES
  0
SPLINE
  5
41
330
1F
100
AcDbEntity
  8
DEFAULT_1
 62
   250
100
AcDbSpline
210
0.0
220
0.0
230
1.0
 70
    24
 71
     3
 72
     8
 73
     4
 74
     0
 42
0.0000000001
 43
0.0000000001
 40
0.0
 40
0.0
 40
0.0
 40
0.0
 40
1.0
 40
1.0
 40
1.0
 40
1.0
 10
-25.3165
 20
23.1222
 30
0.0
 10
-25.3165
 20
23.1222
 30
0.0
 10
-25.3165
 20
11.8349
 30
0.0
 10
-25.3165
 20
11.8349
 30
0.0
  0
SPLINE
  5
42
330
1F
100
AcDbEntity
  8
DEFAULT_1
 62
   250
100
AcDbSpline
210
0.0
220
0.0
230
1.0
 70
    24
 71
     3
 72
     8
 73
     4
 74
     0
 42
0.0000000001
 43
0.0000000001
 40
0.0
 40
0.0
 40
0.0
 40
0.0
 40
1.0
 40
1.0
 40
1.0
 40
1.0
 10
-21.8924
 20
-3.3197
 30
0.0
 10
-21.8924
 20
-3.3197
 30
0.0
 10
-5.358
 20
-3.3197
 30
0.0
 10
-5.358
 20
-3.3197
 30
0.0
  0
SPLINE
  5
43
330
1F
100
AcDbEntity
  8
DEFAULT_1
 62
   250
100
AcDbSpline
210
0.0
220
0.0
230
1.0
 70
    24
 71
     3
 72
     8
 73
     4
 74
     0
 42
0.0000000001
 43
0.0000000001
 40
0.0
 40
0.0
 40
0.0
 40
0.0
 40
1.0
 40
1.0
 40
1.0
 40
1.0
 10
25.7129
 20
-13.3549
 30
0.0
 10
25.7129
 20
-13.3549
 30
0.0
 10
25.7129
 20
36.1013
 30
0.0
 10
25.7129
 20
36.1013
 30
0.0
  0
SPLINE
  5
44
330
1F
100
AcDbEntity
  8
DEFAULT_1
 62
   250
100
AcDbSpline
210
0.0
220
0.0
230
1.0
 70
    24
 71
     3
 72
     8
 73
     4
 74
     0
 42
0.0000000001
 43
0.0000000001
 40
0.0
 40
0.0
 40
0.0
 40
0.0
 40
1.0
 40
1.0
 40
1.0
 40
1.0
 10
25.5351
 20
35.1563
 30
0.0
 10
25.5351
 20
35.1563
 30
0.0
 10
-15.3291
 20
35.1563
 30
0.0
 10
-15.3291
 20
35.1563
 30
0.0
  0
SPLINE
  5
45
330
1F
100
AcDbEntity
  8
DEFAULT_1
 62
   250
100
AcDbSpline
210
0.0
220
0.0
230
1.0
 70
    24
 71
     3
 72
     8
 73
     4
 74
     0
 42
0.0000000001
 43
0.0000000001
 40
0.0
 40
0.0
 40
0.0
 40
0.0
 40
1.0
 40
1.0
 40
1.0
 40
1.0
 10
-20.795
 20
19.9432
 30
0.0
 10
-20.795
 20
19.9432
 30
0.0
 10
-20.795
 20
30.0866
 30
0.0
 10
-20.795
 20
30.0866
 30
0.0
  0
SPLINE
  5
46
330
1F
100
AcDbEntity
  8
DEFAULT_1
 62
   250
100
AcDbSpline
210
0.0
220
0.0
230
1.0
 70
    24
 71
     3
 72
     8
 73
     4
 74
     0
 42
0.0000000001
 43
0.0000000001
 40
0.0
 40
0.0
 40
0.0
 40
0.0
 40
1.0
 40
1.0
 40
1.0
 40
1.0
 10
-10.1094
 20
19.7152
 30
0.0
 10
-10.1094
 20
19.7152
 30
0.0
 10
-10.1094
 20
29.961
 30
0.0
 10
-10.1094
 20
29.961
 30
0.0
  0
SPLINE
  5
47
330
1F
100
AcDbEntity
  8
DEFAULT_1
 62
   250
100
AcDbSpline
210
0.0
220
0.0
230
1.0
 70
    24
 71
     3
 72
     8
 73
     4
 74
     0
 42
0.0000000001
 43
0.0000000001
 40
0.0
 40
0.0
 40
0.0
 40
0.0
 40
1.0
 40
1.0
 40
1.0
 40
1.0
 10
-15.4783
 20
32.9922
 30
0.0
 10
-15.4783
 20
32.9922
 30
0.0
 10
-15.4783
 20
35.6677
 30
0.0
 10
-15.4783
 20
35.6677
 30
0.0
  0
SPLINE
  5
48
330
1F
100
AcDbEntity
  8
DEFAULT_1
 62
   250
100
AcDbSpline
210
0.0
220
0.0
230
1.0
 70
    24
 71
     3
 72
     8
 73
     4
 74
     0
 42
0.0000000001
 43
0.0000000001
 40
0.0
 40
0.0
 40
0.0
 40
0.0
 40
1.0
 40
1.0
 40
1.0
 40
1.0
 10
-6.4179
 20
29.2791
 30
0.0
 10
-6.4179
 20
29.2791
 30
0.0
 10
-25.0619
 20
29.2791
 30
0.0
 10
-25.0619
 20
29.2791
 30
0.0
  0
SPLINE
  5
49
330
1F
100
AcDbEntity
  8
DEFAULT_1
 62
   250
100
AcDbSpline
210
0.0
220
0.0
230
1.0
 70
    24
 71
     3
 72
     8
 73
     4
 74
     0
 42
0.0000000001
 43
0.0000000001
 40
0.0
 40
0.0
 40
0.0
 40
0.0
 40
1.0
 40
1.0
 40
1.0
 40
1.0
 10
-19.5159
 20
-18.6952
 30
0.0
 10
-19.5159
 20
-18.6952
 30
0.0
 10
-26.3756
 20
-18.6952
 30
0.0
 10
-26.3756
 20
-18.6952
 30
0.0
  0
SPLINE
  5
4A
330
1F
100
AcDbEntity
  8
DEFAULT_1
 62
   250
100
AcDbSpline
210
0.0
220
0.0
230
1.0
 70
    24
 71
     3
 72
     8
 73
     4
 74
     0
 42
0.0000000001
 43
0.0000000001
 40
0.0
 40
0.0
 40
0.0
 40
0.0
 40
1.0
 40
1.0
 40
1.0
 40
1.0
 10
-22.207
 20
11.8459
 30
0.0
 10
-22.207
 20
11.8459
 30
0.0
 10
-26.0838
 20
11.8459
 30
0.0
 10
-26.0838
 20
11.8459
 30
0.0
  0
SPLINE
  5
4B
330
1F
100
AcDbEntity
  8
DEFAULT_1
 62
   250
100
AcDbSpline
210
0.0
220
0.0
230
1.0
 70
    24
 71
     3
 72
     8
 73
     4
 74
     0
 42
0.0000000001
 43
0.0000000001
 40
0.0
 40
0.0
 40
0.0
 40
0.0
 40
1.0
 40
1.0
 40
1.0
 40
1.0
 10
-25.3165
 20
11.064
 30
0.0
 10
-25.3165
 20
11.064
 30
0.0
 10
-25.3165
 20
-17.9743
 30
0.0
 10
-25.3165
 20
-17.9743
 30
0.0
  0
SPLINE
  5
4C
330
1F
100
AcDbEntity
  8
DEFAULT_1
 62
   250
100
AcDbSpline
210
0.0
220
0.0
230
1.0
 70
    24
 71
     3
 72
     8
 73
     4
 74
     0
 42
0.0000000001
 43
0.0000000001
 40
0.0
 40
0.0
 40
0.0
 40
0.0
 40
1.0
 40
1.0
 40
1.0
 40
1.0
 10
-21.3194
 20
19.2643
 30
0.0
 10
-21.3194
 20
19.2643
 30
0.0
 10
-25.8901
 20
19.2643
 30
0.0
 10
-25.8901
 20
19.2643
 30
0.0
  0
SPLINE
  5
4D
330
1F
100
AcDbEntity
  8
DEFAULT_1
  6
NEW_LINE1
 62
   250
100
AcDbSpline
210
0.0
220
0.0
230
1.0
 70
    24
 71
     3
 72
     8
 73
     4
 74
     0
 42
0.0000000001
 43
0.0000000001
 40
0.0
 40
0.0
 40
0.0
 40
0.0
 40
1.0
 40
1.0
 40
1.0
 40
1.0
 10
-15.4522
 20
28.3212
 30
0.0
 10
-15.4522
 20
28.3212
 30
0.0
 10
-15.4522
 20
-20.0297
 30
0.0
 10
-15.4522
 20
-20.0297
 30
0.0
  0
SPLINE
  5
4F
330
1F
100
AcDbEntity
  8
DEFAULT_1
  6
NEW_LINE2
 62
   250
100
AcDbSpline
210
0.0
220
0.0
230
1.0
 70
    24
 71
     3
 72
     8
 73
     4
 74
     0
 42
0.0000000001
 43
0.0000000001
 40
0.0
 40
0.0
 40
0.0
 40
0.0
 40
1.0
 40
1.0
 40
1.0
 40
1.0
 10
-16.505
 20
-18.6952
 30
0.0
 10
-16.505
 20
-18.6952
 30
0.0
 10
28.5895
 20
-18.6952
 30
0.0
 10
28.5895
 20
-18.6952
 30
0.0
  0
SPLINE
  5
51
330
1F
100
AcDbEntity
  8
DEFAULT_1
 62
   250
100
AcDbSpline
210
0.0
220
0.0
230
1.0
 70
    24
 71
     3
 72
     8
 73
     4
 74
     0
 42
0.0000000001
 43
0.0000000001
 40
0.0
 40
0.0
 40
0.0
 40
0.0
 40
1.0
 40
1.0
 40
1.0
 40
1.0
 10
7.434
 20
-6.8823
 30
0.0
 10
7.434
 20
-6.8823
 30
0.0
 10
7.434
 20
-26.0269
 30
0.0
 10
7.434
 20
-26.0269
 30
0.0
  0
SPLINE
  5
52
330
1F
100
AcDbEntity
  8
DEFAULT_1
  6
NEW_LINE3
 62
   250
100
AcDbSpline
210
0.0
220
0.0
230
1.0
 70
    24
 71
     3
 72
     8
 73
     4
 74
     0
 42
0.0000000001
 43
0.0000000001
 40
0.0
 40
0.0
 40
0.0
 40
0.0
 40
1.0
 40
1.0
 40
1.0
 40
1.0
 10
-13.8749
 20
-18.2632
 30
0.0
 10
-13.8749
 20
-18.2632
 30
0.0
 10
-13.8749
 20
-38.2129
 30
0.0
 10
-13.8749
 20
-38.2129
 30
0.0
  0
SPLINE
  5
54
330
1F
100
AcDbEntity
  8
DEFAULT_1
 62
   250
100
AcDbSpline
210
0.0
220
0.0
230
1.0
 70
    24
 71
     3
 72
     8
 73
     4
 74
     0
 42
0.0000000001
 43
0.0000000001
 40
0.0
 40
0.0
 40
0.0
 40
0.0
 40
1.0
 40
1.0
 40
1.0
 40
1.0
 10
16.7237
 20
-24.7969
 30
0.0
 10
16.7237
 20
-24.7969
 30
0.0
 10
17.5698
 20
-24.7969
 30
0.0
 10
17.5698
 20
-24.7969
 30
0.0
  0
SPLINE
  5
55
330
1F
100
AcDbEntity
  8
DEFAULT_1
 62
   250
100
AcDbSpline
210
0.0
220
0.0
230
1.0
 70
    24
 71
     3
 72
     8
 73
     4
 74
     0
 42
0.0000000001
 43
0.0000000001
 40
0.0
 40
0.0
 40
0.0
 40
0.0
 40
1.0
 40
1.0
 40
1.0
 40
1.0
 10
16.7237
 20
-12.6129
 30
0.0
 10
16.7237
 20
-12.6129
 30
0.0
 10
17.5698
 20
-12.6129
 30
0.0
 10
17.5698
 20
-12.6129
 30
0.0
  0
SPLINE
  5
56
330
1F
100
AcDbEntity
  8
DEFAULT_1
 62
   250
100
AcDbSpline
210
0.0
220
0.0
230
1.0
 70
    24
 71
     3
 72
     8
 73
     4
 74
     0
 42
0.0000000001
 43
0.0000000001
 40
0.0
 40
0.0
 40
0.0
 40
0.0
 40
1.0
 40
1.0
 40
1.0
 40
1.0
 10
17.5698
 20
-24.7969
 30
0.0
 10
17.5698
 20
-24.7969
 30
0.0
 10
17.9929
 20
-25.22
 30
0.0
 10
17.9929
 20
-25.22
 30
0.0
  0
SPLINE
  5
57
330
1F
100
AcDbEntity
  8
DEFAULT_1
 62
   250
100
AcDbSpline
210
0.0
220
0.0
230
1.0
 70
    24
 71
     3
 72
     8
 73
     4
 74
     0
 42
0.0000000001
 43
0.0000000001
 40
0.0
 40
0.0
 40
0.0
 40
0.0
 40
1.0
 40
1.0
 40
1.0
 40
1.0
 10
13.6777
 20
-15.6589
 30
0.0
 10
13.6777
 20
-15.6589
 30
0.0
 10
13.6777
 20
-21.7509
 30
0.0
 10
13.6777
 20
-21.7509
 30
0.0
  0
SPLINE
  5
58
330
1F
100
AcDbEntity
  8
DEFAULT_1
 62
   250
100
AcDbSpline
210
0.0
220
0.0
230
1.0
 70
    24
 71
     3
 72
     8
 73
     4
 74
     0
 42
0.0000000001
 43
0.0000000001
 40
0.0
 40
0.0
 40
0.0
 40
0.0
 40
1.0
 40
1.0
 40
1.0
 40
1.0
 10
17.5698
 20
-12.6129
 30
0.0
 10
17.5698
 20
-12.6129
 30
0.0
 10
17.9929
 20
-12.1899
 30
0.0
 10
17.9929
 20
-12.1899
 30
0.0
  0
SPLINE
  5
59
330
1F
100
AcDbEntity
  8
DEFAULT_1
 62
   250
100
AcDbSpline
210
0.0
220
0.0
230
1.0
 70
    24
 71
     3
 72
     8
 73
     4
 74
     0
 42
0.0000000001
 43
0.0000000001
 40
0.0
 40
0.0
 40
0.0
 40
0.0
 40
1.0
 40
1.0
 40
1.0
 40
1.0
 10
17.5698
 20
-12.6129
 30
0.0
 10
17.5698
 20
-12.6129
 30
0.0
 10
17.5698
 20
-24.7969
 30
0.0
 10
17.5698
 20
-24.7969
 30
0.0
  0
SPLINE
  5
5A
330
1F
100
AcDbEntity
  8
DEFAULT_1
 62
   250
100
AcDbSpline
210
0.0
220
0.0
230
1.0
 70
    24
 71
     3
 72
     8
 73
     4
 74
     0
 42
0.0000000001
 43
0.0000000001
 40
0.0
 40
0.0
 40
0.0
 40
0.0
 40
1.0
 40
1.0
 40
1.0
 40
1.0
 10
17.9929
 20
-12.1899
 30
0.0
 10
17.9929
 20
-12.1899
 30
0.0
 10
17.9929
 20
-25.22
 30
0.0
 10
17.9929
 20
-25.22
 30
0.0
  0
SPLINE
  5
5B
330
1F
100
AcDbEntity
  8
DEFAULT_1
 62
   250
100
AcDbSpline
210
0.0
220
0.0
230
1.0
 70
     8
 71
     3
 72
     8
 73
     4
 74
     0
 42
0.0000000001
 43
0.0000000001
 40
0.0
 40
0.0
 40
0.0
 40
0.0
 40
1.0
 40
1.0
 40
1.0
 40
1.0
 10
16.7237
 20
-12.6129
 30
0.0
 10
15.0414
 20
-12.6129
 30
0.0
 10
13.6777
 20
-13.9767
 30
0.0
 10
13.6777
 20
-15.6589
 30
0.0
  0
SPLINE
  5
5C
330
1F
100
AcDbEntity
  8
DEFAULT_1
 62
   250
100
AcDbSpline
210
0.0
220
0.0
230
1.0
 70
     8
 71
     3
 72
     8
 73
     4
 74
     0
 42
0.0000000001
 43
0.0000000001
 40
0.0
 40
0.0
 40
0.0
 40
0.0
 40
1.0
 40
1.0
 40
1.0
 40
1.0
 10
13.6777
 20
-21.7509
 30
0.0
 10
13.6777
 20
-23.4332
 30
0.0
 10
15.0414
 20
-24.7969
 30
0.0
 10
16.7237
 20
-24.7969
 30
0.0
  0
SPLINE
  5
5D
330
1F
100
AcDbEntity
  8
DEFAULT_1
 62
   250
100
AcDbSpline
210
0.0
220
0.0
230
1.0
 70
    11
 71
     3
 72
    84
 73
    80
 74
     0
 42
0.0000000001
 43
0.0000000001
 40
0.0
 40
0.0
 40
0.0
 40
0.0
 40
0.0476190476190476
 40
0.0476190476190476
 40
0.0476190476190476
 40
0.0476190476190476
 40
0.0952380952380952
 40
0.0952380952380952
 40
0.0952380952380952
 40
0.0952380952380952
 40
0.1428571428571428
 40
0.1428571428571428
 40
0.1428571428571428
 40
0.1428571428571428
 40
0.1904761904761905
 40
0.1904761904761905
 40
0.1904761904761905
 40
0.1904761904761905
 40
0.2380952380952381
 40
0.2380952380952381
 40
0.2380952380952381
 40
0.2380952380952381
 40
0.2857142857142857
 40
0.2857142857142857
 40
0.2857142857142857
 40
0.2857142857142857
 40
0.3333333333333333
 40
0.3333333333333333
 40
0.3333333333333333
 40
0.3333333333333333
 40
0.3809523809523809
 40
0.3809523809523809
 40
0.3809523809523809
 40
0.3809523809523809
 40
0.4285714285714285
 40
0.4285714285714285
 40
0.4285714285714285
 40
0.4285714285714285
 40
0.4761904761904762
 40
0.4761904761904762
 40
0.4761904761904762
 40
0.4761904761904762
 40
0.5238095238095238
 40
0.5238095238095238
 40
0.5238095238095238
 40
0.5238095238095238
 40
0.5714285714285714
 40
0.5714285714285714
 40
0.5714285714285714
 40
0.5714285714285714
 40
0.6190476190476191
 40
0.6190476190476191
 40
0.6190476190476191
 40
0.6190476190476191
 40
0.6666666666666666
 40
0.6666666666666666
 40
0.6666666666666666
 40
0.6666666666666666
 40
0.7142857142857143
 40
0.7142857142857143
 40
0.7142857142857143
 40
0.7142857142857143
 40
0.7619047619047619
 40
0.7619047619047619
 40
0.7619047619047619
 40
0.7619047619047619
 40
0.8095238095238095
 40
0.8095238095238095
 40
0.8095238095238095
 40
0.8095238095238095
 40
0.8571428571428571
 40
0.8571428571428571
 40
0.8571428571428571
 40
0.8571428571428571
 40
0.9047619047619048
 40
0.9047619047619048
 40
0.9047619047619048
 40
0.9047619047619048
 40
1.0
 40
1.0
 40
1.0
 40
1.0
 10
-9.6463
 20
-0.5436
 30
0.0
 10
-9.6463
 20
-0.5436
 30
0.0
 10
-9.4149
 20
-0.2845
 30
0.0
 10
-9.4149
 20
-0.2845
 30
0.0
 10
-9.4149
 20
-0.2845
 30
0.0
 10
-9.4149
 20
-0.2845
 30
0.0
 10
-9.2785
 20
-0.4002
 30
0.0
 10
-9.2785
 20
-0.4002
 30
0.0
 10
-9.2785
 20
-0.4002
 30
0.0
 10
-9.2785
 20
-0.4002
 30
0.0
 10
-9.5207
 20
-0.673
 30
0.0
 10
-9.5207
 20
-0.673
 30
0.0
 10
-9.5207
 20
-0.673
 30
0.0
 10
-9.4417
 20
-0.7906
 30
0.0
 10
-9.3886
 20
-0.8936
 30
0.0
 10
-9.3608
 20
-0.9815
 30
0.0
 10
-9.3608
 20
-0.9815
 30
0.0
 10
-9.3241
 20
-1.0973
 30
0.0
 10
-9.3058
 20
-1.2271
 30
0.0
 10
-9.3058
 20
-1.3701
 30
0.0
 10
-9.3058
 20
-1.3701
 30
0.0
 10
-9.3058
 20
-1.577
 30
0.0
 10
-9.3476
 20
-1.7614
 30
0.0
 10
-9.4314
 20
-1.9227
 30
0.0
 10
-9.4314
 20
-1.9227
 30
0.0
 10
-9.5151
 20
-2.0846
 30
0.0
 10
-9.6322
 20
-2.2068
 30
0.0
 10
-9.7832
 20
-2.2896
 30
0.0
 10
-9.7832
 20
-2.2896
 30
0.0
 10
-9.9347
 20
-2.3719
 30
0.0
 10
-10.095
 20
-2.4133
 30
0.0
 10
-10.2648
 20
-2.4133
 30
0.0
 10
-10.2648
 20
-2.4133
 30
0.0
 10
-10.3918
 20
-2.4133
 30
0.0
 10
-10.5066
 20
-2.3955
 30
0.0
 10
-10.6096
 20
-2.3597
 30
0.0
 10
-10.6096
 20
-2.3597
 30
0.0
 10
-10.6886
 20
-2.332
 30
0.0
 10
-10.7808
 20
-2.2793
 30
0.0
 10
-10.8867
 20
-2.2012
 30
0.0
 10
-10.8867
 20
-2.2012
 30
0.0
 10
-10.8867
 20
-2.2012
 30
0.0
 10
-11.1181
 20
-2.4604
 30
0.0
 10
-11.1181
 20
-2.4604
 30
0.0
 10
-11.1181
 20
-2.4604
 30
0.0
 10
-11.1181
 20
-2.4604
 30
0.0
 10
-11.2545
 20
-2.3447
 30
0.0
 10
-11.2545
 20
-2.3447
 30
0.0
 10
-11.2545
 20
-2.3447
 30
0.0
 10
-11.2545
 20
-2.3447
 30
0.0
 10
-11.0118
 20
-2.0733
 30
0.0
 10
-11.0118
 20
-2.0733
 30
0.0
 10
-11.0118
 20
-2.0733
 30
0.0
 10
-11.1021
 20
-1.9364
 30
0.0
 10
-11.1623
 20
-1.8193
 30
0.0
 10
-11.1924
 20
-1.7224
 30
0.0
 10
-11.1924
 20
-1.7224
 30
0.0
 10
-11.2225
 20
-1.6255
 30
0.0
 10
-11.238
 20
-1.5088
 30
0.0
 10
-11.238
 20
-1.3729
 30
0.0
 10
-11.238
 20
-1.3729
 30
0.0
 10
-11.238
 20
-1.1655
 30
0.0
 10
-11.1966
 20
-0.9806
 30
0.0
 10
-11.1139
 20
-0.8183
 30
0.0
 10
-11.1139
 20
-0.8183
 30
0.0
 10
-11.0311
 20
-0.656
 30
0.0
 10
-10.9154
 20
-0.5333
 30
0.0
 10
-10.7658
 20
-0.4496
 30
0.0
 10
-10.7658
 20
-0.4496
 30
0.0
 10
-10.6167
 20
-0.3663
 30
0.0
 10
-10.4506
 20
-0.3244
 30
0.0
 10
-10.2677
 20
-0.3244
 30
0.0
 10
-10.2677
 20
-0.3244
 30
0.0
 10
-10.1444
 20
-0.3244
 30
0.0
 10
-10.0367
 20
-0.3404
 30
0.0
 10
-9.9445
 20
-0.3734
 30
0.0
 10
-9.9445
 20
-0.3734
 30
0.0
 10
-9.8523
 20
-0.4058
 30
0.0
 10
-9.7526
 20
-0.4627
 30
0.0
 10
-9.6463
 20
-0.5436
 30
0.0
  0
SPLINE
  5
5E
330
1F
100
AcDbEntity
  8
DEFAULT_1
 62
   250
100
AcDbSpline
210
0.0
220
0.0
230
1.0
 70
    11
 71
     3
 72
    32
 73
    28
 74
     0
 42
0.0000000001
 43
0.0000000001
 40
0.0
 40
0.0
 40
0.0
 40
0.0
 40
0.125
 40
0.125
 40
0.125
 40
0.125
 40
0.25
 40
0.25
 40
0.25
 40
0.25
 40
0.375
 40
0.375
 40
0.375
 40
0.375
 40
0.5
 40
0.5
 40
0.5
 40
0.5
 40
0.625
 40
0.625
 40
0.625
 40
0.625
 40
0.75
 40
0.75
 40
0.75
 40
0.75
 40
1.0
 40
1.0
 40
1.0
 40
1.0
 10
-9.8114
 20
-0.7294
 30
0.0
 10
-9.898
 20
-0.6617
 30
0.0
 10
-9.9737
 20
-0.6151
 30
0.0
 10
-10.0381
 20
-0.5902
 30
0.0
 10
-10.0381
 20
-0.5902
 30
0.0
 10
-10.103
 20
-0.5657
 30
0.0
 10
-10.1792
 20
-0.553
 30
0.0
 10
-10.2663
 20
-0.553
 30
0.0
 10
-10.2663
 20
-0.553
 30
0.0
 10
-10.4676
 20
-0.553
 30
0.0
 10
-10.6336
 20
-0.6212
 30
0.0
 10
-10.7653
 20
-0.7576
 30
0.0
 10
-10.7653
 20
-0.7576
 30
0.0
 10
-10.8966
 20
-0.8941
 30
0.0
 10
-10.9624
 20
-1.0977
 30
0.0
 10
-10.9624
 20
-1.3691
 30
0.0
 10
-10.9624
 20
-1.3691
 30
0.0
 10
-10.9624
 20
-1.4754
 30
0.0
 10
-10.9521
 20
-1.57
 30
0.0
 10
-10.9318
 20
-1.6528
 30
0.0
 10
-10.9318
 20
-1.6528
 30
0.0
 10
-10.9172
 20
-1.7144
 30
0.0
 10
-10.8867
 20
-1.7901
 30
0.0
 10
-10.8396
 20
-1.8799
 30
0.0
 10
-10.8396
 20
-1.8799
 30
0.0
 10
-10.8396
 20
-1.8799
 30
0.0
 10
-9.8114
 20
-0.7294
 30
0.0
 10
-9.8114
 20
-0.7294
 30
0.0
  0
SPLINE
  5
5F
330
1F
100
AcDbEntity
  8
DEFAULT_1
 62
   250
100
AcDbSpline
210
0.0
220
0.0
230
1.0
 70
    11
 71
     3
 72
    28
 73
    24
 74
     0
 42
0.0000000001
 43
0.0000000001
 40
0.0
 40
0.0
 40
0.0
 40
0.0
 40
0.1428571428571428
 40
0.1428571428571428
 40
0.1428571428571428
 40
0.1428571428571428
 40
0.2857142857142857
 40
0.2857142857142857
 40
0.2857142857142857
 40
0.2857142857142857
 40
0.4285714285714285
 40
0.4285714285714285
 40
0.4285714285714285
 40
0.4285714285714285
 40
0.5714285714285714
 40
0.5714285714285714
 40
0.5714285714285714
 40
0.5714285714285714
 40
0.7142857142857143
 40
0.7142857142857143
 40
0.7142857142857143
 40
0.7142857142857143
 40
1.0
 40
1.0
 40
1.0
 40
1.0
 10
-9.6985
 20
-0.8715
 30
0.0
 10
-9.6985
 20
-0.8715
 30
0.0
 10
-10.7225
 20
-2.0178
 30
0.0
 10
-10.7225
 20
-2.0178
 30
0.0
 10
-10.7225
 20
-2.0178
 30
0.0
 10
-10.652
 20
-2.0756
 30
0.0
 10
-10.5866
 20
-2.1161
 30
0.0
 10
-10.5268
 20
-2.1391
 30
0.0
 10
-10.5268
 20
-2.1391
 30
0.0
 10
-10.4488
 20
-2.1697
 30
0.0
 10
-10.3641
 20
-2.1847
 30
0.0
 10
-10.2733
 20
-2.1847
 30
0.0
 10
-10.2733
 20
-2.1847
 30
0.0
 10
-10.0729
 20
-2.1847
 30
0.0
 10
-9.9078
 20
-2.1142
 30
0.0
 10
-9.7771
 20
-1.9726
 30
0.0
 10
-9.7771
 20
-1.9726
 30
0.0
 10
-9.6468
 20
-1.831
 30
0.0
 10
-9.5814
 20
-1.6325
 30
0.0
 10
-9.5814
 20
-1.3771
 30
0.0
 10
-9.5814
 20
-1.3771
 30
0.0
 10
-9.5814
 20
-1.1862
 30
0.0
 10
-9.6204
 20
-1.0173
 30
0.0
 10
-9.6985
 20
-0.8715
 30
0.0
  0
SPLINE
  5
60
330
1F
100
AcDbEntity
  8
DEFAULT_1
 62
   250
100
AcDbSpline
210
0.0
220
0.0
230
1.0
 70
    11
 71
     3
 72
   124
 73
   120
 74
     0
 42
0.0000000001
 43
0.0000000001
 40
0.0
 40
0.0
 40
0.0
 40
0.0
 40
0.032258064516129
 40
0.032258064516129
 40
0.032258064516129
 40
0.032258064516129
 40
0.0645161290322581
 40
0.0645161290322581
 40
0.0645161290322581
 40
0.0645161290322581
 40
0.0967741935483871
 40
0.0967741935483871
 40
0.0967741935483871
 40
0.0967741935483871
 40
0.1290322580645161
 40
0.1290322580645161
 40
0.1290322580645161
 40
0.1290322580645161
 40
0.1612903225806452
 40
0.1612903225806452
 40
0.1612903225806452
 40
0.1612903225806452
 40
0.1935483870967742
 40
0.1935483870967742
 40
0.1935483870967742
 40
0.1935483870967742
 40
0.2258064516129032
 40
0.2258064516129032
 40
0.2258064516129032
 40
0.2258064516129032
 40
0.2580645161290323
 40
0.2580645161290323
 40
0.2580645161290323
 40
0.2580645161290323
 40
0.2903225806451613
 40
0.2903225806451613
 40
0.2903225806451613
 40
0.2903225806451613
 40
0.3225806451612903
 40
0.3225806451612903
 40
0.3225806451612903
 40
0.3225806451612903
 40
0.3548387096774194
 40
0.3548387096774194
 40
0.3548387096774194
 40
0.3548387096774194
 40
0.3870967741935484
 40
0.3870967741935484
 40
0.3870967741935484
 40
0.3870967741935484
 40
0.4193548387096774
 40
0.4193548387096774
 40
0.4193548387096774
 40
0.4193548387096774
 40
0.4516129032258064
 40
0.4516129032258064
 40
0.4516129032258064
 40
0.4516129032258064
 40
0.4838709677419355
 40
0.4838709677419355
 40
0.4838709677419355
 40
0.4838709677419355
 40
0.5161290322580645
 40
0.5161290322580645
 40
0.5161290322580645
 40
0.5161290322580645
 40
0.5483870967741935
 40
0.5483870967741935
 40
0.5483870967741935
 40
0.5483870967741935
 40
0.5806451612903226
 40
0.5806451612903226
 40
0.5806451612903226
 40
0.5806451612903226
 40
0.6129032258064516
 40
0.6129032258064516
 40
0.6129032258064516
 40
0.6129032258064516
 40
0.6451612903225806
 40
0.6451612903225806
 40
0.6451612903225806
 40
0.6451612903225806
 40
0.6774193548387096
 40
0.6774193548387096
 40
0.6774193548387096
 40
0.6774193548387096
 40
0.7096774193548387
 40
0.7096774193548387
 40
0.7096774193548387
 40
0.7096774193548387
 40
0.7419354838709677
 40
0.7419354838709677
 40
0.7419354838709677
 40
0.7419354838709677
 40
0.7741935483870968
 40
0.7741935483870968
 40
0.7741935483870968
 40
0.7741935483870968
 40
0.8064516129032258
 40
0.8064516129032258
 40
0.8064516129032258
 40
0.8064516129032258
 40
0.8387096774193549
 40
0.8387096774193549
 40
0.8387096774193549
 40
0.8387096774193549
 40
0.8709677419354839
 40
0.8709677419354839
 40
0.8709677419354839
 40
0.8709677419354839
 40
0.9032258064516129
 40
0.9032258064516129
 40
0.9032258064516129
 40
0.9032258064516129
 40
0.9354838709677419
 40
0.9354838709677419
 40
0.9354838709677419
 40
0.9354838709677419
 40
1.0
 40
1.0
 40
1.0
 40
1.0
 10
-9.0551
 20
-1.8456
 30
0.0
 10
-9.0551
 20
-1.8456
 30
0.0
 10
-8.8072
 20
-1.8127
 30
0.0
 10
-8.8072
 20
-1.8127
 30
0.0
 10
-8.8072
 20
-1.8127
 30
0.0
 10
-8.7785
 20
-1.9533
 30
0.0
 10
-8.73
 20
-2.0544
 30
0.0
 10
-8.6618
 20
-2.1165
 30
0.0
 10
-8.6618
 20
-2.1165
 30
0.0
 10
-8.5932
 20
-2.1786
 30
0.0
 10
-8.5099
 20
-2.2097
 30
0.0
 10
-8.4116
 20
-2.2097
 30
0.0
 10
-8.4116
 20
-2.2097
 30
0.0
 10
-8.295
 20
-2.2097
 30
0.0
 10
-8.1962
 20
-2.1692
 30
0.0
 10
-8.1157
 20
-2.0883
 30
0.0
 10
-8.1157
 20
-2.0883
 30
0.0
 10
-8.0358
 20
-2.0074
 30
0.0
 10
-7.9953
 20
-1.9072
 30
0.0
 10
-7.9953
 20
-1.7877
 30
0.0
 10
-7.9953
 20
-1.7877
 30
0.0
 10
-7.9953
 20
-1.6739
 30
0.0
 10
-8.0325
 20
-1.5798
 30
0.0
 10
-8.1068
 20
-1.506
 30
0.0
 10
-8.1068
 20
-1.506
 30
0.0
 10
-8.1816
 20
-1.4322
 30
0.0
 10
-8.2761
 20
-1.395
 30
0.0
 10
-8.3909
 20
-1.395
 30
0.0
 10
-8.3909
 20
-1.395
 30
0.0
 10
-8.4379
 20
-1.395
 30
0.0
 10
-8.4963
 20
-1.4044
 30
0.0
 10
-8.5659
 20
-1.4227
 30
0.0
 10
-8.5659
 20
-1.4227
 30
0.0
 10
-8.5659
 20
-1.4227
 30
0.0
 10
-8.5381
 20
-1.205
 30
0.0
 10
-8.5381
 20
-1.205
 30
0.0
 10
-8.5381
 20
-1.205
 30
0.0
 10
-8.5217
 20
-1.2068
 30
0.0
 10
-8.5085
 20
-1.2078
 30
0.0
 10
-8.4982
 20
-1.2078
 30
0.0
 10
-8.4982
 20
-1.2078
 30
0.0
 10
-8.3928
 20
-1.2078
 30
0.0
 10
-8.2978
 20
-1.18
 30
0.0
 10
-8.2131
 20
-1.125
 30
0.0
 10
-8.2131
 20
-1.125
 30
0.0
 10
-8.1284
 20
-1.07
 30
0.0
 10
-8.0861
 20
-0.9848
 30
0.0
 10
-8.0861
 20
-0.8701
 30
0.0
 10
-8.0861
 20
-0.8701
 30
0.0
 10
-8.0861
 20
-0.7793
 30
0.0
 10
-8.1172
 20
-0.7036
 30
0.0
 10
-8.1788
 20
-0.6443
 30
0.0
 10
-8.1788
 20
-0.6443
 30
0.0
 10
-8.2404
 20
-0.5846
 30
0.0
 10
-8.3199
 20
-0.5544
 30
0.0
 10
-8.4173
 20
-0.5544
 30
0.0
 10
-8.4173
 20
-0.5544
 30
0.0
 10
-8.5137
 20
-0.5544
 30
0.0
 10
-8.5941
 20
-0.585
 30
0.0
 10
-8.6581
 20
-0.6452
 30
0.0
 10
-8.6581
 20
-0.6452
 30
0.0
 10
-8.7225
 20
-0.7059
 30
0.0
 10
-8.7639
 20
-0.7972
 30
0.0
 10
-8.7823
 20
-0.9185
 30
0.0
 10
-8.7823
 20
-0.9185
 30
0.0
 10
-8.7823
 20
-0.9185
 30
0.0
 10
-9.0301
 20
-0.8743
 30
0.0
 10
-9.0301
 20
-0.8743
 30
0.0
 10
-9.0301
 20
-0.8743
 30
0.0
 10
-9.0
 20
-0.7078
 30
0.0
 10
-8.9309
 20
-0.5789
 30
0.0
 10
-8.8236
 20
-0.4877
 30
0.0
 10
-8.8236
 20
-0.4877
 30
0.0
 10
-8.7159
 20
-0.3964
 30
0.0
 10
-8.5823
 20
-0.3503
 30
0.0
 10
-8.4224
 20
-0.3503
 30
0.0
 10
-8.4224
 20
-0.3503
 30
0.0
 10
-8.3124
 20
-0.3503
 30
0.0
 10
-8.2108
 20
-0.3743
 30
0.0
 10
-8.1181
 20
-0.4213
 30
0.0
 10
-8.1181
 20
-0.4213
 30
0.0
 10
-8.0254
 20
-0.4688
 30
0.0
 10
-7.9544
 20
-0.5333
 30
0.0
 10
-7.905
 20
-0.6151
 30
0.0
 10
-7.905
 20
-0.6151
 30
0.0
 10
-7.8561
 20
-0.697
 30
0.0
 10
-7.8312
 20
-0.7835
 30
0.0
 10
-7.8312
 20
-0.8757
 30
0.0
 10
-7.8312
 20
-0.8757
 30
0.0
 10
-7.8312
 20
-0.9627
 30
0.0
 10
-7.8547
 20
-1.0422
 30
0.0
 10
-7.9017
 20
-1.1142
 30
0.0
 10
-7.9017
 20
-1.1142
 30
0.0
 10
-7.9488
 20
-1.1857
 30
0.0
 10
-8.0179
 20
-1.2426
 30
0.0
 10
-8.1096
 20
-1.2849
 30
0.0
 10
-8.1096
 20
-1.2849
 30
0.0
 10
-7.9902
 20
-1.3122
 30
0.0
 10
-7.8975
 20
-1.3696
 30
0.0
 10
-7.8312
 20
-1.4566
 30
0.0
 10
-7.8312
 20
-1.4566
 30
0.0
 10
-7.7653
 20
-1.5432
 30
0.0
 10
-7.7324
 20
-1.6518
 30
0.0
 10
-7.7324
 20
-1.7821
 30
0.0
 10
-7.7324
 20
-1.7821
 30
0.0
 10
-7.7324
 20
-1.9585
 30
0.0
 10
-7.7964
 20
-2.1081
 30
0.0
 10
-7.9252
 20
-2.2308
 30
0.0
 10
-7.9252
 20
-2.2308
 30
0.0
 10
-8.0537
 20
-2.3536
 30
0.0
 10
-8.2164
 20
-2.4147
 30
0.0
 10
-8.413
 20
-2.4147
 30
0.0
 10
-8.413
 20
-2.4147
 30
0.0
 10
-8.5903
 20
-2.4147
 30
0.0
 10
-8.7376
 20
-2.3621
 30
0.0
 10
-8.8547
 20
-2.2562
 30
0.0
 10
-8.8547
 20
-2.2562
 30
0.0
 10
-8.9718
 20
-2.1509
 30
0.0
 10
-9.0386
 20
-2.014
 30
0.0
 10
-9.0551
 20
-1.8456
 30
0.0
  0
SPLINE
  5
61
330
1F
100
AcDbEntity
  8
DEFAULT_1
 62
   250
100
AcDbSpline
210
0.0
220
0.0
230
1.0
 70
    11
 71
     3
 72
    92
 73
    88
 74
     0
 42
0.0000000001
 43
0.0000000001
 40
0.0
 40
0.0
 40
0.0
 40
0.0
 40
0.0434782608695652
 40
0.0434782608695652
 40
0.0434782608695652
 40
0.0434782608695652
 40
0.0869565217391304
 40
0.0869565217391304
 40
0.0869565217391304
 40
0.0869565217391304
 40
0.1304347826086956
 40
0.1304347826086956
 40
0.1304347826086956
 40
0.1304347826086956
 40
0.1739130434782609
 40
0.1739130434782609
 40
0.1739130434782609
 40
0.1739130434782609
 40
0.2173913043478261
 40
0.2173913043478261
 40
0.2173913043478261
 40
0.2173913043478261
 40
0.2608695652173913
 40
0.2608695652173913
 40
0.2608695652173913
 40
0.2608695652173913
 40
0.3043478260869565
 40
0.3043478260869565
 40
0.3043478260869565
 40
0.3043478260869565
 40
0.3478260869565217
 40
0.3478260869565217
 40
0.3478260869565217
 40
0.3478260869565217
 40
0.391304347826087
 40
0.391304347826087
 40
0.391304347826087
 40
0.391304347826087
 40
0.4347826086956522
 40
0.4347826086956522
 40
0.4347826086956522
 40
0.4347826086956522
 40
0.4782608695652174
 40
0.4782608695652174
 40
0.4782608695652174
 40
0.4782608695652174
 40
0.5217391304347826
 40
0.5217391304347826
 40
0.5217391304347826
 40
0.5217391304347826
 40
0.5652173913043478
 40
0.5652173913043478
 40
0.5652173913043478
 40
0.5652173913043478
 40
0.6086956521739131
 40
0.6086956521739131
 40
0.6086956521739131
 40
0.6086956521739131
 40
0.6521739130434783
 40
0.6521739130434783
 40
0.6521739130434783
 40
0.6521739130434783
 40
0.6956521739130435
 40
0.6956521739130435
 40
0.6956521739130435
 40
0.6956521739130435
 40
0.7391304347826086
 40
0.7391304347826086
 40
0.7391304347826086
 40
0.7391304347826086
 40
0.782608695652174
 40
0.782608695652174
 40
0.782608695652174
 40
0.782608695652174
 40
0.8260869565217391
 40
0.8260869565217391
 40
0.8260869565217391
 40
0.8260869565217391
 40
0.8695652173913043
 40
0.8695652173913043
 40
0.8695652173913043
 40
0.8695652173913043
 40
0.9130434782608695
 40
0.9130434782608695
 40
0.9130434782608695
 40
0.9130434782608695
 40
1.0
 40
1.0
 40
1.0
 40
1.0
 10
-6.183
 20
-2.1405
 30
0.0
 10
-6.183
 20
-2.1405
 30
0.0
 10
-6.183
 20
-2.379
 30
0.0
 10
-6.183
 20
-2.379
 30
0.0
 10
-6.183
 20
-2.379
 30
0.0
 10
-6.183
 20
-2.379
 30
0.0
 10
-7.5184
 20
-2.379
 30
0.0
 10
-7.5184
 20
-2.379
 30
0.0
 10
-7.5184
 20
-2.379
 30
0.0
 10
-7.5203
 20
-2.3193
 30
0.0
 10
-7.5109
 20
-2.2619
 30
0.0
 10
-7.4897
 20
-2.2068
 30
0.0
 10
-7.4897
 20
-2.2068
 30
0.0
 10
-7.4558
 20
-2.1156
 30
0.0
 10
-7.4013
 20
-2.0262
 30
0.0
 10
-7.3265
 20
-1.9378
 30
0.0
 10
-7.3265
 20
-1.9378
 30
0.0
 10
-7.2512
 20
-1.8498
 30
0.0
 10
-7.143
 20
-1.7478
 30
0.0
 10
-7.0019
 20
-1.6321
 30
0.0
 10
-7.0019
 20
-1.6321
 30
0.0
 10
-6.7823
 20
-1.4519
 30
0.0
 10
-6.6336
 20
-1.3094
 30
0.0
 10
-6.5565
 20
-1.204
 30
0.0
 10
-6.5565
 20
-1.204
 30
0.0
 10
-6.4794
 20
-1.0991
 30
0.0
 10
-6.4408
 20
-0.9994
 30
0.0
 10
-6.4408
 20
-0.9058
 30
0.0
 10
-6.4408
 20
-0.9058
 30
0.0
 10
-6.4408
 20
-0.8075
 30
0.0
 10
-6.4761
 20
-0.7247
 30
0.0
 10
-6.5461
 20
-0.657
 30
0.0
 10
-6.5461
 20
-0.657
 30
0.0
 10
-6.6167
 20
-0.5897
 30
0.0
 10
-6.7084
 20
-0.5559
 30
0.0
 10
-6.8213
 20
-0.5559
 30
0.0
 10
-6.8213
 20
-0.5559
 30
0.0
 10
-6.9408
 20
-0.5559
 30
0.0
 10
-7.0363
 20
-0.5916
 30
0.0
 10
-7.1078
 20
-0.6636
 30
0.0
 10
-7.1078
 20
-0.6636
 30
0.0
 10
-7.1797
 20
-0.7351
 30
0.0
 10
-7.2159
 20
-0.8343
 30
0.0
 10
-7.2169
 20
-0.9608
 30
0.0
 10
-7.2169
 20
-0.9608
 30
0.0
 10
-7.2169
 20
-0.9608
 30
0.0
 10
-7.4718
 20
-0.935
 30
0.0
 10
-7.4718
 20
-0.935
 30
0.0
 10
-7.4718
 20
-0.935
 30
0.0
 10
-7.4544
 20
-0.7445
 30
0.0
 10
-7.3886
 20
-0.5996
 30
0.0
 10
-7.2747
 20
-0.4999
 30
0.0
 10
-7.2747
 20
-0.4999
 30
0.0
 10
-7.1609
 20
-0.4002
 30
0.0
 10
-7.0076
 20
-0.3503
 30
0.0
 10
-6.8157
 20
-0.3503
 30
0.0
 10
-6.8157
 20
-0.3503
 30
0.0
 10
-6.6219
 20
-0.3503
 30
0.0
 10
-6.4685
 20
-0.4044
 30
0.0
 10
-6.3556
 20
-0.5116
 30
0.0
 10
-6.3556
 20
-0.5116
 30
0.0
 10
-6.2423
 20
-0.6194
 30
0.0
 10
-6.1858
 20
-0.7525
 30
0.0
 10
-6.1858
 20
-0.9115
 30
0.0
 10
-6.1858
 20
-0.9115
 30
0.0
 10
-6.1858
 20
-0.9924
 30
0.0
 10
-6.2023
 20
-1.0719
 30
0.0
 10
-6.2357
 20
-1.1499
 30
0.0
 10
-6.2357
 20
-1.1499
 30
0.0
 10
-6.2686
 20
-1.228
 30
0.0
 10
-6.3237
 20
-1.3103
 30
0.0
 10
-6.4003
 20
-1.3964
 30
0.0
 10
-6.4003
 20
-1.3964
 30
0.0
 10
-6.477
 20
-1.483
 30
0.0
 10
-6.6045
 20
-1.6015
 30
0.0
 10
-6.7827
 20
-1.752
 30
0.0
 10
-6.7827
 20
-1.752
 30
0.0
 10
-6.9314
 20
-1.8771
 30
0.0
 10
-7.0269
 20
-1.9618
 30
0.0
 10
-7.0692
 20
-2.0065
 30
0.0
 10
-7.0692
 20
-2.0065
 30
0.0
 10
-7.1115
 20
-2.0507
 30
0.0
 10
-7.1463
 20
-2.0954
 30
0.0
 10
-7.1741
 20
-2.1405
 30
0.0
 10
-7.1741
 20
-2.1405
 30
0.0
 10
-7.1741
 20
-2.1405
 30
0.0
 10
-6.183
 20
-2.1405
 30
0.0
 10
-6.183
 20
-2.1405
 30
0.0
  0
SPLINE
  5
62
330
1F
100
AcDbEntity
  8
DEFAULT_1
 62
   250
100
AcDbSpline
210
0.0
220
0.0
230
1.0
 70
    11
 71
     3
 72
   116
 73
   112
 74
     0
 42
0.0000000001
 43
0.0000000001
 40
0.0
 40
0.0
 40
0.0
 40
0.0
 40
0.0344827586206897
 40
0.0344827586206897
 40
0.0344827586206897
 40
0.0344827586206897
 40
0.0689655172413793
 40
0.0689655172413793
 40
0.0689655172413793
 40
0.0689655172413793
 40
0.103448275862069
 40
0.103448275862069
 40
0.103448275862069
 40
0.103448275862069
 40
0.1379310344827586
 40
0.1379310344827586
 40
0.1379310344827586
 40
0.1379310344827586
 40
0.1724137931034483
 40
0.1724137931034483
 40
0.1724137931034483
 40
0.1724137931034483
 40
0.2068965517241379
 40
0.2068965517241379
 40
0.2068965517241379
 40
0.2068965517241379
 40
0.2413793103448276
 40
0.2413793103448276
 40
0.2413793103448276
 40
0.2413793103448276
 40
0.2758620689655172
 40
0.2758620689655172
 40
0.2758620689655172
 40
0.2758620689655172
 40
0.3103448275862069
 40
0.3103448275862069
 40
0.3103448275862069
 40
0.3103448275862069
 40
0.3448275862068966
 40
0.3448275862068966
 40
0.3448275862068966
 40
0.3448275862068966
 40
0.3793103448275862
 40
0.3793103448275862
 40
0.3793103448275862
 40
0.3793103448275862
 40
0.4137931034482759
 40
0.4137931034482759
 40
0.4137931034482759
 40
0.4137931034482759
 40
0.4482758620689655
 40
0.4482758620689655
 40
0.4482758620689655
 40
0.4482758620689655
 40
0.4827586206896552
 40
0.4827586206896552
 40
0.4827586206896552
 40
0.4827586206896552
 40
0.5172413793103449
 40
0.5172413793103449
 40
0.5172413793103449
 40
0.5172413793103449
 40
0.5517241379310345
 40
0.5517241379310345
 40
0.5517241379310345
 40
0.5517241379310345
 40
0.5862068965517241
 40
0.5862068965517241
 40
0.5862068965517241
 40
0.5862068965517241
 40
0.6206896551724138
 40
0.6206896551724138
 40
0.6206896551724138
 40
0.6206896551724138
 40
0.6551724137931034
 40
0.6551724137931034
 40
0.6551724137931034
 40
0.6551724137931034
 40
0.6896551724137931
 40
0.6896551724137931
 40
0.6896551724137931
 40
0.6896551724137931
 40
0.7241379310344828
 40
0.7241379310344828
 40
0.7241379310344828
 40
0.7241379310344828
 40
0.7586206896551724
 40
0.7586206896551724
 40
0.7586206896551724
 40
0.7586206896551724
 40
0.7931034482758621
 40
0.7931034482758621
 40
0.7931034482758621
 40
0.7931034482758621
 40
0.8275862068965517
 40
0.8275862068965517
 40
0.8275862068965517
 40
0.8275862068965517
 40
0.8620689655172413
 40
0.8620689655172413
 40
0.8620689655172413
 40
0.8620689655172413
 40
0.896551724137931
 40
0.896551724137931
 40
0.896551724137931
 40
0.896551724137931
 40
0.9310344827586207
 40
0.9310344827586207
 40
0.9310344827586207
 40
0.9310344827586207
 40
1.0
 40
1.0
 40
1.0
 40
1.0
 10
-0.4464
 20
36.1843
 30
0.0
 10
-0.4464
 20
36.1843
 30
0.0
 10
-0.4464
 20
37.6476
 30
0.0
 10
-0.4464
 20
37.6476
 30
0.0
 10
-0.4464
 20
37.6476
 30
0.0
 10
-0.4464
 20
37.6476
 30
0.0
 10
-0.2249
 20
37.6476
 30
0.0
 10
-0.2249
 20
37.6476
 30
0.0
 10
-0.2249
 20
37.6476
 30
0.0
 10
-0.2249
 20
37.6476
 30
0.0
 10
-0.2249
 20
37.4425
 30
0.0
 10
-0.2249
 20
37.4425
 30
0.0
 10
-0.2249
 20
37.4425
 30
0.0
 10
-0.1788
 20
37.514
 30
0.0
 10
-0.1176
 20
37.5719
 30
0.0
 10
-0.0414
 20
37.6152
 30
0.0
 10
-0.0414
 20
37.6152
 30
0.0
 10
0.0348
 20
37.6589
 30
0.0
 10
0.1218
 20
37.681
 30
0.0
 10
0.2191
 20
37.681
 30
0.0
 10
0.2191
 20
37.681
 30
0.0
 10
0.3273
 20
37.681
 30
0.0
 10
0.4162
 20
37.6584
 30
0.0
 10
0.4854
 20
37.6133
 30
0.0
 10
0.4854
 20
37.6133
 30
0.0
 10
0.555
 20
37.5681
 30
0.0
 10
0.6039
 20
37.5056
 30
0.0
 10
0.6321
 20
37.4247
 30
0.0
 10
0.6321
 20
37.4247
 30
0.0
 10
0.7483
 20
37.5954
 30
0.0
 10
0.8988
 20
37.681
 30
0.0
 10
1.0841
 20
37.681
 30
0.0
 10
1.0841
 20
37.681
 30
0.0
 10
1.2295
 20
37.681
 30
0.0
 10
1.341
 20
37.6406
 30
0.0
 10
1.419
 20
37.5601
 30
0.0
 10
1.419
 20
37.5601
 30
0.0
 10
1.4971
 20
37.4797
 30
0.0
 10
1.5362
 20
37.356
 30
0.0
 10
1.5362
 20
37.189
 30
0.0
 10
1.5362
 20
37.189
 30
0.0
 10
1.5362
 20
37.189
 30
0.0
 10
1.5362
 20
36.1843
 30
0.0
 10
1.5362
 20
36.1843
 30
0.0
 10
1.5362
 20
36.1843
 30
0.0
 10
1.5362
 20
36.1843
 30
0.0
 10
1.2897
 20
36.1843
 30
0.0
 10
1.2897
 20
36.1843
 30
0.0
 10
1.2897
 20
36.1843
 30
0.0
 10
1.2897
 20
36.1843
 30
0.0
 10
1.2897
 20
37.1062
 30
0.0
 10
1.2897
 20
37.1062
 30
0.0
 10
1.2897
 20
37.1062
 30
0.0
 10
1.2897
 20
37.2055
 30
0.0
 10
1.2817
 20
37.277
 30
0.0
 10
1.2657
 20
37.3207
 30
0.0
 10
1.2657
 20
37.3207
 30
0.0
 10
1.2492
 20
37.364
 30
0.0
 10
1.2201
 20
37.3993
 30
0.0
 10
1.1782
 20
37.4261
 30
0.0
 10
1.1782
 20
37.4261
 30
0.0
 10
1.1359
 20
37.4524
 30
0.0
 10
1.086
 20
37.466
 30
0.0
 10
1.0291
 20
37.466
 30
0.0
 10
1.0291
 20
37.466
 30
0.0
 10
0.9261
 20
37.466
 30
0.0
 10
0.841
 20
37.4317
 30
0.0
 10
0.7728
 20
37.363
 30
0.0
 10
0.7728
 20
37.363
 30
0.0
 10
0.705
 20
37.2948
 30
0.0
 10
0.6707
 20
37.1852
 30
0.0
 10
0.6707
 20
37.0347
 30
0.0
 10
0.6707
 20
37.0347
 30
0.0
 10
0.6707
 20
37.0347
 30
0.0
 10
0.6707
 20
36.1843
 30
0.0
 10
0.6707
 20
36.1843
 30
0.0
 10
0.6707
 20
36.1843
 30
0.0
 10
0.6707
 20
36.1843
 30
0.0
 10
0.4228
 20
36.1843
 30
0.0
 10
0.4228
 20
36.1843
 30
0.0
 10
0.4228
 20
36.1843
 30
0.0
 10
0.4228
 20
36.1843
 30
0.0
 10
0.4228
 20
37.1349
 30
0.0
 10
0.4228
 20
37.1349
 30
0.0
 10
0.4228
 20
37.1349
 30
0.0
 10
0.4228
 20
37.2454
 30
0.0
 10
0.4026
 20
37.3282
 30
0.0
 10
0.3621
 20
37.3833
 30
0.0
 10
0.3621
 20
37.3833
 30
0.0
 10
0.3217
 20
37.4383
 30
0.0
 10
0.2558
 20
37.466
 30
0.0
 10
0.1636
 20
37.466
 30
0.0
 10
0.1636
 20
37.466
 30
0.0
 10
0.094
 20
37.466
 30
0.0
 10
0.0296
 20
37.4477
 30
0.0
 10
-0.0297
 20
37.4105
 30
0.0
 10
-0.0297
 20
37.4105
 30
0.0
 10
-0.089
 20
37.3739
 30
0.0
 10
-0.1322
 20
37.3202
 30
0.0
 10
-0.1586
 20
37.2497
 30
0.0
 10
-0.1586
 20
37.2497
 30
0.0
 10
-0.1854
 20
37.1787
 30
0.0
 10
-0.1986
 20
37.0766
 30
0.0
 10
-0.1986
 20
36.9435
 30
0.0
 10
-0.1986
 20
36.9435
 30
0.0
 10
-0.1986
 20
36.9435
 30
0.0
 10
-0.1986
 20
36.1843
 30
0.0
 10
-0.1986
 20
36.1843
 30
0.0
 10
-0.1986
 20
36.1843
 30
0.0
 10
-0.1986
 20
36.1843
 30
0.0
 10
-0.4464
 20
36.1843
 30
0.0
 10
-0.4464
 20
36.1843
 30
0.0
  0
SPLINE
  5
63
330
1F
100
AcDbEntity
  8
DEFAULT_1
 62
   250
100
AcDbSpline
210
0.0
220
0.0
230
1.0
 70
    11
 71
     3
 72
   112
 73
   108
 74
     0
 42
0.0000000001
 43
0.0000000001
 40
0.0
 40
0.0
 40
0.0
 40
0.0
 40
0.0357142857142857
 40
0.0357142857142857
 40
0.0357142857142857
 40
0.0357142857142857
 40
0.0714285714285714
 40
0.0714285714285714
 40
0.0714285714285714
 40
0.0714285714285714
 40
0.1071428571428571
 40
0.1071428571428571
 40
0.1071428571428571
 40
0.1071428571428571
 40
0.1428571428571428
 40
0.1428571428571428
 40
0.1428571428571428
 40
0.1428571428571428
 40
0.1785714285714286
 40
0.1785714285714286
 40
0.1785714285714286
 40
0.1785714285714286
 40
0.2142857142857143
 40
0.2142857142857143
 40
0.2142857142857143
 40
0.2142857142857143
 40
0.25
 40
0.25
 40
0.25
 40
0.25
 40
0.2857142857142857
 40
0.2857142857142857
 40
0.2857142857142857
 40
0.2857142857142857
 40
0.3214285714285715
 40
0.3214285714285715
 40
0.3214285714285715
 40
0.3214285714285715
 40
0.3571428571428572
 40
0.3571428571428572
 40
0.3571428571428572
 40
0.3571428571428572
 40
0.3928571428571428
 40
0.3928571428571428
 40
0.3928571428571428
 40
0.3928571428571428
 40
0.4285714285714285
 40
0.4285714285714285
 40
0.4285714285714285
 40
0.4285714285714285
 40
0.4642857142857143
 40
0.4642857142857143
 40
0.4642857142857143
 40
0.4642857142857143
 40
0.5
 40
0.5
 40
0.5
 40
0.5
 40
0.5357142857142857
 40
0.5357142857142857
 40
0.5357142857142857
 40
0.5357142857142857
 40
0.5714285714285714
 40
0.5714285714285714
 40
0.5714285714285714
 40
0.5714285714285714
 40
0.6071428571428571
 40
0.6071428571428571
 40
0.6071428571428571
 40
0.6071428571428571
 40
0.6428571428571429
 40
0.6428571428571429
 40
0.6428571428571429
 40
0.6428571428571429
 40
0.6785714285714286
 40
0.6785714285714286
 40
0.6785714285714286
 40
0.6785714285714286
 40
0.7142857142857143
 40
0.7142857142857143
 40
0.7142857142857143
 40
0.7142857142857143
 40
0.75
 40
0.75
 40
0.75
 40
0.75
 40
0.7857142857142857
 40
0.7857142857142857
 40
0.7857142857142857
 40
0.7857142857142857
 40
0.8214285714285714
 40
0.8214285714285714
 40
0.8214285714285714
 40
0.8214285714285714
 40
0.8571428571428571
 40
0.8571428571428571
 40
0.8571428571428571
 40
0.8571428571428571
 40
0.8928571428571429
 40
0.8928571428571429
 40
0.8928571428571429
 40
0.8928571428571429
 40
0.9285714285714286
 40
0.9285714285714286
 40
0.9285714285714286
 40
0.9285714285714286
 40
1.0
 40
1.0
 40
1.0
 40
1.0
 10
2.8593
 20
36.3649
 30
0.0
 10
2.7671
 20
36.2868
 30
0.0
 10
2.6787
 20
36.2318
 30
0.0
 10
2.594
 20
36.1994
 30
0.0
 10
2.594
 20
36.1994
 30
0.0
 10
2.5089
 20
36.1674
 30
0.0
 10
2.4176
 20
36.1514
 30
0.0
 10
2.3203
 20
36.1514
 30
0.0
 10
2.3203
 20
36.1514
 30
0.0
 10
2.1594
 20
36.1514
 30
0.0
 10
2.0362
 20
36.1904
 30
0.0
 10
1.9496
 20
36.269
 30
0.0
 10
1.9496
 20
36.269
 30
0.0
 10
1.8635
 20
36.3475
 30
0.0
 10
1.8203
 20
36.4482
 30
0.0
 10
1.8203
 20
36.57
 30
0.0
 10
1.8203
 20
36.57
 30
0.0
 10
1.8203
 20
36.642
 30
0.0
 10
1.8363
 20
36.7073
 30
0.0
 10
1.8692
 20
36.7666
 30
0.0
 10
1.8692
 20
36.7666
 30
0.0
 10
1.9016
 20
36.8259
 30
0.0
 10
1.9444
 20
36.8734
 30
0.0
 10
1.9971
 20
36.9091
 30
0.0
 10
1.9971
 20
36.9091
 30
0.0
 10
2.0503
 20
36.9449
 30
0.0
 10
2.1095
 20
36.9722
 30
0.0
 10
2.1759
 20
36.9905
 30
0.0
 10
2.1759
 20
36.9905
 30
0.0
 10
2.2243
 20
37.0032
 30
0.0
 10
2.2977
 20
37.0159
 30
0.0
 10
2.396
 20
37.0277
 30
0.0
 10
2.396
 20
37.0277
 30
0.0
 10
2.5964
 20
37.0517
 30
0.0
 10
2.7441
 20
37.0799
 30
0.0
 10
2.8386
 20
37.1133
 30
0.0
 10
2.8386
 20
37.1133
 30
0.0
 10
2.8396
 20
37.1471
 30
0.0
 10
2.84
 20
37.1688
 30
0.0
 10
2.84
 20
37.1777
 30
0.0
 10
2.84
 20
37.1777
 30
0.0
 10
2.84
 20
37.2788
 30
0.0
 10
2.8165
 20
37.3503
 30
0.0
 10
2.7695
 20
37.3913
 30
0.0
 10
2.7695
 20
37.3913
 30
0.0
 10
2.7064
 20
37.4477
 30
0.0
 10
2.6119
 20
37.4755
 30
0.0
 10
2.4872
 20
37.4755
 30
0.0
 10
2.4872
 20
37.4755
 30
0.0
 10
2.3706
 20
37.4755
 30
0.0
 10
2.2845
 20
37.4552
 30
0.0
 10
2.2285
 20
37.4143
 30
0.0
 10
2.2285
 20
37.4143
 30
0.0
 10
2.173
 20
37.3734
 30
0.0
 10
2.1321
 20
37.301
 30
0.0
 10
2.1053
 20
37.197
 30
0.0
 10
2.1053
 20
37.197
 30
0.0
 10
2.1053
 20
37.197
 30
0.0
 10
1.8631
 20
37.2304
 30
0.0
 10
1.8631
 20
37.2304
 30
0.0
 10
1.8631
 20
37.2304
 30
0.0
 10
1.8852
 20
37.3339
 30
0.0
 10
1.9214
 20
37.4181
 30
0.0
 10
1.9717
 20
37.4816
 30
0.0
 10
1.9717
 20
37.4816
 30
0.0
 10
2.0221
 20
37.5455
 30
0.0
 10
2.0954
 20
37.5949
 30
0.0
 10
2.1909
 20
37.6293
 30
0.0
 10
2.1909
 20
37.6293
 30
0.0
 10
2.2864
 20
37.6636
 30
0.0
 10
2.3969
 20
37.681
 30
0.0
 10
2.523
 20
37.681
 30
0.0
 10
2.523
 20
37.681
 30
0.0
 10
2.6481
 20
37.681
 30
0.0
 10
2.7492
 20
37.666
 30
0.0
 10
2.8273
 20
37.6368
 30
0.0
 10
2.8273
 20
37.6368
 30
0.0
 10
2.9054
 20
37.6072
 30
0.0
 10
2.9628
 20
37.5705
 30
0.0
 10
2.9999
 20
37.5258
 30
0.0
 10
2.9999
 20
37.5258
 30
0.0
 10
3.0366
 20
37.4811
 30
0.0
 10
3.062
 20
37.4251
 30
0.0
 10
3.0771
 20
37.3569
 30
0.0
 10
3.0771
 20
37.3569
 30
0.0
 10
3.0851
 20
37.3146
 30
0.0
 10
3.0893
 20
37.2384
 30
0.0
 10
3.0893
 20
37.1283
 30
0.0
 10
3.0893
 20
37.1283
 30
0.0
 10
3.0893
 20
37.1283
 30
0.0
 10
3.0893
 20
36.7977
 30
0.0
 10
3.0893
 20
36.7977
 30
0.0
 10
3.0893
 20
36.7977
 30
0.0
 10
3.0893
 20
36.5667
 30
0.0
 10
3.0945
 20
36.4209
 30
0.0
 10
3.1053
 20
36.3602
 30
0.0
 10
3.1053
 20
36.3602
 30
0.0
 10
3.1157
 20
36.2991
 30
0.0
 10
3.1368
 20
36.2403
 30
0.0
 10
3.1679
 20
36.1843
 30
0.0
 10
3.1679
 20
36.1843
 30
0.0
 10
3.1679
 20
36.1843
 30
0.0
 10
2.9087
 20
36.1843
 30
0.0
 10
2.9087
 20
36.1843
 30
0.0
 10
2.9087
 20
36.1843
 30
0.0
 10
2.8833
 20
36.2356
 30
0.0
 10
2.8664
 20
36.2958
 30
0.0
 10
2.8593
 20
36.3649
 30
0.0
  0
SPLINE
  5
64
330
1F
100
AcDbEntity
  8
DEFAULT_1
 62
   250
100
AcDbSpline
210
0.0
220
0.0
230
1.0
 70
    11
 71
     3
 72
    44
 73
    40
 74
     0
 42
0.0000000001
 43
0.0000000001
 40
0.0
 40
0.0
 40
0.0
 40
0.0
 40
0.0909090909090909
 40
0.0909090909090909
 40
0.0909090909090909
 40
0.0909090909090909
 40
0.1818181818181818
 40
0.1818181818181818
 40
0.1818181818181818
 40
0.1818181818181818
 40
0.2727272727272727
 40
0.2727272727272727
 40
0.2727272727272727
 40
0.2727272727272727
 40
0.3636363636363636
 40
0.3636363636363636
 40
0.3636363636363636
 40
0.3636363636363636
 40
0.4545454545454545
 40
0.4545454545454545
 40
0.4545454545454545
 40
0.4545454545454545
 40
0.5454545454545454
 40
0.5454545454545454
 40
0.5454545454545454
 40
0.5454545454545454
 40
0.6363636363636364
 40
0.6363636363636364
 40
0.6363636363636364
 40
0.6363636363636364
 40
0.7272727272727273
 40
0.7272727272727273
 40
0.7272727272727273
 40
0.7272727272727273
 40
0.8181818181818182
 40
0.8181818181818182
 40
0.8181818181818182
 40
0.8181818181818182
 40
1.0
 40
1.0
 40
1.0
 40
1.0
 10
2.8386
 20
36.919
 30
0.0
 10
2.7483
 20
36.8819
 30
0.0
 10
2.6133
 20
36.8508
 30
0.0
 10
2.4336
 20
36.8249
 30
0.0
 10
2.4336
 20
36.8249
 30
0.0
 10
2.3316
 20
36.8104
 30
0.0
 10
2.2591
 20
36.7939
 30
0.0
 10
2.2173
 20
36.7756
 30
0.0
 10
2.2173
 20
36.7756
 30
0.0
 10
2.1749
 20
36.7572
 30
0.0
 10
2.142
 20
36.7304
 30
0.0
 10
2.1194
 20
36.6946
 30
0.0
 10
2.1194
 20
36.6946
 30
0.0
 10
2.0964
 20
36.6594
 30
0.0
 10
2.0846
 20
36.6203
 30
0.0
 10
2.0846
 20
36.5771
 30
0.0
 10
2.0846
 20
36.5771
 30
0.0
 10
2.0846
 20
36.5107
 30
0.0
 10
2.11
 20
36.4557
 30
0.0
 10
2.1599
 20
36.4115
 30
0.0
 10
2.1599
 20
36.4115
 30
0.0
 10
2.2097
 20
36.3677
 30
0.0
 10
2.2831
 20
36.3456
 30
0.0
 10
2.3795
 20
36.3456
 30
0.0
 10
2.3795
 20
36.3456
 30
0.0
 10
2.475
 20
36.3456
 30
0.0
 10
2.5602
 20
36.3663
 30
0.0
 10
2.6345
 20
36.4082
 30
0.0
 10
2.6345
 20
36.4082
 30
0.0
 10
2.7088
 20
36.4501
 30
0.0
 10
2.7638
 20
36.5074
 30
0.0
 10
2.7986
 20
36.5799
 30
0.0
 10
2.7986
 20
36.5799
 30
0.0
 10
2.8254
 20
36.6359
 30
0.0
 10
2.8386
 20
36.7186
 30
0.0
 10
2.8386
 20
36.8278
 30
0.0
 10
2.8386
 20
36.8278
 30
0.0
 10
2.8386
 20
36.8278
 30
0.0
 10
2.8386
 20
36.919
 30
0.0
 10
2.8386
 20
36.919
 30
0.0
  0
SPLINE
  5
65
330
1F
100
AcDbEntity
  8
DEFAULT_1
 62
   250
100
AcDbSpline
210
0.0
220
0.0
230
1.0
 70
    11
 71
     3
 72
    64
 73
    60
 74
     0
 42
0.0000000001
 43
0.0000000001
 40
0.0
 40
0.0
 40
0.0
 40
0.0
 40
0.0625
 40
0.0625
 40
0.0625
 40
0.0625
 40
0.125
 40
0.125
 40
0.125
 40
0.125
 40
0.1875
 40
0.1875
 40
0.1875
 40
0.1875
 40
0.25
 40
0.25
 40
0.25
 40
0.25
 40
0.3125
 40
0.3125
 40
0.3125
 40
0.3125
 40
0.375
 40
0.375
 40
0.375
 40
0.375
 40
0.4375
 40
0.4375
 40
0.4375
 40
0.4375
 40
0.5
 40
0.5
 40
0.5
 40
0.5
 40
0.5625
 40
0.5625
 40
0.5625
 40
0.5625
 40
0.625
 40
0.625
 40
0.625
 40
0.625
 40
0.6875
 40
0.6875
 40
0.6875
 40
0.6875
 40
0.75
 40
0.75
 40
0.75
 40
0.75
 40
0.8125
 40
0.8125
 40
0.8125
 40
0.8125
 40
0.875
 40
0.875
 40
0.875
 40
0.875
 40
1.0
 40
1.0
 40
1.0
 40
1.0
 10
3.3085
 20
36.1843
 30
0.0
 10
3.3085
 20
36.1843
 30
0.0
 10
3.8433
 20
36.9449
 30
0.0
 10
3.8433
 20
36.9449
 30
0.0
 10
3.8433
 20
36.9449
 30
0.0
 10
3.8433
 20
36.9449
 30
0.0
 10
3.3485
 20
37.6476
 30
0.0
 10
3.3485
 20
37.6476
 30
0.0
 10
3.3485
 20
37.6476
 30
0.0
 10
3.3485
 20
37.6476
 30
0.0
 10
3.6584
 20
37.6476
 30
0.0
 10
3.6584
 20
37.6476
 30
0.0
 10
3.6584
 20
37.6476
 30
0.0
 10
3.6584
 20
37.6476
 30
0.0
 10
3.8833
 20
37.3047
 30
0.0
 10
3.8833
 20
37.3047
 30
0.0
 10
3.8833
 20
37.3047
 30
0.0
 10
3.9251
 20
37.2393
 30
0.0
 10
3.9595
 20
37.1848
 30
0.0
 10
3.9849
 20
37.1406
 30
0.0
 10
3.9849
 20
37.1406
 30
0.0
 10
4.0253
 20
37.2012
 30
0.0
 10
4.0625
 20
37.2549
 30
0.0
 10
4.0968
 20
37.3019
 30
0.0
 10
4.0968
 20
37.3019
 30
0.0
 10
4.0968
 20
37.3019
 30
0.0
 10
4.3433
 20
37.6476
 30
0.0
 10
4.3433
 20
37.6476
 30
0.0
 10
4.3433
 20
37.6476
 30
0.0
 10
4.3433
 20
37.6476
 30
0.0
 10
4.6396
 20
37.6476
 30
0.0
 10
4.6396
 20
37.6476
 30
0.0
 10
4.6396
 20
37.6476
 30
0.0
 10
4.6396
 20
37.6476
 30
0.0
 10
4.134
 20
36.9585
 30
0.0
 10
4.134
 20
36.9585
 30
0.0
 10
4.134
 20
36.9585
 30
0.0
 10
4.134
 20
36.9585
 30
0.0
 10
4.6782
 20
36.1843
 30
0.0
 10
4.6782
 20
36.1843
 30
0.0
 10
4.6782
 20
36.1843
 30
0.0
 10
4.6782
 20
36.1843
 30
0.0
 10
4.3739
 20
36.1843
 30
0.0
 10
4.3739
 20
36.1843
 30
0.0
 10
4.3739
 20
36.1843
 30
0.0
 10
4.3739
 20
36.1843
 30
0.0
 10
4.0733
 20
36.6391
 30
0.0
 10
4.0733
 20
36.6391
 30
0.0
 10
4.0733
 20
36.6391
 30
0.0
 10
4.0733
 20
36.6391
 30
0.0
 10
3.9934
 20
36.7619
 30
0.0
 10
3.9934
 20
36.7619
 30
0.0
 10
3.9934
 20
36.7619
 30
0.0
 10
3.9934
 20
36.7619
 30
0.0
 10
3.6091
 20
36.1843
 30
0.0
 10
3.6091
 20
36.1843
 30
0.0
 10
3.6091
 20
36.1843
 30
0.0
 10
3.6091
 20
36.1843
 30
0.0
 10
3.3085
 20
36.1843
 30
0.0
 10
3.3085
 20
36.1843
 30
0.0
  0
SPLINE
  5
66
330
1F
100
AcDbEntity
  8
DEFAULT_1
 62
   250
100
AcDbSpline
210
0.0
220
0.0
230
1.0
 70
    11
 71
     3
 72
    92
 73
    88
 74
     0
 42
0.0000000001
 43
0.0000000001
 40
0.0
 40
0.0
 40
0.0
 40
0.0
 40
0.0434782608695652
 40
0.0434782608695652
 40
0.0434782608695652
 40
0.0434782608695652
 40
0.0869565217391304
 40
0.0869565217391304
 40
0.0869565217391304
 40
0.0869565217391304
 40
0.1304347826086956
 40
0.1304347826086956
 40
0.1304347826086956
 40
0.1304347826086956
 40
0.1739130434782609
 40
0.1739130434782609
 40
0.1739130434782609
 40
0.1739130434782609
 40
0.2173913043478261
 40
0.2173913043478261
 40
0.2173913043478261
 40
0.2173913043478261
 40
0.2608695652173913
 40
0.2608695652173913
 40
0.2608695652173913
 40
0.2608695652173913
 40
0.3043478260869565
 40
0.3043478260869565
 40
0.3043478260869565
 40
0.3043478260869565
 40
0.3478260869565217
 40
0.3478260869565217
 40
0.3478260869565217
 40
0.3478260869565217
 40
0.391304347826087
 40
0.391304347826087
 40
0.391304347826087
 40
0.391304347826087
 40
0.4347826086956522
 40
0.4347826086956522
 40
0.4347826086956522
 40
0.4347826086956522
 40
0.4782608695652174
 40
0.4782608695652174
 40
0.4782608695652174
 40
0.4782608695652174
 40
0.5217391304347826
 40
0.5217391304347826
 40
0.5217391304347826
 40
0.5217391304347826
 40
0.5652173913043478
 40
0.5652173913043478
 40
0.5652173913043478
 40
0.5652173913043478
 40
0.6086956521739131
 40
0.6086956521739131
 40
0.6086956521739131
 40
0.6086956521739131
 40
0.6521739130434783
 40
0.6521739130434783
 40
0.6521739130434783
 40
0.6521739130434783
 40
0.6956521739130435
 40
0.6956521739130435
 40
0.6956521739130435
 40
0.6956521739130435
 40
0.7391304347826086
 40
0.7391304347826086
 40
0.7391304347826086
 40
0.7391304347826086
 40
0.782608695652174
 40
0.782608695652174
 40
0.782608695652174
 40
0.782608695652174
 40
0.8260869565217391
 40
0.8260869565217391
 40
0.8260869565217391
 40
0.8260869565217391
 40
0.8695652173913043
 40
0.8695652173913043
 40
0.8695652173913043
 40
0.8695652173913043
 40
0.9130434782608695
 40
0.9130434782608695
 40
0.9130434782608695
 40
0.9130434782608695
 40
1.0
 40
1.0
 40
1.0
 40
1.0
 10
6.904
 20
36.4228
 30
0.0
 10
6.904
 20
36.4228
 30
0.0
 10
6.904
 20
36.1843
 30
0.0
 10
6.904
 20
36.1843
 30
0.0
 10
6.904
 20
36.1843
 30
0.0
 10
6.904
 20
36.1843
 30
0.0
 10
5.5686
 20
36.1843
 30
0.0
 10
5.5686
 20
36.1843
 30
0.0
 10
5.5686
 20
36.1843
 30
0.0
 10
5.5667
 20
36.244
 30
0.0
 10
5.5761
 20
36.3014
 30
0.0
 10
5.5973
 20
36.3565
 30
0.0
 10
5.5973
 20
36.3565
 30
0.0
 10
5.6312
 20
36.4477
 30
0.0
 10
5.6857
 20
36.5371
 30
0.0
 10
5.7605
 20
36.6255
 30
0.0
 10
5.7605
 20
36.6255
 30
0.0
 10
5.8358
 20
36.7135
 30
0.0
 10
5.944
 20
36.8155
 30
0.0
 10
6.0851
 20
36.9312
 30
0.0
 10
6.0851
 20
36.9312
 30
0.0
 10
6.3047
 20
37.1114
 30
0.0
 10
6.4534
 20
37.2539
 30
0.0
 10
6.5305
 20
37.3593
 30
0.0
 10
6.5305
 20
37.3593
 30
0.0
 10
6.6076
 20
37.4642
 30
0.0
 10
6.6462
 20
37.5639
 30
0.0
 10
6.6462
 20
37.6575
 30
0.0
 10
6.6462
 20
37.6575
 30
0.0
 10
6.6462
 20
37.7558
 30
0.0
 10
6.6109
 20
37.8386
 30
0.0
 10
6.5409
 20
37.9063
 30
0.0
 10
6.5409
 20
37.9063
 30
0.0
 10
6.4703
 20
37.9736
 30
0.0
 10
6.3786
 20
38.0074
 30
0.0
 10
6.2657
 20
38.0074
 30
0.0
 10
6.2657
 20
38.0074
 30
0.0
 10
6.1462
 20
38.0074
 30
0.0
 10
6.0507
 20
37.9717
 30
0.0
 10
5.9792
 20
37.8997
 30
0.0
 10
5.9792
 20
37.8997
 30
0.0
 10
5.9073
 20
37.8282
 30
0.0
 10
5.8711
 20
37.729
 30
0.0
 10
5.8701
 20
37.6025
 30
0.0
 10
5.8701
 20
37.6025
 30
0.0
 10
5.8701
 20
37.6025
 30
0.0
 10
5.6152
 20
37.6283
 30
0.0
 10
5.6152
 20
37.6283
 30
0.0
 10
5.6152
 20
37.6283
 30
0.0
 10
5.6326
 20
37.8188
 30
0.0
 10
5.6984
 20
37.9637
 30
0.0
 10
5.8123
 20
38.0634
 30
0.0
 10
5.8123
 20
38.0634
 30
0.0
 10
5.9261
 20
38.1631
 30
0.0
 10
6.0794
 20
38.213
 30
0.0
 10
6.2713
 20
38.213
 30
0.0
 10
6.2713
 20
38.213
 30
0.0
 10
6.4651
 20
38.213
 30
0.0
 10
6.6185
 20
38.1589
 30
0.0
 10
6.7314
 20
38.0517
 30
0.0
 10
6.7314
 20
38.0517
 30
0.0
 10
6.8447
 20
37.9439
 30
0.0
 10
6.9012
 20
37.8108
 30
0.0
 10
6.9012
 20
37.6518
 30
0.0
 10
6.9012
 20
37.6518
 30
0.0
 10
6.9012
 20
37.5709
 30
0.0
 10
6.8847
 20
37.4914
 30
0.0
 10
6.8513
 20
37.4134
 30
0.0
 10
6.8513
 20
37.4134
 30
0.0
 10
6.8184
 20
37.3353
 30
0.0
 10
6.7633
 20
37.253
 30
0.0
 10
6.6867
 20
37.1669
 30
0.0
 10
6.6867
 20
37.1669
 30
0.0
 10
6.61
 20
37.0803
 30
0.0
 10
6.4825
 20
36.9618
 30
0.0
 10
6.3043
 20
36.8113
 30
0.0
 10
6.3043
 20
36.8113
 30
0.0
 10
6.1556
 20
36.6862
 30
0.0
 10
6.0601
 20
36.6015
 30
0.0
 10
6.0178
 20
36.5568
 30
0.0
 10
6.0178
 20
36.5568
 30
0.0
 10
5.9755
 20
36.5126
 30
0.0
 10
5.9407
 20
36.4679
 30
0.0
 10
5.9129
 20
36.4228
 30
0.0
 10
5.9129
 20
36.4228
 30
0.0
 10
5.9129
 20
36.4228
 30
0.0
 10
6.904
 20
36.4228
 30
0.0
 10
6.904
 20
36.4228
 30
0.0
  0
SPLINE
  5
67
330
1F
100
AcDbEntity
  8
DEFAULT_1
 62
   250
100
AcDbSpline
210
0.0
220
0.0
230
1.0
 70
    11
 71
     3
 72
    92
 73
    88
 74
     0
 42
0.0000000001
 43
0.0000000001
 40
0.0
 40
0.0
 40
0.0
 40
0.0
 40
0.0434782608695652
 40
0.0434782608695652
 40
0.0434782608695652
 40
0.0434782608695652
 40
0.0869565217391304
 40
0.0869565217391304
 40
0.0869565217391304
 40
0.0869565217391304
 40
0.1304347826086956
 40
0.1304347826086956
 40
0.1304347826086956
 40
0.1304347826086956
 40
0.1739130434782609
 40
0.1739130434782609
 40
0.1739130434782609
 40
0.1739130434782609
 40
0.2173913043478261
 40
0.2173913043478261
 40
0.2173913043478261
 40
0.2173913043478261
 40
0.2608695652173913
 40
0.2608695652173913
 40
0.2608695652173913
 40
0.2608695652173913
 40
0.3043478260869565
 40
0.3043478260869565
 40
0.3043478260869565
 40
0.3043478260869565
 40
0.3478260869565217
 40
0.3478260869565217
 40
0.3478260869565217
 40
0.3478260869565217
 40
0.391304347826087
 40
0.391304347826087
 40
0.391304347826087
 40
0.391304347826087
 40
0.4347826086956522
 40
0.4347826086956522
 40
0.4347826086956522
 40
0.4347826086956522
 40
0.4782608695652174
 40
0.4782608695652174
 40
0.4782608695652174
 40
0.4782608695652174
 40
0.5217391304347826
 40
0.5217391304347826
 40
0.5217391304347826
 40
0.5217391304347826
 40
0.5652173913043478
 40
0.5652173913043478
 40
0.5652173913043478
 40
0.5652173913043478
 40
0.6086956521739131
 40
0.6086956521739131
 40
0.6086956521739131
 40
0.6086956521739131
 40
0.6521739130434783
 40
0.6521739130434783
 40
0.6521739130434783
 40
0.6521739130434783
 40
0.6956521739130435
 40
0.6956521739130435
 40
0.6956521739130435
 40
0.6956521739130435
 40
0.7391304347826086
 40
0.7391304347826086
 40
0.7391304347826086
 40
0.7391304347826086
 40
0.782608695652174
 40
0.782608695652174
 40
0.782608695652174
 40
0.782608695652174
 40
0.8260869565217391
 40
0.8260869565217391
 40
0.8260869565217391
 40
0.8260869565217391
 40
0.8695652173913043
 40
0.8695652173913043
 40
0.8695652173913043
 40
0.8695652173913043
 40
0.9130434782608695
 40
0.9130434782608695
 40
0.9130434782608695
 40
0.9130434782608695
 40
1.0
 40
1.0
 40
1.0
 40
1.0
 10
7.1697
 20
36.7135
 30
0.0
 10
7.1697
 20
36.7135
 30
0.0
 10
7.4303
 20
36.7356
 30
0.0
 10
7.4303
 20
36.7356
 30
0.0
 10
7.4303
 20
36.7356
 30
0.0
 10
7.4496
 20
36.6086
 30
0.0
 10
7.4943
 20
36.5136
 30
0.0
 10
7.5644
 20
36.4496
 30
0.0
 10
7.5644
 20
36.4496
 30
0.0
 10
7.6349
 20
36.3856
 30
0.0
 10
7.7196
 20
36.3536
 30
0.0
 10
7.8188
 20
36.3536
 30
0.0
 10
7.8188
 20
36.3536
 30
0.0
 10
7.9383
 20
36.3536
 30
0.0
 10
8.0394
 20
36.3988
 30
0.0
 10
8.1217
 20
36.4886
 30
0.0
 10
8.1217
 20
36.4886
 30
0.0
 10
8.2045
 20
36.5789
 30
0.0
 10
8.2459
 20
36.6984
 30
0.0
 10
8.2459
 20
36.847
 30
0.0
 10
8.2459
 20
36.847
 30
0.0
 10
8.2459
 20
36.9886
 30
0.0
 10
8.2064
 20
37.1001
 30
0.0
 10
8.1269
 20
37.1819
 30
0.0
 10
8.1269
 20
37.1819
 30
0.0
 10
8.0474
 20
37.2638
 30
0.0
 10
7.9435
 20
37.3047
 30
0.0
 10
7.8146
 20
37.3047
 30
0.0
 10
7.8146
 20
37.3047
 30
0.0
 10
7.7346
 20
37.3047
 30
0.0
 10
7.6627
 20
37.2864
 30
0.0
 10
7.5982
 20
37.2502
 30
0.0
 10
7.5982
 20
37.2502
 30
0.0
 10
7.5338
 20
37.2139
 30
0.0
 10
7.4835
 20
37.1669
 30
0.0
 10
7.4468
 20
37.109
 30
0.0
 10
7.4468
 20
37.109
 30
0.0
 10
7.4468
 20
37.109
 30
0.0
 10
7.2139
 20
37.1391
 30
0.0
 10
7.2139
 20
37.1391
 30
0.0
 10
7.2139
 20
37.1391
 30
0.0
 10
7.2139
 20
37.1391
 30
0.0
 10
7.4096
 20
38.1768
 30
0.0
 10
7.4096
 20
38.1768
 30
0.0
 10
7.4096
 20
38.1768
 30
0.0
 10
7.4096
 20
38.1768
 30
0.0
 10
8.4143
 20
38.1768
 30
0.0
 10
8.4143
 20
38.1768
 30
0.0
 10
8.4143
 20
38.1768
 30
0.0
 10
8.4143
 20
38.1768
 30
0.0
 10
8.4143
 20
37.9397
 30
0.0
 10
8.4143
 20
37.9397
 30
0.0
 10
8.4143
 20
37.9397
 30
0.0
 10
8.4143
 20
37.9397
 30
0.0
 10
7.6081
 20
37.9397
 30
0.0
 10
7.6081
 20
37.9397
 30
0.0
 10
7.6081
 20
37.9397
 30
0.0
 10
7.6081
 20
37.9397
 30
0.0
 10
7.499
 20
37.3969
 30
0.0
 10
7.499
 20
37.3969
 30
0.0
 10
7.499
 20
37.3969
 30
0.0
 10
7.6203
 20
37.4816
 30
0.0
 10
7.7478
 20
37.5239
 30
0.0
 10
7.8809
 20
37.5239
 30
0.0
 10
7.8809
 20
37.5239
 30
0.0
 10
8.0573
 20
37.5239
 30
0.0
 10
8.2059
 20
37.4628
 30
0.0
 10
8.3273
 20
37.3405
 30
0.0
 10
8.3273
 20
37.3405
 30
0.0
 10
8.4486
 20
37.2182
 30
0.0
 10
8.5093
 20
37.0611
 30
0.0
 10
8.5093
 20
36.8692
 30
0.0
 10
8.5093
 20
36.8692
 30
0.0
 10
8.5093
 20
36.6862
 30
0.0
 10
8.4557
 20
36.5281
 30
0.0
 10
8.3494
 20
36.395
 30
0.0
 10
8.3494
 20
36.395
 30
0.0
 10
8.2196
 20
36.2318
 30
0.0
 10
8.0427
 20
36.15
 30
0.0
 10
7.8188
 20
36.15
 30
0.0
 10
7.8188
 20
36.15
 30
0.0
 10
7.6349
 20
36.15
 30
0.0
 10
7.4849
 20
36.2012
 30
0.0
 10
7.3687
 20
36.3042
 30
0.0
 10
7.3687
 20
36.3042
 30
0.0
 10
7.2525
 20
36.4073
 30
0.0
 10
7.1862
 20
36.5437
 30
0.0
 10
7.1697
 20
36.7135
 30
0.0
  0
SPLINE
  5
68
330
1F
100
AcDbEntity
  8
DEFAULT_1
 62
   250
100
AcDbSpline
210
0.0
220
0.0
230
1.0
 70
    11
 71
     3
 72
    52
 73
    48
 74
     0
 42
0.0000000001
 43
0.0000000001
 40
0.0
 40
0.0
 40
0.0
 40
0.0
 40
0.0769230769230769
 40
0.0769230769230769
 40
0.0769230769230769
 40
0.0769230769230769
 40
0.1538461538461539
 40
0.1538461538461539
 40
0.1538461538461539
 40
0.1538461538461539
 40
0.2307692307692308
 40
0.2307692307692308
 40
0.2307692307692308
 40
0.2307692307692308
 40
0.3076923076923077
 40
0.3076923076923077
 40
0.3076923076923077
 40
0.3076923076923077
 40
0.3846153846153846
 40
0.3846153846153846
 40
0.3846153846153846
 40
0.3846153846153846
 40
0.4615384615384616
 40
0.4615384615384616
 40
0.4615384615384616
 40
0.4615384615384616
 40
0.5384615384615384
 40
0.5384615384615384
 40
0.5384615384615384
 40
0.5384615384615384
 40
0.6153846153846154
 40
0.6153846153846154
 40
0.6153846153846154
 40
0.6153846153846154
 40
0.6923076923076923
 40
0.6923076923076923
 40
0.6923076923076923
 40
0.6923076923076923
 40
0.7692307692307693
 40
0.7692307692307693
 40
0.7692307692307693
 40
0.7692307692307693
 40
0.8461538461538461
 40
0.8461538461538461
 40
0.8461538461538461
 40
0.8461538461538461
 40
1.0
 40
1.0
 40
1.0
 40
1.0
 10
8.7393
 20
37.1805
 30
0.0
 10
8.7393
 20
37.4195
 30
0.0
 10
8.7638
 20
37.6119
 30
0.0
 10
8.8132
 20
37.7572
 30
0.0
 10
8.8132
 20
37.7572
 30
0.0
 10
8.8621
 20
37.903
 30
0.0
 10
8.9355
 20
38.0154
 30
0.0
 10
9.0324
 20
38.0945
 30
0.0
 10
9.0324
 20
38.0945
 30
0.0
 10
9.1293
 20
38.1735
 30
0.0
 10
9.2511
 20
38.213
 30
0.0
 10
9.3978
 20
38.213
 30
0.0
 10
9.3978
 20
38.213
 30
0.0
 10
9.5065
 20
38.213
 30
0.0
 10
9.6015
 20
38.1909
 30
0.0
 10
9.6833
 20
38.1471
 30
0.0
 10
9.6833
 20
38.1471
 30
0.0
 10
9.7652
 20
38.1039
 30
0.0
 10
9.8325
 20
38.0408
 30
0.0
 10
9.8861
 20
37.9585
 30
0.0
 10
9.8861
 20
37.9585
 30
0.0
 10
9.9392
 20
37.8762
 30
0.0
 10
9.9811
 20
37.776
 30
0.0
 10
10.0112
 20
37.658
 30
0.0
 10
10.0112
 20
37.658
 30
0.0
 10
10.0418
 20
37.5399
 30
0.0
 10
10.0568
 20
37.3809
 30
0.0
 10
10.0568
 20
37.1805
 30
0.0
 10
10.0568
 20
37.1805
 30
0.0
 10
10.0568
 20
36.9435
 30
0.0
 10
10.0324
 20
36.7525
 30
0.0
 10
9.9839
 20
36.6067
 30
0.0
 10
9.9839
 20
36.6067
 30
0.0
 10
9.935
 20
36.4609
 30
0.0
 10
9.8621
 20
36.3485
 30
0.0
 10
9.7652
 20
36.269
 30
0.0
 10
9.7652
 20
36.269
 30
0.0
 10
9.6683
 20
36.1895
 30
0.0
 10
9.546
 20
36.15
 30
0.0
 10
9.3978
 20
36.15
 30
0.0
 10
9.3978
 20
36.15
 30
0.0
 10
9.2031
 20
36.15
 30
0.0
 10
9.0502
 20
36.2196
 30
0.0
 10
8.9392
 20
36.3593
 30
0.0
 10
8.9392
 20
36.3593
 30
0.0
 10
8.8061
 20
36.5272
 30
0.0
 10
8.7393
 20
36.8014
 30
0.0
 10
8.7393
 20
37.1805
 30
0.0
  0
SPLINE
  5
69
330
1F
100
AcDbEntity
  8
DEFAULT_1
 62
   250
100
AcDbSpline
210
0.0
220
0.0
230
1.0
 70
    11
 71
     3
 72
    36
 73
    32
 74
     0
 42
0.0000000001
 43
0.0000000001
 40
0.0
 40
0.0
 40
0.0
 40
0.0
 40
0.1111111111111111
 40
0.1111111111111111
 40
0.1111111111111111
 40
0.1111111111111111
 40
0.2222222222222222
 40
0.2222222222222222
 40
0.2222222222222222
 40
0.2222222222222222
 40
0.3333333333333333
 40
0.3333333333333333
 40
0.3333333333333333
 40
0.3333333333333333
 40
0.4444444444444444
 40
0.4444444444444444
 40
0.4444444444444444
 40
0.4444444444444444
 40
0.5555555555555556
 40
0.5555555555555556
 40
0.5555555555555556
 40
0.5555555555555556
 40
0.6666666666666666
 40
0.6666666666666666
 40
0.6666666666666666
 40
0.6666666666666666
 40
0.7777777777777778
 40
0.7777777777777778
 40
0.7777777777777778
 40
0.7777777777777778
 40
1.0
 40
1.0
 40
1.0
 40
1.0
 10
8.9943
 20
37.1805
 30
0.0
 10
8.9943
 20
36.8489
 30
0.0
 10
9.0333
 20
36.6283
 30
0.0
 10
9.1109
 20
36.5183
 30
0.0
 10
9.1109
 20
36.5183
 30
0.0
 10
9.1885
 20
36.4087
 30
0.0
 10
9.284
 20
36.3536
 30
0.0
 10
9.3978
 20
36.3536
 30
0.0
 10
9.3978
 20
36.3536
 30
0.0
 10
9.5121
 20
36.3536
 30
0.0
 10
9.6076
 20
36.4091
 30
0.0
 10
9.6852
 20
36.5192
 30
0.0
 10
9.6852
 20
36.5192
 30
0.0
 10
9.7628
 20
36.6293
 30
0.0
 10
9.8019
 20
36.8499
 30
0.0
 10
9.8019
 20
37.1805
 30
0.0
 10
9.8019
 20
37.1805
 30
0.0
 10
9.8019
 20
37.5131
 30
0.0
 10
9.7628
 20
37.7342
 30
0.0
 10
9.6852
 20
37.8433
 30
0.0
 10
9.6852
 20
37.8433
 30
0.0
 10
9.6076
 20
37.9529
 30
0.0
 10
9.5112
 20
38.0074
 30
0.0
 10
9.3955
 20
38.0074
 30
0.0
 10
9.3955
 20
38.0074
 30
0.0
 10
9.2812
 20
38.0074
 30
0.0
 10
9.1904
 20
37.959
 30
0.0
 10
9.1222
 20
37.8626
 30
0.0
 10
9.1222
 20
37.8626
 30
0.0
 10
9.0371
 20
37.7398
 30
0.0
 10
8.9943
 20
37.5121
 30
0.0
 10
8.9943
 20
37.1805
 30
0.0
  0
SPLINE
  5
6A
330
1F
100
AcDbEntity
  8
DEFAULT_1
 62
   250
100
AcDbSpline
210
0.0
220
0.0
230
1.0
 70
    11
 71
     3
 72
    84
 73
    80
 74
     0
 42
0.0000000001
 43
0.0000000001
 40
0.0
 40
0.0
 40
0.0
 40
0.0
 40
0.0476190476190476
 40
0.0476190476190476
 40
0.0476190476190476
 40
0.0476190476190476
 40
0.0952380952380952
 40
0.0952380952380952
 40
0.0952380952380952
 40
0.0952380952380952
 40
0.1428571428571428
 40
0.1428571428571428
 40
0.1428571428571428
 40
0.1428571428571428
 40
0.1904761904761905
 40
0.1904761904761905
 40
0.1904761904761905
 40
0.1904761904761905
 40
0.2380952380952381
 40
0.2380952380952381
 40
0.2380952380952381
 40
0.2380952380952381
 40
0.2857142857142857
 40
0.2857142857142857
 40
0.2857142857142857
 40
0.2857142857142857
 40
0.3333333333333333
 40
0.3333333333333333
 40
0.3333333333333333
 40
0.3333333333333333
 40
0.3809523809523809
 40
0.3809523809523809
 40
0.3809523809523809
 40
0.3809523809523809
 40
0.4285714285714285
 40
0.4285714285714285
 40
0.4285714285714285
 40
0.4285714285714285
 40
0.4761904761904762
 40
0.4761904761904762
 40
0.4761904761904762
 40
0.4761904761904762
 40
0.5238095238095238
 40
0.5238095238095238
 40
0.5238095238095238
 40
0.5238095238095238
 40
0.5714285714285714
 40
0.5714285714285714
 40
0.5714285714285714
 40
0.5714285714285714
 40
0.6190476190476191
 40
0.6190476190476191
 40
0.6190476190476191
 40
0.6190476190476191
 40
0.6666666666666666
 40
0.6666666666666666
 40
0.6666666666666666
 40
0.6666666666666666
 40
0.7142857142857143
 40
0.7142857142857143
 40
0.7142857142857143
 40
0.7142857142857143
 40
0.7619047619047619
 40
0.7619047619047619
 40
0.7619047619047619
 40
0.7619047619047619
 40
0.8095238095238095
 40
0.8095238095238095
 40
0.8095238095238095
 40
0.8095238095238095
 40
0.8571428571428571
 40
0.8571428571428571
 40
0.8571428571428571
 40
0.8571428571428571
 40
0.9047619047619048
 40
0.9047619047619048
 40
0.9047619047619048
 40
0.9047619047619048
 40
1.0
 40
1.0
 40
1.0
 40
1.0
 10
-16.182
 20
31.8833
 30
0.0
 10
-16.182
 20
31.8833
 30
0.0
 10
-15.9506
 20
32.1424
 30
0.0
 10
-15.9506
 20
32.1424
 30
0.0
 10
-15.9506
 20
32.1424
 30
0.0
 10
-15.9506
 20
32.1424
 30
0.0
 10
-15.8142
 20
32.0267
 30
0.0
 10
-15.8142
 20
32.0267
 30
0.0
 10
-15.8142
 20
32.0267
 30
0.0
 10
-15.8142
 20
32.0267
 30
0.0
 10
-16.0564
 20
31.7539
 30
0.0
 10
-16.0564
 20
31.7539
 30
0.0
 10
-16.0564
 20
31.7539
 30
0.0
 10
-15.9774
 20
31.6363
 30
0.0
 10
-15.9243
 20
31.5333
 30
0.0
 10
-15.8965
 20
31.4454
 30
0.0
 10
-15.8965
 20
31.4454
 30
0.0
 10
-15.8598
 20
31.3296
 30
0.0
 10
-15.8415
 20
31.1998
 30
0.0
 10
-15.8415
 20
31.0568
 30
0.0
 10
-15.8415
 20
31.0568
 30
0.0
 10
-15.8415
 20
30.8499
 30
0.0
 10
-15.8833
 20
30.6655
 30
0.0
 10
-15.9671
 20
30.5042
 30
0.0
 10
-15.9671
 20
30.5042
 30
0.0
 10
-16.0508
 20
30.3423
 30
0.0
 10
-16.1679
 20
30.2201
 30
0.0
 10
-16.3189
 20
30.1373
 30
0.0
 10
-16.3189
 20
30.1373
 30
0.0
 10
-16.4704
 20
30.055
 30
0.0
 10
-16.6307
 20
30.0136
 30
0.0
 10
-16.8005
 20
30.0136
 30
0.0
 10
-16.8005
 20
30.0136
 30
0.0
 10
-16.9275
 20
30.0136
 30
0.0
 10
-17.0423
 20
30.0314
 30
0.0
 10
-17.1453
 20
30.0672
 30
0.0
 10
-17.1453
 20
30.0672
 30
0.0
 10
-17.2243
 20
30.0949
 30
0.0
 10
-17.3165
 20
30.1476
 30
0.0
 10
-17.4224
 20
30.2257
 30
0.0
 10
-17.4224
 20
30.2257
 30
0.0
 10
-17.4224
 20
30.2257
 30
0.0
 10
-17.6538
 20
29.9665
 30
0.0
 10
-17.6538
 20
29.9665
 30
0.0
 10
-17.6538
 20
29.9665
 30
0.0
 10
-17.6538
 20
29.9665
 30
0.0
 10
-17.7902
 20
30.0822
 30
0.0
 10
-17.7902
 20
30.0822
 30
0.0
 10
-17.7902
 20
30.0822
 30
0.0
 10
-17.7902
 20
30.0822
 30
0.0
 10
-17.5475
 20
30.3536
 30
0.0
 10
-17.5475
 20
30.3536
 30
0.0
 10
-17.5475
 20
30.3536
 30
0.0
 10
-17.6378
 20
30.4905
 30
0.0
 10
-17.698
 20
30.6076
 30
0.0
 10
-17.7281
 20
30.7045
 30
0.0
 10
-17.7281
 20
30.7045
 30
0.0
 10
-17.7582
 20
30.8014
 30
0.0
 10
-17.7737
 20
30.9181
 30
0.0
 10
-17.7737
 20
31.054
 30
0.0
 10
-17.7737
 20
31.054
 30
0.0
 10
-17.7737
 20
31.2614
 30
0.0
 10
-17.7323
 20
31.4463
 30
0.0
 10
-17.6496
 20
31.6086
 30
0.0
 10
-17.6496
 20
31.6086
 30
0.0
 10
-17.5668
 20
31.7709
 30
0.0
 10
-17.4511
 20
31.8936
 30
0.0
 10
-17.3015
 20
31.9773
 30
0.0
 10
-17.3015
 20
31.9773
 30
0.0
 10
-17.1524
 20
32.0606
 30
0.0
 10
-16.9863
 20
32.1025
 30
0.0
 10
-16.8034
 20
32.1025
 30
0.0
 10
-16.8034
 20
32.1025
 30
0.0
 10
-16.6801
 20
32.1025
 30
0.0
 10
-16.5724
 20
32.0865
 30
0.0
 10
-16.4802
 20
32.0535
 30
0.0
 10
-16.4802
 20
32.0535
 30
0.0
 10
-16.388
 20
32.0211
 30
0.0
 10
-16.2883
 20
31.9642
 30
0.0
 10
-16.182
 20
31.8833
 30
0.0
  0
SPLINE
  5
6B
330
1F
100
AcDbEntity
  8
DEFAULT_1
 62
   250
100
AcDbSpline
210
0.0
220
0.0
230
1.0
 70
    11
 71
     3
 72
    32
 73
    28
 74
     0
 42
0.0000000001
 43
0.0000000001
 40
0.0
 40
0.0
 40
0.0
 40
0.0
 40
0.125
 40
0.125
 40
0.125
 40
0.125
 40
0.25
 40
0.25
 40
0.25
 40
0.25
 40
0.375
 40
0.375
 40
0.375
 40
0.375
 40
0.5
 40
0.5
 40
0.5
 40
0.5
 40
0.625
 40
0.625
 40
0.625
 40
0.625
 40
0.75
 40
0.75
 40
0.75
 40
0.75
 40
1.0
 40
1.0
 40
1.0
 40
1.0
 10
-16.3471
 20
31.6975
 30
0.0
 10
-16.4337
 20
31.7652
 30
0.0
 10
-16.5094
 20
31.8118
 30
0.0
 10
-16.5738
 20
31.8367
 30
0.0
 10
-16.5738
 20
31.8367
 30
0.0
 10
-16.6387
 20
31.8612
 30
0.0
 10
-16.7149
 20
31.8739
 30
0.0
 10
-16.802
 20
31.8739
 30
0.0
 10
-16.802
 20
31.8739
 30
0.0
 10
-17.0033
 20
31.8739
 30
0.0
 10
-17.1693
 20
31.8057
 30
0.0
 10
-17.301
 20
31.6693
 30
0.0
 10
-17.301
 20
31.6693
 30
0.0
 10
-17.4323
 20
31.5328
 30
0.0
 10
-17.4981
 20
31.3292
 30
0.0
 10
-17.4981
 20
31.0578
 30
0.0
 10
-17.4981
 20
31.0578
 30
0.0
 10
-17.4981
 20
30.9515
 30
0.0
 10
-17.4878
 20
30.8569
 30
0.0
 10
-17.4675
 20
30.7741
 30
0.0
 10
-17.4675
 20
30.7741
 30
0.0
 10
-17.4529
 20
30.7125
 30
0.0
 10
-17.4224
 20
30.6368
 30
0.0
 10
-17.3753
 20
30.547
 30
0.0
 10
-17.3753
 20
30.547
 30
0.0
 10
-17.3753
 20
30.547
 30
0.0
 10
-16.3471
 20
31.6975
 30
0.0
 10
-16.3471
 20
31.6975
 30
0.0
  0
SPLINE
  5
6C
330
1F
100
AcDbEntity
  8
DEFAULT_1
 62
   250
100
AcDbSpline
210
0.0
220
0.0
230
1.0
 70
    11
 71
     3
 72
    28
 73
    24
 74
     0
 42
0.0000000001
 43
0.0000000001
 40
0.0
 40
0.0
 40
0.0
 40
0.0
 40
0.1428571428571428
 40
0.1428571428571428
 40
0.1428571428571428
 40
0.1428571428571428
 40
0.2857142857142857
 40
0.2857142857142857
 40
0.2857142857142857
 40
0.2857142857142857
 40
0.4285714285714285
 40
0.4285714285714285
 40
0.4285714285714285
 40
0.4285714285714285
 40
0.5714285714285714
 40
0.5714285714285714
 40
0.5714285714285714
 40
0.5714285714285714
 40
0.7142857142857143
 40
0.7142857142857143
 40
0.7142857142857143
 40
0.7142857142857143
 40
1.0
 40
1.0
 40
1.0
 40
1.0
 10
-16.2342
 20
31.5554
 30
0.0
 10
-16.2342
 20
31.5554
 30
0.0
 10
-17.2582
 20
30.4091
 30
0.0
 10
-17.2582
 20
30.4091
 30
0.0
 10
-17.2582
 20
30.4091
 30
0.0
 10
-17.1877
 20
30.3513
 30
0.0
 10
-17.1223
 20
30.3108
 30
0.0
 10
-17.0625
 20
30.2878
 30
0.0
 10
-17.0625
 20
30.2878
 30
0.0
 10
-16.9845
 20
30.2572
 30
0.0
 10
-16.8998
 20
30.2422
 30
0.0
 10
-16.809
 20
30.2422
 30
0.0
 10
-16.809
 20
30.2422
 30
0.0
 10
-16.6086
 20
30.2422
 30
0.0
 10
-16.4435
 20
30.3127
 30
0.0
 10
-16.3128
 20
30.4543
 30
0.0
 10
-16.3128
 20
30.4543
 30
0.0
 10
-16.1825
 20
30.5959
 30
0.0
 10
-16.1171
 20
30.7944
 30
0.0
 10
-16.1171
 20
31.0498
 30
0.0
 10
-16.1171
 20
31.0498
 30
0.0
 10
-16.1171
 20
31.2407
 30
0.0
 10
-16.1561
 20
31.4096
 30
0.0
 10
-16.2342
 20
31.5554
 30
0.0
  0
SPLINE
  5
6D
330
1F
100
AcDbEntity
  8
DEFAULT_1
 62
   250
100
AcDbSpline
210
0.0
220
0.0
230
1.0
 70
    11
 71
     3
 72
    80
 73
    76
 74
     0
 42
0.0000000001
 43
0.0000000001
 40
0.0
 40
0.0
 40
0.0
 40
0.0
 40
0.05
 40
0.05
 40
0.05
 40
0.05
 40
0.1
 40
0.1
 40
0.1
 40
0.1
 40
0.15
 40
0.15
 40
0.15
 40
0.15
 40
0.2
 40
0.2
 40
0.2
 40
0.2
 40
0.25
 40
0.25
 40
0.25
 40
0.25
 40
0.3
 40
0.3
 40
0.3
 40
0.3
 40
0.35
 40
0.35
 40
0.35
 40
0.35
 40
0.4
 40
0.4
 40
0.4
 40
0.4
 40
0.45
 40
0.45
 40
0.45
 40
0.45
 40
0.5
 40
0.5
 40
0.5
 40
0.5
 40
0.55
 40
0.55
 40
0.55
 40
0.55
 40
0.6
 40
0.6
 40
0.6
 40
0.6
 40
0.65
 40
0.65
 40
0.65
 40
0.65
 40
0.7
 40
0.7
 40
0.7
 40
0.7
 40
0.75
 40
0.75
 40
0.75
 40
0.75
 40
0.8
 40
0.8
 40
0.8
 40
0.8
 40
0.85
 40
0.85
 40
0.85
 40
0.85
 40
0.9
 40
0.9
 40
0.9
 40
0.9
 40
1.0
 40
1.0
 40
1.0
 40
1.0
 10
-14.3053
 20
31.5733
 30
0.0
 10
-14.3053
 20
31.5733
 30
0.0
 10
-14.5517
 20
31.554
 30
0.0
 10
-14.5517
 20
31.554
 30
0.0
 10
-14.5517
 20
31.554
 30
0.0
 10
-14.5738
 20
31.6514
 30
0.0
 10
-14.6049
 20
31.7224
 30
0.0
 10
-14.6453
 20
31.7661
 30
0.0
 10
-14.6453
 20
31.7661
 30
0.0
 10
-14.7126
 20
31.8372
 30
0.0
 10
-14.7954
 20
31.8725
 30
0.0
 10
-14.8937
 20
31.8725
 30
0.0
 10
-14.8937
 20
31.8725
 30
0.0
 10
-14.9727
 20
31.8725
 30
0.0
 10
-15.0418
 20
31.8503
 30
0.0
 10
-15.1016
 20
31.8061
 30
0.0
 10
-15.1016
 20
31.8061
 30
0.0
 10
-15.1797
 20
31.7492
 30
0.0
 10
-15.2413
 20
31.666
 30
0.0
 10
-15.2864
 20
31.5568
 30
0.0
 10
-15.2864
 20
31.5568
 30
0.0
 10
-15.3311
 20
31.4477
 30
0.0
 10
-15.3546
 20
31.292
 30
0.0
 10
-15.3565
 20
31.0898
 30
0.0
 10
-15.3565
 20
31.0898
 30
0.0
 10
-15.2968
 20
31.1805
 30
0.0
 10
-15.2239
 20
31.2483
 30
0.0
 10
-15.1373
 20
31.2925
 30
0.0
 10
-15.1373
 20
31.2925
 30
0.0
 10
-15.0513
 20
31.3362
 30
0.0
 10
-14.9605
 20
31.3583
 30
0.0
 10
-14.8659
 20
31.3583
 30
0.0
 10
-14.8659
 20
31.3583
 30
0.0
 10
-14.7004
 20
31.3583
 30
0.0
 10
-14.5597
 20
31.2977
 30
0.0
 10
-14.4435
 20
31.1758
 30
0.0
 10
-14.4435
 20
31.1758
 30
0.0
 10
-14.3274
 20
31.054
 30
0.0
 10
-14.269
 20
30.8969
 30
0.0
 10
-14.269
 20
30.7041
 30
0.0
 10
-14.269
 20
30.7041
 30
0.0
 10
-14.269
 20
30.5771
 30
0.0
 10
-14.2968
 20
30.4595
 30
0.0
 10
-14.3514
 20
30.3503
 30
0.0
 10
-14.3514
 20
30.3503
 30
0.0
 10
-14.4059
 20
30.2417
 30
0.0
 10
-14.4812
 20
30.158
 30
0.0
 10
-14.5767
 20
30.1001
 30
0.0
 10
-14.5767
 20
30.1001
 30
0.0
 10
-14.6721
 20
30.0423
 30
0.0
 10
-14.7803
 20
30.0136
 30
0.0
 10
-14.9017
 20
30.0136
 30
0.0
 10
-14.9017
 20
30.0136
 30
0.0
 10
-15.1086
 20
30.0136
 30
0.0
 10
-15.277
 20
30.0893
 30
0.0
 10
-15.4073
 20
30.2417
 30
0.0
 10
-15.4073
 20
30.2417
 30
0.0
 10
-15.5381
 20
30.3936
 30
0.0
 10
-15.603
 20
30.6443
 30
0.0
 10
-15.603
 20
30.9933
 30
0.0
 10
-15.603
 20
30.9933
 30
0.0
 10
-15.603
 20
31.3837
 30
0.0
 10
-15.531
 20
31.6674
 30
0.0
 10
-15.3866
 20
31.8447
 30
0.0
 10
-15.3866
 20
31.8447
 30
0.0
 10
-15.261
 20
31.999
 30
0.0
 10
-15.0917
 20
32.0766
 30
0.0
 10
-14.8782
 20
32.0766
 30
0.0
 10
-14.8782
 20
32.0766
 30
0.0
 10
-14.7196
 20
32.0766
 30
0.0
 10
-14.5894
 20
32.0319
 30
0.0
 10
-14.4878
 20
31.9425
 30
0.0
 10
-14.4878
 20
31.9425
 30
0.0
 10
-14.3862
 20
31.8536
 30
0.0
 10
-14.3255
 20
31.7304
 30
0.0
 10
-14.3053
 20
31.5733
 30
0.0
  0
SPLINE
  5
6E
330
1F
100
AcDbEntity
  8
DEFAULT_1
 62
   250
100
AcDbSpline
210
0.0
220
0.0
230
1.0
 70
    11
 71
     3
 72
    40
 73
    36
 74
     0
 42
0.0000000001
 43
0.0000000001
 40
0.0
 40
0.0
 40
0.0
 40
0.0
 40
0.1
 40
0.1
 40
0.1
 40
0.1
 40
0.2
 40
0.2
 40
0.2
 40
0.2
 40
0.3
 40
0.3
 40
0.3
 40
0.3
 40
0.4
 40
0.4
 40
0.4
 40
0.4
 40
0.5
 40
0.5
 40
0.5
 40
0.5
 40
0.6
 40
0.6
 40
0.6
 40
0.6
 40
0.7
 40
0.7
 40
0.7
 40
0.7
 40
0.8
 40
0.8
 40
0.8
 40
0.8
 40
1.0
 40
1.0
 40
1.0
 40
1.0
 10
-15.318
 20
30.7027
 30
0.0
 10
-15.318
 20
30.617
 30
0.0
 10
-15.2996
 20
30.5352
 30
0.0
 10
-15.2634
 20
30.4571
 30
0.0
 10
-15.2634
 20
30.4571
 30
0.0
 10
-15.2272
 20
30.379
 30
0.0
 10
-15.1764
 20
30.3198
 30
0.0
 10
-15.1115
 20
30.2789
 30
0.0
 10
-15.1115
 20
30.2789
 30
0.0
 10
-15.0461
 20
30.2379
 30
0.0
 10
-14.9774
 20
30.2172
 30
0.0
 10
-14.9059
 20
30.2172
 30
0.0
 10
-14.9059
 20
30.2172
 30
0.0
 10
-14.801
 20
30.2172
 30
0.0
 10
-14.7112
 20
30.2596
 30
0.0
 10
-14.6359
 20
30.3442
 30
0.0
 10
-14.6359
 20
30.3442
 30
0.0
 10
-14.5607
 20
30.4289
 30
0.0
 10
-14.523
 20
30.5437
 30
0.0
 10
-14.523
 20
30.6885
 30
0.0
 10
-14.523
 20
30.6885
 30
0.0
 10
-14.523
 20
30.8282
 30
0.0
 10
-14.5602
 20
30.9383
 30
0.0
 10
-14.6345
 20
31.0187
 30
0.0
 10
-14.6345
 20
31.0187
 30
0.0
 10
-14.7088
 20
31.0992
 30
0.0
 10
-14.8024
 20
31.1392
 30
0.0
 10
-14.9153
 20
31.1392
 30
0.0
 10
-14.9153
 20
31.1392
 30
0.0
 10
-15.0277
 20
31.1392
 30
0.0
 10
-15.1228
 20
31.0992
 30
0.0
 10
-15.2008
 20
31.0187
 30
0.0
 10
-15.2008
 20
31.0187
 30
0.0
 10
-15.2789
 20
30.9383
 30
0.0
 10
-15.318
 20
30.8329
 30
0.0
 10
-15.318
 20
30.7027
 30
0.0
  0
SPLINE
  5
6F
330
1F
100
AcDbEntity
  8
DEFAULT_1
 62
   250
100
AcDbSpline
210
0.0
220
0.0
230
1.0
 70
    11
 71
     3
 72
    92
 73
    88
 74
     0
 42
0.0000000001
 43
0.0000000001
 40
0.0
 40
0.0
 40
0.0
 40
0.0
 40
0.0434782608695652
 40
0.0434782608695652
 40
0.0434782608695652
 40
0.0434782608695652
 40
0.0869565217391304
 40
0.0869565217391304
 40
0.0869565217391304
 40
0.0869565217391304
 40
0.1304347826086956
 40
0.1304347826086956
 40
0.1304347826086956
 40
0.1304347826086956
 40
0.1739130434782609
 40
0.1739130434782609
 40
0.1739130434782609
 40
0.1739130434782609
 40
0.2173913043478261
 40
0.2173913043478261
 40
0.2173913043478261
 40
0.2173913043478261
 40
0.2608695652173913
 40
0.2608695652173913
 40
0.2608695652173913
 40
0.2608695652173913
 40
0.3043478260869565
 40
0.3043478260869565
 40
0.3043478260869565
 40
0.3043478260869565
 40
0.3478260869565217
 40
0.3478260869565217
 40
0.3478260869565217
 40
0.3478260869565217
 40
0.391304347826087
 40
0.391304347826087
 40
0.391304347826087
 40
0.391304347826087
 40
0.4347826086956522
 40
0.4347826086956522
 40
0.4347826086956522
 40
0.4347826086956522
 40
0.4782608695652174
 40
0.4782608695652174
 40
0.4782608695652174
 40
0.4782608695652174
 40
0.5217391304347826
 40
0.5217391304347826
 40
0.5217391304347826
 40
0.5217391304347826
 40
0.5652173913043478
 40
0.5652173913043478
 40
0.5652173913043478
 40
0.5652173913043478
 40
0.6086956521739131
 40
0.6086956521739131
 40
0.6086956521739131
 40
0.6086956521739131
 40
0.6521739130434783
 40
0.6521739130434783
 40
0.6521739130434783
 40
0.6521739130434783
 40
0.6956521739130435
 40
0.6956521739130435
 40
0.6956521739130435
 40
0.6956521739130435
 40
0.7391304347826086
 40
0.7391304347826086
 40
0.7391304347826086
 40
0.7391304347826086
 40
0.782608695652174
 40
0.782608695652174
 40
0.782608695652174
 40
0.782608695652174
 40
0.8260869565217391
 40
0.8260869565217391
 40
0.8260869565217391
 40
0.8260869565217391
 40
0.8695652173913043
 40
0.8695652173913043
 40
0.8695652173913043
 40
0.8695652173913043
 40
0.9130434782608695
 40
0.9130434782608695
 40
0.9130434782608695
 40
0.9130434782608695
 40
1.0
 40
1.0
 40
1.0
 40
1.0
 10
-12.7187
 20
30.2864
 30
0.0
 10
-12.7187
 20
30.2864
 30
0.0
 10
-12.7187
 20
30.0479
 30
0.0
 10
-12.7187
 20
30.0479
 30
0.0
 10
-12.7187
 20
30.0479
 30
0.0
 10
-12.7187
 20
30.0479
 30
0.0
 10
-14.0541
 20
30.0479
 30
0.0
 10
-14.0541
 20
30.0479
 30
0.0
 10
-14.0541
 20
30.0479
 30
0.0
 10
-14.056
 20
30.1076
 30
0.0
 10
-14.0466
 20
30.165
 30
0.0
 10
-14.0254
 20
30.2201
 30
0.0
 10
-14.0254
 20
30.2201
 30
0.0
 10
-13.9915
 20
30.3113
 30
0.0
 10
-13.937
 20
30.4007
 30
0.0
 10
-13.8622
 20
30.4891
 30
0.0
 10
-13.8622
 20
30.4891
 30
0.0
 10
-13.7869
 20
30.5771
 30
0.0
 10
-13.6787
 20
30.6791
 30
0.0
 10
-13.5376
 20
30.7948
 30
0.0
 10
-13.5376
 20
30.7948
 30
0.0
 10
-13.318
 20
30.975
 30
0.0
 10
-13.1693
 20
31.1175
 30
0.0
 10
-13.0922
 20
31.2229
 30
0.0
 10
-13.0922
 20
31.2229
 30
0.0
 10
-13.0151
 20
31.3278
 30
0.0
 10
-12.9765
 20
31.4275
 30
0.0
 10
-12.9765
 20
31.5211
 30
0.0
 10
-12.9765
 20
31.5211
 30
0.0
 10
-12.9765
 20
31.6194
 30
0.0
 10
-13.0118
 20
31.7022
 30
0.0
 10
-13.0818
 20
31.7699
 30
0.0
 10
-13.0818
 20
31.7699
 30
0.0
 10
-13.1524
 20
31.8372
 30
0.0
 10
-13.2441
 20
31.871
 30
0.0
 10
-13.357
 20
31.871
 30
0.0
 10
-13.357
 20
31.871
 30
0.0
 10
-13.4765
 20
31.871
 30
0.0
 10
-13.572
 20
31.8353
 30
0.0
 10
-13.6435
 20
31.7633
 30
0.0
 10
-13.6435
 20
31.7633
 30
0.0
 10
-13.7154
 20
31.6918
 30
0.0
 10
-13.7516
 20
31.5926
 30
0.0
 10
-13.7526
 20
31.4661
 30
0.0
 10
-13.7526
 20
31.4661
 30
0.0
 10
-13.7526
 20
31.4661
 30
0.0
 10
-14.0075
 20
31.4919
 30
0.0
 10
-14.0075
 20
31.4919
 30
0.0
 10
-14.0075
 20
31.4919
 30
0.0
 10
-13.9901
 20
31.6824
 30
0.0
 10
-13.9243
 20
31.8273
 30
0.0
 10
-13.8104
 20
31.927
 30
0.0
 10
-13.8104
 20
31.927
 30
0.0
 10
-13.6966
 20
32.0267
 30
0.0
 10
-13.5433
 20
32.0766
 30
0.0
 10
-13.3514
 20
32.0766
 30
0.0
 10
-13.3514
 20
32.0766
 30
0.0
 10
-13.1576
 20
32.0766
 30
0.0
 10
-13.0042
 20
32.0225
 30
0.0
 10
-12.8913
 20
31.9153
 30
0.0
 10
-12.8913
 20
31.9153
 30
0.0
 10
-12.778
 20
31.8075
 30
0.0
 10
-12.7215
 20
31.6744
 30
0.0
 10
-12.7215
 20
31.5154
 30
0.0
 10
-12.7215
 20
31.5154
 30
0.0
 10
-12.7215
 20
31.4345
 30
0.0
 10
-12.738
 20
31.355
 30
0.0
 10
-12.7714
 20
31.277
 30
0.0
 10
-12.7714
 20
31.277
 30
0.0
 10
-12.8043
 20
31.1989
 30
0.0
 10
-12.8594
 20
31.1166
 30
0.0
 10
-12.936
 20
31.0305
 30
0.0
 10
-12.936
 20
31.0305
 30
0.0
 10
-13.0127
 20
30.9439
 30
0.0
 10
-13.1402
 20
30.8254
 30
0.0
 10
-13.3184
 20
30.6749
 30
0.0
 10
-13.3184
 20
30.6749
 30
0.0
 10
-13.4671
 20
30.5498
 30
0.0
 10
-13.5626
 20
30.4651
 30
0.0
 10
-13.6049
 20
30.4204
 30
0.0
 10
-13.6049
 20
30.4204
 30
0.0
 10
-13.6472
 20
30.3762
 30
0.0
 10
-13.682
 20
30.3315
 30
0.0
 10
-13.7098
 20
30.2864
 30
0.0
 10
-13.7098
 20
30.2864
 30
0.0
 10
-13.7098
 20
30.2864
 30
0.0
 10
-12.7187
 20
30.2864
 30
0.0
 10
-12.7187
 20
30.2864
 30
0.0
  0
SPLINE
  5
70
330
1F
100
AcDbEntity
  8
DEFAULT_1
 62
   250
100
AcDbSpline
210
0.0
220
0.0
230
1.0
 70
    11
 71
     3
 72
    92
 73
    88
 74
     0
 42
0.0000000001
 43
0.0000000001
 40
0.0
 40
0.0
 40
0.0
 40
0.0
 40
0.0434782608695652
 40
0.0434782608695652
 40
0.0434782608695652
 40
0.0434782608695652
 40
0.0869565217391304
 40
0.0869565217391304
 40
0.0869565217391304
 40
0.0869565217391304
 40
0.1304347826086956
 40
0.1304347826086956
 40
0.1304347826086956
 40
0.1304347826086956
 40
0.1739130434782609
 40
0.1739130434782609
 40
0.1739130434782609
 40
0.1739130434782609
 40
0.2173913043478261
 40
0.2173913043478261
 40
0.2173913043478261
 40
0.2173913043478261
 40
0.2608695652173913
 40
0.2608695652173913
 40
0.2608695652173913
 40
0.2608695652173913
 40
0.3043478260869565
 40
0.3043478260869565
 40
0.3043478260869565
 40
0.3043478260869565
 40
0.3478260869565217
 40
0.3478260869565217
 40
0.3478260869565217
 40
0.3478260869565217
 40
0.391304347826087
 40
0.391304347826087
 40
0.391304347826087
 40
0.391304347826087
 40
0.4347826086956522
 40
0.4347826086956522
 40
0.4347826086956522
 40
0.4347826086956522
 40
0.4782608695652174
 40
0.4782608695652174
 40
0.4782608695652174
 40
0.4782608695652174
 40
0.5217391304347826
 40
0.5217391304347826
 40
0.5217391304347826
 40
0.5217391304347826
 40
0.5652173913043478
 40
0.5652173913043478
 40
0.5652173913043478
 40
0.5652173913043478
 40
0.6086956521739131
 40
0.6086956521739131
 40
0.6086956521739131
 40
0.6086956521739131
 40
0.6521739130434783
 40
0.6521739130434783
 40
0.6521739130434783
 40
0.6521739130434783
 40
0.6956521739130435
 40
0.6956521739130435
 40
0.6956521739130435
 40
0.6956521739130435
 40
0.7391304347826086
 40
0.7391304347826086
 40
0.7391304347826086
 40
0.7391304347826086
 40
0.782608695652174
 40
0.782608695652174
 40
0.782608695652174
 40
0.782608695652174
 40
0.8260869565217391
 40
0.8260869565217391
 40
0.8260869565217391
 40
0.8260869565217391
 40
0.8695652173913043
 40
0.8695652173913043
 40
0.8695652173913043
 40
0.8695652173913043
 40
0.9130434782608695
 40
0.9130434782608695
 40
0.9130434782608695
 40
0.9130434782608695
 40
1.0
 40
1.0
 40
1.0
 40
1.0
 10
-26.2443
 20
-8.1892
 30
0.0
 10
-26.2443
 20
-8.1892
 30
0.0
 10
-26.2664
 20
-7.9507
 30
0.0
 10
-26.2664
 20
-7.9507
 30
0.0
 10
-26.2664
 20
-7.9507
 30
0.0
 10
-26.1544
 20
-7.9305
 30
0.0
 10
-26.0731
 20
-7.8919
 30
0.0
 10
-26.0223
 20
-7.835
 30
0.0
 10
-26.0223
 20
-7.835
 30
0.0
 10
-25.9719
 20
-7.7781
 30
0.0
 10
-25.9465
 20
-7.7052
 30
0.0
 10
-25.9465
 20
-7.6158
 30
0.0
 10
-25.9465
 20
-7.6158
 30
0.0
 10
-25.9465
 20
-7.5396
 30
0.0
 10
-25.9639
 20
-7.4729
 30
0.0
 10
-25.9992
 20
-7.4155
 30
0.0
 10
-25.9992
 20
-7.4155
 30
0.0
 10
-26.034
 20
-7.3581
 30
0.0
 10
-26.0806
 20
-7.311
 30
0.0
 10
-26.1389
 20
-7.2744
 30
0.0
 10
-26.1389
 20
-7.2744
 30
0.0
 10
-26.1972
 20
-7.2372
 30
0.0
 10
-26.2763
 20
-7.2066
 30
0.0
 10
-26.375
 20
-7.1817
 30
0.0
 10
-26.375
 20
-7.1817
 30
0.0
 10
-26.4743
 20
-7.1572
 30
0.0
 10
-26.5754
 20
-7.1445
 30
0.0
 10
-26.6784
 20
-7.1445
 30
0.0
 10
-26.6784
 20
-7.1445
 30
0.0
 10
-26.6892
 20
-7.1445
 30
0.0
 10
-26.7062
 20
-7.145
 30
0.0
 10
-26.7278
 20
-7.1459
 30
0.0
 10
-26.7278
 20
-7.1459
 30
0.0
 10
-26.6493
 20
-7.1958
 30
0.0
 10
-26.5848
 20
-7.2635
 30
0.0
 10
-26.5359
 20
-7.3491
 30
0.0
 10
-26.5359
 20
-7.3491
 30
0.0
 10
-26.4865
 20
-7.4352
 30
0.0
 10
-26.4621
 20
-7.5284
 30
0.0
 10
-26.4621
 20
-7.6281
 30
0.0
 10
-26.4621
 20
-7.6281
 30
0.0
 10
-26.4621
 20
-7.7955
 30
0.0
 10
-26.5227
 20
-7.9371
 30
0.0
 10
-26.6441
 20
-8.0528
 30
0.0
 10
-26.6441
 20
-8.0528
 30
0.0
 10
-26.7654
 20
-8.1685
 30
0.0
 10
-26.9249
 20
-8.2264
 30
0.0
 10
-27.1234
 20
-8.2264
 30
0.0
 10
-27.1234
 20
-8.2264
 30
0.0
 10
-27.3285
 20
-8.2264
 30
0.0
 10
-27.4931
 20
-8.1662
 30
0.0
 10
-27.6182
 20
-8.0453
 30
0.0
 10
-27.6182
 20
-8.0453
 30
0.0
 10
-27.7433
 20
-7.9244
 30
0.0
 10
-27.8059
 20
-7.7729
 30
0.0
 10
-27.8059
 20
-7.5909
 30
0.0
 10
-27.8059
 20
-7.5909
 30
0.0
 10
-27.8059
 20
-7.4597
 30
0.0
 10
-27.7701
 20
-7.3397
 30
0.0
 10
-27.6996
 20
-7.2306
 30
0.0
 10
-27.6996
 20
-7.2306
 30
0.0
 10
-27.629
 20
-7.122
 30
0.0
 10
-27.5279
 20
-7.0392
 30
0.0
 10
-27.3971
 20
-6.9827
 30
0.0
 10
-27.3971
 20
-6.9827
 30
0.0
 10
-27.2664
 20
-6.9263
 30
0.0
 10
-27.0768
 20
-6.8981
 30
0.0
 10
-26.8285
 20
-6.8981
 30
0.0
 10
-26.8285
 20
-6.8981
 30
0.0
 10
-26.5707
 20
-6.8981
 30
0.0
 10
-26.3652
 20
-6.9258
 30
0.0
 10
-26.2118
 20
-6.9818
 30
0.0
 10
-26.2118
 20
-6.9818
 30
0.0
 10
-26.0589
 20
-7.0382
 30
0.0
 10
-25.9428
 20
-7.1215
 30
0.0
 10
-25.8628
 20
-7.232
 30
0.0
 10
-25.8628
 20
-7.232
 30
0.0
 10
-25.7828
 20
-7.343
 30
0.0
 10
-25.7429
 20
-7.4724
 30
0.0
 10
-25.7429
 20
-7.6215
 30
0.0
 10
-25.7429
 20
-7.6215
 30
0.0
 10
-25.7429
 20
-7.7795
 30
0.0
 10
-25.7866
 20
-7.9084
 30
0.0
 10
-25.8746
 20
-8.0086
 30
0.0
 10
-25.8746
 20
-8.0086
 30
0.0
 10
-25.9621
 20
-8.1088
 30
0.0
 10
-26.0853
 20
-8.169
 30
0.0
 10
-26.2443
 20
-8.1892
 30
0.0
  0
SPLINE
  5
71
330
1F
100
AcDbEntity
  8
DEFAULT_1
 62
   250
100
AcDbSpline
210
0.0
220
0.0
230
1.0
 70
    11
 71
     3
 72
    36
 73
    32
 74
     0
 42
0.0000000001
 43
0.0000000001
 40
0.0
 40
0.0
 40
0.0
 40
0.0
 40
0.1111111111111111
 40
0.1111111111111111
 40
0.1111111111111111
 40
0.1111111111111111
 40
0.2222222222222222
 40
0.2222222222222222
 40
0.2222222222222222
 40
0.2222222222222222
 40
0.3333333333333333
 40
0.3333333333333333
 40
0.3333333333333333
 40
0.3333333333333333
 40
0.4444444444444444
 40
0.4444444444444444
 40
0.4444444444444444
 40
0.4444444444444444
 40
0.5555555555555556
 40
0.5555555555555556
 40
0.5555555555555556
 40
0.5555555555555556
 40
0.6666666666666666
 40
0.6666666666666666
 40
0.6666666666666666
 40
0.6666666666666666
 40
0.7777777777777778
 40
0.7777777777777778
 40
0.7777777777777778
 40
0.7777777777777778
 40
1.0
 40
1.0
 40
1.0
 40
1.0
 10
-27.1361
 20
-7.1737
 30
0.0
 10
-27.2781
 20
-7.1737
 30
0.0
 10
-27.3915
 20
-7.2113
 30
0.0
 10
-27.4748
 20
-7.2871
 30
0.0
 10
-27.4748
 20
-7.2871
 30
0.0
 10
-27.5585
 20
-7.3633
 30
0.0
 10
-27.6003
 20
-7.454
 30
0.0
 10
-27.6003
 20
-7.5608
 30
0.0
 10
-27.6003
 20
-7.5608
 30
0.0
 10
-27.6003
 20
-7.6709
 30
0.0
 10
-27.5552
 20
-7.7668
 30
0.0
 10
-27.4653
 20
-7.8487
 30
0.0
 10
-27.4653
 20
-7.8487
 30
0.0
 10
-27.375
 20
-7.9305
 30
0.0
 10
-27.2584
 20
-7.9714
 30
0.0
 10
-27.1154
 20
-7.9714
 30
0.0
 10
-27.1154
 20
-7.9714
 30
0.0
 10
-26.9865
 20
-7.9714
 30
0.0
 10
-26.8821
 20
-7.9324
 30
0.0
 10
-26.8017
 20
-7.8548
 30
0.0
 10
-26.8017
 20
-7.8548
 30
0.0
 10
-26.7212
 20
-7.7772
 30
0.0
 10
-26.6812
 20
-7.6817
 30
0.0
 10
-26.6812
 20
-7.5679
 30
0.0
 10
-26.6812
 20
-7.5679
 30
0.0
 10
-26.6812
 20
-7.4526
 30
0.0
 10
-26.7212
 20
-7.3586
 30
0.0
 10
-26.8017
 20
-7.2847
 30
0.0
 10
-26.8017
 20
-7.2847
 30
0.0
 10
-26.8821
 20
-7.2104
 30
0.0
 10
-26.9936
 20
-7.1737
 30
0.0
 10
-27.1361
 20
-7.1737
 30
0.0
  0
SPLINE
  5
72
330
1F
100
AcDbEntity
  8
DEFAULT_1
 62
   250
100
AcDbSpline
210
0.0
220
0.0
230
1.0
 70
    11
 71
     3
 72
    92
 73
    88
 74
     0
 42
0.0000000001
 43
0.0000000001
 40
0.0
 40
0.0
 40
0.0
 40
0.0
 40
0.0434782608695652
 40
0.0434782608695652
 40
0.0434782608695652
 40
0.0434782608695652
 40
0.0869565217391304
 40
0.0869565217391304
 40
0.0869565217391304
 40
0.0869565217391304
 40
0.1304347826086956
 40
0.1304347826086956
 40
0.1304347826086956
 40
0.1304347826086956
 40
0.1739130434782609
 40
0.1739130434782609
 40
0.1739130434782609
 40
0.1739130434782609
 40
0.2173913043478261
 40
0.2173913043478261
 40
0.2173913043478261
 40
0.2173913043478261
 40
0.2608695652173913
 40
0.2608695652173913
 40
0.2608695652173913
 40
0.2608695652173913
 40
0.3043478260869565
 40
0.3043478260869565
 40
0.3043478260869565
 40
0.3043478260869565
 40
0.3478260869565217
 40
0.3478260869565217
 40
0.3478260869565217
 40
0.3478260869565217
 40
0.391304347826087
 40
0.391304347826087
 40
0.391304347826087
 40
0.391304347826087
 40
0.4347826086956522
 40
0.4347826086956522
 40
0.4347826086956522
 40
0.4347826086956522
 40
0.4782608695652174
 40
0.4782608695652174
 40
0.4782608695652174
 40
0.4782608695652174
 40
0.5217391304347826
 40
0.5217391304347826
 40
0.5217391304347826
 40
0.5217391304347826
 40
0.5652173913043478
 40
0.5652173913043478
 40
0.5652173913043478
 40
0.5652173913043478
 40
0.6086956521739131
 40
0.6086956521739131
 40
0.6086956521739131
 40
0.6086956521739131
 40
0.6521739130434783
 40
0.6521739130434783
 40
0.6521739130434783
 40
0.6521739130434783
 40
0.6956521739130435
 40
0.6956521739130435
 40
0.6956521739130435
 40
0.6956521739130435
 40
0.7391304347826086
 40
0.7391304347826086
 40
0.7391304347826086
 40
0.7391304347826086
 40
0.782608695652174
 40
0.782608695652174
 40
0.782608695652174
 40
0.782608695652174
 40
0.8260869565217391
 40
0.8260869565217391
 40
0.8260869565217391
 40
0.8260869565217391
 40
0.8695652173913043
 40
0.8695652173913043
 40
0.8695652173913043
 40
0.8695652173913043
 40
0.9130434782608695
 40
0.9130434782608695
 40
0.9130434782608695
 40
0.9130434782608695
 40
1.0
 40
1.0
 40
1.0
 40
1.0
 10
-26.3064
 20
-6.6568
 30
0.0
 10
-26.3064
 20
-6.6568
 30
0.0
 10
-26.3285
 20
-6.3962
 30
0.0
 10
-26.3285
 20
-6.3962
 30
0.0
 10
-26.3285
 20
-6.3962
 30
0.0
 10
-26.2015
 20
-6.3769
 30
0.0
 10
-26.1065
 20
-6.3322
 30
0.0
 10
-26.0425
 20
-6.2621
 30
0.0
 10
-26.0425
 20
-6.2621
 30
0.0
 10
-25.9785
 20
-6.1916
 30
0.0
 10
-25.9465
 20
-6.1069
 30
0.0
 10
-25.9465
 20
-6.0077
 30
0.0
 10
-25.9465
 20
-6.0077
 30
0.0
 10
-25.9465
 20
-5.8882
 30
0.0
 10
-25.9917
 20
-5.7871
 30
0.0
 10
-26.0815
 20
-5.7048
 30
0.0
 10
-26.0815
 20
-5.7048
 30
0.0
 10
-26.1718
 20
-5.622
 30
0.0
 10
-26.2913
 20
-5.5806
 30
0.0
 10
-26.4399
 20
-5.5806
 30
0.0
 10
-26.4399
 20
-5.5806
 30
0.0
 10
-26.5815
 20
-5.5806
 30
0.0
 10
-26.693
 20
-5.6201
 30
0.0
 10
-26.7748
 20
-5.6996
 30
0.0
 10
-26.7748
 20
-5.6996
 30
0.0
 10
-26.8567
 20
-5.7791
 30
0.0
 10
-26.8976
 20
-5.883
 30
0.0
 10
-26.8976
 20
-6.0119
 30
0.0
 10
-26.8976
 20
-6.0119
 30
0.0
 10
-26.8976
 20
-6.0919
 30
0.0
 10
-26.8793
 20
-6.1638
 30
0.0
 10
-26.8431
 20
-6.2283
 30
0.0
 10
-26.8431
 20
-6.2283
 30
0.0
 10
-26.8068
 20
-6.2927
 30
0.0
 10
-26.7598
 20
-6.343
 30
0.0
 10
-26.7019
 20
-6.3797
 30
0.0
 10
-26.7019
 20
-6.3797
 30
0.0
 10
-26.7019
 20
-6.3797
 30
0.0
 10
-26.732
 20
-6.6126
 30
0.0
 10
-26.732
 20
-6.6126
 30
0.0
 10
-26.732
 20
-6.6126
 30
0.0
 10
-26.732
 20
-6.6126
 30
0.0
 10
-27.7697
 20
-6.4169
 30
0.0
 10
-27.7697
 20
-6.4169
 30
0.0
 10
-27.7697
 20
-6.4169
 30
0.0
 10
-27.7697
 20
-6.4169
 30
0.0
 10
-27.7697
 20
-5.4122
 30
0.0
 10
-27.7697
 20
-5.4122
 30
0.0
 10
-27.7697
 20
-5.4122
 30
0.0
 10
-27.7697
 20
-5.4122
 30
0.0
 10
-27.5326
 20
-5.4122
 30
0.0
 10
-27.5326
 20
-5.4122
 30
0.0
 10
-27.5326
 20
-5.4122
 30
0.0
 10
-27.5326
 20
-5.4122
 30
0.0
 10
-27.5326
 20
-6.2184
 30
0.0
 10
-27.5326
 20
-6.2184
 30
0.0
 10
-27.5326
 20
-6.2184
 30
0.0
 10
-27.5326
 20
-6.2184
 30
0.0
 10
-26.9898
 20
-6.3275
 30
0.0
 10
-26.9898
 20
-6.3275
 30
0.0
 10
-26.9898
 20
-6.3275
 30
0.0
 10
-27.0745
 20
-6.2062
 30
0.0
 10
-27.1168
 20
-6.0787
 30
0.0
 10
-27.1168
 20
-5.9456
 30
0.0
 10
-27.1168
 20
-5.9456
 30
0.0
 10
-27.1168
 20
-5.7692
 30
0.0
 10
-27.0557
 20
-5.6206
 30
0.0
 10
-26.9334
 20
-5.4992
 30
0.0
 10
-26.9334
 20
-5.4992
 30
0.0
 10
-26.8111
 20
-5.3779
 30
0.0
 10
-26.654
 20
-5.3172
 30
0.0
 10
-26.4621
 20
-5.3172
 30
0.0
 10
-26.4621
 20
-5.3172
 30
0.0
 10
-26.2791
 20
-5.3172
 30
0.0
 10
-26.121
 20
-5.3708
 30
0.0
 10
-25.9879
 20
-5.4771
 30
0.0
 10
-25.9879
 20
-5.4771
 30
0.0
 10
-25.8247
 20
-5.6069
 30
0.0
 10
-25.7429
 20
-5.7838
 30
0.0
 10
-25.7429
 20
-6.0077
 30
0.0
 10
-25.7429
 20
-6.0077
 30
0.0
 10
-25.7429
 20
-6.1916
 30
0.0
 10
-25.7941
 20
-6.3416
 30
0.0
 10
-25.8971
 20
-6.4578
 30
0.0
 10
-25.8971
 20
-6.4578
 30
0.0
 10
-26.0002
 20
-6.574
 30
0.0
 10
-26.1366
 20
-6.6403
 30
0.0
 10
-26.3064
 20
-6.6568
 30
0.0
  0
SPLINE
  5
73
330
1F
100
AcDbEntity
  8
DEFAULT_1
 62
   250
100
AcDbSpline
210
0.0
220
0.0
230
1.0
 70
    11
 71
     3
 72
    20
 73
    16
 74
     0
 42
0.0000000001
 43
0.0000000001
 40
0.0
 40
0.0
 40
0.0
 40
0.0
 40
0.2
 40
0.2
 40
0.2
 40
0.2
 40
0.4
 40
0.4
 40
0.4
 40
0.4
 40
0.6
 40
0.6
 40
0.6
 40
0.6
 40
1.0
 40
1.0
 40
1.0
 40
1.0
 10
-26.3835
 20
-4.3308
 30
0.0
 10
-26.3835
 20
-4.3308
 30
0.0
 10
-26.6328
 20
-4.3308
 30
0.0
 10
-26.6328
 20
-4.3308
 30
0.0
 10
-26.6328
 20
-4.3308
 30
0.0
 10
-26.6328
 20
-4.3308
 30
0.0
 10
-26.6328
 20
-3.5684
 30
0.0
 10
-26.6328
 20
-3.5684
 30
0.0
 10
-26.6328
 20
-3.5684
 30
0.0
 10
-26.6328
 20
-3.5684
 30
0.0
 10
-26.3835
 20
-3.5684
 30
0.0
 10
-26.3835
 20
-3.5684
 30
0.0
 10
-26.3835
 20
-3.5684
 30
0.0
 10
-26.3835
 20
-3.5684
 30
0.0
 10
-26.3835
 20
-4.3308
 30
0.0
 10
-26.3835
 20
-4.3308
 30
0.0
  0
SPLINE
  5
74
330
1F
100
AcDbEntity
  8
DEFAULT_1
 62
   250
100
AcDbSpline
210
0.0
220
0.0
230
1.0
 70
    11
 71
     3
 72
    40
 73
    36
 74
     0
 42
0.0000000001
 43
0.0000000001
 40
0.0
 40
0.0
 40
0.0
 40
0.0
 40
0.1
 40
0.1
 40
0.1
 40
0.1
 40
0.2
 40
0.2
 40
0.2
 40
0.2
 40
0.3
 40
0.3
 40
0.3
 40
0.3
 40
0.4
 40
0.4
 40
0.4
 40
0.4
 40
0.5
 40
0.5
 40
0.5
 40
0.5
 40
0.6
 40
0.6
 40
0.6
 40
0.6
 40
0.7
 40
0.7
 40
0.7
 40
0.7
 40
0.8
 40
0.8
 40
0.8
 40
0.8
 40
1.0
 40
1.0
 40
1.0
 40
1.0
 10
-25.7772
 20
-1.645
 30
0.0
 10
-25.7772
 20
-1.645
 30
0.0
 10
-25.7772
 20
-1.8929
 30
0.0
 10
-25.7772
 20
-1.8929
 30
0.0
 10
-25.7772
 20
-1.8929
 30
0.0
 10
-25.7772
 20
-1.8929
 30
0.0
 10
-27.3576
 20
-1.8929
 30
0.0
 10
-27.3576
 20
-1.8929
 30
0.0
 10
-27.3576
 20
-1.8929
 30
0.0
 10
-27.3007
 20
-1.9527
 30
0.0
 10
-27.2438
 20
-2.0307
 30
0.0
 10
-27.1869
 20
-2.1276
 30
0.0
 10
-27.1869
 20
-2.1276
 30
0.0
 10
-27.13
 20
-2.225
 30
0.0
 10
-27.0872
 20
-2.312
 30
0.0
 10
-27.0589
 20
-2.3892
 30
0.0
 10
-27.0589
 20
-2.3892
 30
0.0
 10
-27.0589
 20
-2.3892
 30
0.0
 10
-27.2984
 20
-2.3892
 30
0.0
 10
-27.2984
 20
-2.3892
 30
0.0
 10
-27.2984
 20
-2.3892
 30
0.0
 10
-27.3637
 20
-2.2504
 30
0.0
 10
-27.4428
 20
-2.129
 30
0.0
 10
-27.5354
 20
-2.0251
 30
0.0
 10
-27.5354
 20
-2.0251
 30
0.0
 10
-27.6286
 20
-1.9216
 30
0.0
 10
-27.7184
 20
-1.8478
 30
0.0
 10
-27.8059
 20
-1.8045
 30
0.0
 10
-27.8059
 20
-1.8045
 30
0.0
 10
-27.8059
 20
-1.8045
 30
0.0
 10
-27.8059
 20
-1.645
 30
0.0
 10
-27.8059
 20
-1.645
 30
0.0
 10
-27.8059
 20
-1.645
 30
0.0
 10
-27.8059
 20
-1.645
 30
0.0
 10
-25.7772
 20
-1.645
 30
0.0
 10
-25.7772
 20
-1.645
 30
0.0
  0
SPLINE
  5
75
330
1F
100
AcDbEntity
  8
DEFAULT_1
 62
   250
100
AcDbSpline
210
0.0
220
0.0
230
1.0
 70
    11
 71
     3
 72
    68
 73
    64
 74
     0
 42
0.0000000001
 43
0.0000000001
 40
0.0
 40
0.0
 40
0.0
 40
0.0
 40
0.0588235294117647
 40
0.0588235294117647
 40
0.0588235294117647
 40
0.0588235294117647
 40
0.1176470588235294
 40
0.1176470588235294
 40
0.1176470588235294
 40
0.1176470588235294
 40
0.1764705882352941
 40
0.1764705882352941
 40
0.1764705882352941
 40
0.1764705882352941
 40
0.2352941176470588
 40
0.2352941176470588
 40
0.2352941176470588
 40
0.2352941176470588
 40
0.2941176470588235
 40
0.2941176470588235
 40
0.2941176470588235
 40
0.2941176470588235
 40
0.3529411764705883
 40
0.3529411764705883
 40
0.3529411764705883
 40
0.3529411764705883
 40
0.4117647058823529
 40
0.4117647058823529
 40
0.4117647058823529
 40
0.4117647058823529
 40
0.4705882352941176
 40
0.4705882352941176
 40
0.4705882352941176
 40
0.4705882352941176
 40
0.5294117647058824
 40
0.5294117647058824
 40
0.5294117647058824
 40
0.5294117647058824
 40
0.5882352941176471
 40
0.5882352941176471
 40
0.5882352941176471
 40
0.5882352941176471
 40
0.6470588235294118
 40
0.6470588235294118
 40
0.6470588235294118
 40
0.6470588235294118
 40
0.7058823529411765
 40
0.7058823529411765
 40
0.7058823529411765
 40
0.7058823529411765
 40
0.7647058823529411
 40
0.7647058823529411
 40
0.7647058823529411
 40
0.7647058823529411
 40
0.8235294117647058
 40
0.8235294117647058
 40
0.8235294117647058
 40
0.8235294117647058
 40
0.8823529411764706
 40
0.8823529411764706
 40
0.8823529411764706
 40
0.8823529411764706
 40
1.0
 40
1.0
 40
1.0
 40
1.0
 10
-26.8727
 20
-0.6276
 30
0.0
 10
-26.9103
 20
-0.7307
 30
0.0
 10
-26.9639
 20
-0.8069
 30
0.0
 10
-27.034
 20
-0.8567
 30
0.0
 10
-27.034
 20
-0.8567
 30
0.0
 10
-27.1036
 20
-0.9061
 30
0.0
 10
-27.1874
 20
-0.931
 30
0.0
 10
-27.2847
 20
-0.931
 30
0.0
 10
-27.2847
 20
-0.931
 30
0.0
 10
-27.4319
 20
-0.931
 30
0.0
 10
-27.5552
 20
-0.8783
 30
0.0
 10
-27.6554
 20
-0.7725
 30
0.0
 10
-27.6554
 20
-0.7725
 30
0.0
 10
-27.7556
 20
-0.6667
 30
0.0
 10
-27.8059
 20
-0.5265
 30
0.0
 10
-27.8059
 20
-0.3511
 30
0.0
 10
-27.8059
 20
-0.3511
 30
0.0
 10
-27.8059
 20
-0.1747
 30
0.0
 10
-27.7546
 20
-0.0326
 30
0.0
 10
-27.6521
 20
0.0751
 30
0.0
 10
-27.6521
 20
0.0751
 30
0.0
 10
-27.5495
 20
0.1823
 30
0.0
 10
-27.4249
 20
0.236
 30
0.0
 10
-27.2777
 20
0.236
 30
0.0
 10
-27.2777
 20
0.236
 30
0.0
 10
-27.1841
 20
0.236
 30
0.0
 10
-27.1027
 20
0.2115
 30
0.0
 10
-27.0331
 20
0.1626
 30
0.0
 10
-27.0331
 20
0.1626
 30
0.0
 10
-26.9639
 20
0.1132
 30
0.0
 10
-26.9103
 20
0.0389
 30
0.0
 10
-26.8727
 20
-0.0613
 30
0.0
 10
-26.8727
 20
-0.0613
 30
0.0
 10
-26.8322
 20
0.0624
 30
0.0
 10
-26.7673
 20
0.1569
 30
0.0
 10
-26.677
 20
0.2218
 30
0.0
 10
-26.677
 20
0.2218
 30
0.0
 10
-26.5872
 20
0.2863
 30
0.0
 10
-26.4795
 20
0.3187
 30
0.0
 10
-26.3548
 20
0.3187
 30
0.0
 10
-26.3548
 20
0.3187
 30
0.0
 10
-26.1817
 20
0.3187
 30
0.0
 10
-26.0368
 20
0.2576
 30
0.0
 10
-25.9193
 20
0.1358
 30
0.0
 10
-25.9193
 20
0.1358
 30
0.0
 10
-25.8017
 20
0.0135
 30
0.0
 10
-25.7429
 20
-0.1474
 30
0.0
 10
-25.7429
 20
-0.3468
 30
0.0
 10
-25.7429
 20
-0.3468
 30
0.0
 10
-25.7429
 20
-0.5463
 30
0.0
 10
-25.8017
 20
-0.7067
 30
0.0
 10
-25.9197
 20
-0.829
 30
0.0
 10
-25.9197
 20
-0.829
 30
0.0
 10
-26.0378
 20
-0.9513
 30
0.0
 10
-26.185
 20
-1.0124
 30
0.0
 10
-26.3614
 20
-1.0124
 30
0.0
 10
-26.3614
 20
-1.0124
 30
0.0
 10
-26.4926
 20
-1.0124
 30
0.0
 10
-26.6027
 20
-0.979
 30
0.0
 10
-26.6916
 20
-0.9122
 30
0.0
 10
-26.6916
 20
-0.9122
 30
0.0
 10
-26.78
 20
-0.8459
 30
0.0
 10
-26.8407
 20
-0.7509
 30
0.0
 10
-26.8727
 20
-0.6276
 30
0.0
  0
SPLINE
  5
76
330
1F
100
AcDbEntity
  8
DEFAULT_1
 62
   250
100
AcDbSpline
210
0.0
220
0.0
230
1.0
 70
    11
 71
     3
 72
    36
 73
    32
 74
     0
 42
0.0000000001
 43
0.0000000001
 40
0.0
 40
0.0
 40
0.0
 40
0.0
 40
0.1111111111111111
 40
0.1111111111111111
 40
0.1111111111111111
 40
0.1111111111111111
 40
0.2222222222222222
 40
0.2222222222222222
 40
0.2222222222222222
 40
0.2222222222222222
 40
0.3333333333333333
 40
0.3333333333333333
 40
0.3333333333333333
 40
0.3333333333333333
 40
0.4444444444444444
 40
0.4444444444444444
 40
0.4444444444444444
 40
0.4444444444444444
 40
0.5555555555555556
 40
0.5555555555555556
 40
0.5555555555555556
 40
0.5555555555555556
 40
0.6666666666666666
 40
0.6666666666666666
 40
0.6666666666666666
 40
0.6666666666666666
 40
0.7777777777777778
 40
0.7777777777777778
 40
0.7777777777777778
 40
0.7777777777777778
 40
1.0
 40
1.0
 40
1.0
 40
1.0
 10
-27.2932
 20
-0.6775
 30
0.0
 10
-27.1977
 20
-0.6775
 30
0.0
 10
-27.1196
 20
-0.6465
 30
0.0
 10
-27.0589
 20
-0.5853
 30
0.0
 10
-27.0589
 20
-0.5853
 30
0.0
 10
-26.9983
 20
-0.5237
 30
0.0
 10
-26.9677
 20
-0.4437
 30
0.0
 10
-26.9677
 20
-0.3454
 30
0.0
 10
-26.9677
 20
-0.3454
 30
0.0
 10
-26.9677
 20
-0.2499
 30
0.0
 10
-26.9978
 20
-0.1714
 30
0.0
 10
-27.058
 20
-0.1102
 30
0.0
 10
-27.058
 20
-0.1102
 30
0.0
 10
-27.1182
 20
-0.0491
 30
0.0
 10
-27.1921
 20
-0.019
 30
0.0
 10
-27.2791
 20
-0.019
 30
0.0
 10
-27.2791
 20
-0.019
 30
0.0
 10
-27.3703
 20
-0.019
 30
0.0
 10
-27.4465
 20
-0.05
 30
0.0
 10
-27.5086
 20
-0.1131
 30
0.0
 10
-27.5086
 20
-0.1131
 30
0.0
 10
-27.5707
 20
-0.1761
 30
0.0
 10
-27.6018
 20
-0.2542
 30
0.0
 10
-27.6018
 20
-0.3482
 30
0.0
 10
-27.6018
 20
-0.3482
 30
0.0
 10
-27.6018
 20
-0.4428
 30
0.0
 10
-27.5712
 20
-0.5213
 30
0.0
 10
-27.511
 20
-0.5839
 30
0.0
 10
-27.511
 20
-0.5839
 30
0.0
 10
-27.4503
 20
-0.6465
 30
0.0
 10
-27.3774
 20
-0.6775
 30
0.0
 10
-27.2932
 20
-0.6775
 30
0.0
  0
SPLINE
  5
77
330
1F
100
AcDbEntity
  8
DEFAULT_1
 62
   250
100
AcDbSpline
210
0.0
220
0.0
230
1.0
 70
    11
 71
     3
 72
    40
 73
    36
 74
     0
 42
0.0000000001
 43
0.0000000001
 40
0.0
 40
0.0
 40
0.0
 40
0.0
 40
0.1
 40
0.1
 40
0.1
 40
0.1
 40
0.2
 40
0.2
 40
0.2
 40
0.2
 40
0.3
 40
0.3
 40
0.3
 40
0.3
 40
0.4
 40
0.4
 40
0.4
 40
0.4
 40
0.5
 40
0.5
 40
0.5
 40
0.5
 40
0.6
 40
0.6
 40
0.6
 40
0.6
 40
0.7
 40
0.7
 40
0.7
 40
0.7
 40
0.8
 40
0.8
 40
0.8
 40
0.8
 40
1.0
 40
1.0
 40
1.0
 40
1.0
 10
-26.36
 20
-0.7575
 30
0.0
 10
-26.2894
 20
-0.7575
 30
0.0
 10
-26.2208
 20
-0.7405
 30
0.0
 10
-26.1549
 20
-0.7071
 30
0.0
 10
-26.1549
 20
-0.7071
 30
0.0
 10
-26.0886
 20
-0.6737
 30
0.0
 10
-26.0373
 20
-0.6239
 30
0.0
 10
-26.0011
 20
-0.5576
 30
0.0
 10
-26.0011
 20
-0.5576
 30
0.0
 10
-25.9649
 20
-0.4912
 30
0.0
 10
-25.9465
 20
-0.4202
 30
0.0
 10
-25.9465
 20
-0.344
 30
0.0
 10
-25.9465
 20
-0.344
 30
0.0
 10
-25.9465
 20
-0.2255
 30
0.0
 10
-25.9846
 20
-0.1276
 30
0.0
 10
-26.0613
 20
-0.0505
 30
0.0
 10
-26.0613
 20
-0.0505
 30
0.0
 10
-26.1375
 20
0.0266
 30
0.0
 10
-26.2344
 20
0.0652
 30
0.0
 10
-26.352
 20
0.0652
 30
0.0
 10
-26.352
 20
0.0652
 30
0.0
 10
-26.4715
 20
0.0652
 30
0.0
 10
-26.5702
 20
0.0257
 30
0.0
 10
-26.6483
 20
-0.0538
 30
0.0
 10
-26.6483
 20
-0.0538
 30
0.0
 10
-26.7264
 20
-0.1333
 30
0.0
 10
-26.7654
 20
-0.233
 30
0.0
 10
-26.7654
 20
-0.3525
 30
0.0
 10
-26.7654
 20
-0.3525
 30
0.0
 10
-26.7654
 20
-0.4691
 30
0.0
 10
-26.7269
 20
-0.5656
 30
0.0
 10
-26.6497
 20
-0.6422
 30
0.0
 10
-26.6497
 20
-0.6422
 30
0.0
 10
-26.5721
 20
-0.7189
 30
0.0
 10
-26.4757
 20
-0.7575
 30
0.0
 10
-26.36
 20
-0.7575
 30
0.0
  0
SPLINE
  5
78
330
1F
100
AcDbEntity
  8
DEFAULT_1
 62
   250
100
AcDbSpline
210
0.0
220
0.0
230
1.0
 70
    11
 71
     3
 72
    92
 73
    88
 74
     0
 42
0.0000000001
 43
0.0000000001
 40
0.0
 40
0.0
 40
0.0
 40
0.0
 40
0.0434782608695652
 40
0.0434782608695652
 40
0.0434782608695652
 40
0.0434782608695652
 40
0.0869565217391304
 40
0.0869565217391304
 40
0.0869565217391304
 40
0.0869565217391304
 40
0.1304347826086956
 40
0.1304347826086956
 40
0.1304347826086956
 40
0.1304347826086956
 40
0.1739130434782609
 40
0.1739130434782609
 40
0.1739130434782609
 40
0.1739130434782609
 40
0.2173913043478261
 40
0.2173913043478261
 40
0.2173913043478261
 40
0.2173913043478261
 40
0.2608695652173913
 40
0.2608695652173913
 40
0.2608695652173913
 40
0.2608695652173913
 40
0.3043478260869565
 40
0.3043478260869565
 40
0.3043478260869565
 40
0.3043478260869565
 40
0.3478260869565217
 40
0.3478260869565217
 40
0.3478260869565217
 40
0.3478260869565217
 40
0.391304347826087
 40
0.391304347826087
 40
0.391304347826087
 40
0.391304347826087
 40
0.4347826086956522
 40
0.4347826086956522
 40
0.4347826086956522
 40
0.4347826086956522
 40
0.4782608695652174
 40
0.4782608695652174
 40
0.4782608695652174
 40
0.4782608695652174
 40
0.5217391304347826
 40
0.5217391304347826
 40
0.5217391304347826
 40
0.5217391304347826
 40
0.5652173913043478
 40
0.5652173913043478
 40
0.5652173913043478
 40
0.5652173913043478
 40
0.6086956521739131
 40
0.6086956521739131
 40
0.6086956521739131
 40
0.6086956521739131
 40
0.6521739130434783
 40
0.6521739130434783
 40
0.6521739130434783
 40
0.6521739130434783
 40
0.6956521739130435
 40
0.6956521739130435
 40
0.6956521739130435
 40
0.6956521739130435
 40
0.7391304347826086
 40
0.7391304347826086
 40
0.7391304347826086
 40
0.7391304347826086
 40
0.782608695652174
 40
0.782608695652174
 40
0.782608695652174
 40
0.782608695652174
 40
0.8260869565217391
 40
0.8260869565217391
 40
0.8260869565217391
 40
0.8260869565217391
 40
0.8695652173913043
 40
0.8695652173913043
 40
0.8695652173913043
 40
0.8695652173913043
 40
0.9130434782608695
 40
0.9130434782608695
 40
0.9130434782608695
 40
0.9130434782608695
 40
1.0
 40
1.0
 40
1.0
 40
1.0
 10
-26.3064
 20
0.56
 30
0.0
 10
-26.3064
 20
0.56
 30
0.0
 10
-26.3285
 20
0.8206
 30
0.0
 10
-26.3285
 20
0.8206
 30
0.0
 10
-26.3285
 20
0.8206
 30
0.0
 10
-26.2015
 20
0.8399
 30
0.0
 10
-26.1065
 20
0.8846
 30
0.0
 10
-26.0425
 20
0.9547
 30
0.0
 10
-26.0425
 20
0.9547
 30
0.0
 10
-25.9785
 20
1.0252
 30
0.0
 10
-25.9465
 20
1.1099
 30
0.0
 10
-25.9465
 20
1.2091
 30
0.0
 10
-25.9465
 20
1.2091
 30
0.0
 10
-25.9465
 20
1.3286
 30
0.0
 10
-25.9917
 20
1.4297
 30
0.0
 10
-26.0815
 20
1.512
 30
0.0
 10
-26.0815
 20
1.512
 30
0.0
 10
-26.1718
 20
1.5948
 30
0.0
 10
-26.2913
 20
1.6362
 30
0.0
 10
-26.4399
 20
1.6362
 30
0.0
 10
-26.4399
 20
1.6362
 30
0.0
 10
-26.5815
 20
1.6362
 30
0.0
 10
-26.693
 20
1.5967
 30
0.0
 10
-26.7748
 20
1.5172
 30
0.0
 10
-26.7748
 20
1.5172
 30
0.0
 10
-26.8567
 20
1.4377
 30
0.0
 10
-26.8976
 20
1.3338
 30
0.0
 10
-26.8976
 20
1.2049
 30
0.0
 10
-26.8976
 20
1.2049
 30
0.0
 10
-26.8976
 20
1.1249
 30
0.0
 10
-26.8793
 20
1.053
 30
0.0
 10
-26.8431
 20
0.9885
 30
0.0
 10
-26.8431
 20
0.9885
 30
0.0
 10
-26.8068
 20
0.9241
 30
0.0
 10
-26.7598
 20
0.8738
 30
0.0
 10
-26.7019
 20
0.8371
 30
0.0
 10
-26.7019
 20
0.8371
 30
0.0
 10
-26.7019
 20
0.8371
 30
0.0
 10
-26.732
 20
0.6042
 30
0.0
 10
-26.732
 20
0.6042
 30
0.0
 10
-26.732
 20
0.6042
 30
0.0
 10
-26.732
 20
0.6042
 30
0.0
 10
-27.7697
 20
0.7999
 30
0.0
 10
-27.7697
 20
0.7999
 30
0.0
 10
-27.7697
 20
0.7999
 30
0.0
 10
-27.7697
 20
0.7999
 30
0.0
 10
-27.7697
 20
1.8046
 30
0.0
 10
-27.7697
 20
1.8046
 30
0.0
 10
-27.7697
 20
1.8046
 30
0.0
 10
-27.7697
 20
1.8046
 30
0.0
 10
-27.5326
 20
1.8046
 30
0.0
 10
-27.5326
 20
1.8046
 30
0.0
 10
-27.5326
 20
1.8046
 30
0.0
 10
-27.5326
 20
1.8046
 30
0.0
 10
-27.5326
 20
0.9984
 30
0.0
 10
-27.5326
 20
0.9984
 30
0.0
 10
-27.5326
 20
0.9984
 30
0.0
 10
-27.5326
 20
0.9984
 30
0.0
 10
-26.9898
 20
0.8893
 30
0.0
 10
-26.9898
 20
0.8893
 30
0.0
 10
-26.9898
 20
0.8893
 30
0.0
 10
-27.0745
 20
1.0106
 30
0.0
 10
-27.1168
 20
1.1381
 30
0.0
 10
-27.1168
 20
1.2712
 30
0.0
 10
-27.1168
 20
1.2712
 30
0.0
 10
-27.1168
 20
1.4476
 30
0.0
 10
-27.0557
 20
1.5962
 30
0.0
 10
-26.9334
 20
1.7176
 30
0.0
 10
-26.9334
 20
1.7176
 30
0.0
 10
-26.8111
 20
1.8389
 30
0.0
 10
-26.654
 20
1.8996
 30
0.0
 10
-26.4621
 20
1.8996
 30
0.0
 10
-26.4621
 20
1.8996
 30
0.0
 10
-26.2791
 20
1.8996
 30
0.0
 10
-26.121
 20
1.846
 30
0.0
 10
-25.9879
 20
1.7397
 30
0.0
 10
-25.9879
 20
1.7397
 30
0.0
 10
-25.8247
 20
1.6099
 30
0.0
 10
-25.7429
 20
1.433
 30
0.0
 10
-25.7429
 20
1.2091
 30
0.0
 10
-25.7429
 20
1.2091
 30
0.0
 10
-25.7429
 20
1.0252
 30
0.0
 10
-25.7941
 20
0.8752
 30
0.0
 10
-25.8971
 20
0.759
 30
0.0
 10
-25.8971
 20
0.759
 30
0.0
 10
-26.0002
 20
0.6428
 30
0.0
 10
-26.1366
 20
0.5765
 30
0.0
 10
-26.3064
 20
0.56
 30
0.0
  0
SPLINE
  5
79
330
1F
100
AcDbEntity
  8
DEFAULT_1
 62
   250
100
AcDbSpline
210
0.0
220
0.0
230
1.0
 70
    11
 71
     3
 72
   116
 73
   112
 74
     0
 42
0.0000000001
 43
0.0000000001
 40
0.0
 40
0.0
 40
0.0
 40
0.0
 40
0.0344827586206897
 40
0.0344827586206897
 40
0.0344827586206897
 40
0.0344827586206897
 40
0.0689655172413793
 40
0.0689655172413793
 40
0.0689655172413793
 40
0.0689655172413793
 40
0.103448275862069
 40
0.103448275862069
 40
0.103448275862069
 40
0.103448275862069
 40
0.1379310344827586
 40
0.1379310344827586
 40
0.1379310344827586
 40
0.1379310344827586
 40
0.1724137931034483
 40
0.1724137931034483
 40
0.1724137931034483
 40
0.1724137931034483
 40
0.2068965517241379
 40
0.2068965517241379
 40
0.2068965517241379
 40
0.2068965517241379
 40
0.2413793103448276
 40
0.2413793103448276
 40
0.2413793103448276
 40
0.2413793103448276
 40
0.2758620689655172
 40
0.2758620689655172
 40
0.2758620689655172
 40
0.2758620689655172
 40
0.3103448275862069
 40
0.3103448275862069
 40
0.3103448275862069
 40
0.3103448275862069
 40
0.3448275862068966
 40
0.3448275862068966
 40
0.3448275862068966
 40
0.3448275862068966
 40
0.3793103448275862
 40
0.3793103448275862
 40
0.3793103448275862
 40
0.3793103448275862
 40
0.4137931034482759
 40
0.4137931034482759
 40
0.4137931034482759
 40
0.4137931034482759
 40
0.4482758620689655
 40
0.4482758620689655
 40
0.4482758620689655
 40
0.4482758620689655
 40
0.4827586206896552
 40
0.4827586206896552
 40
0.4827586206896552
 40
0.4827586206896552
 40
0.5172413793103449
 40
0.5172413793103449
 40
0.5172413793103449
 40
0.5172413793103449
 40
0.5517241379310345
 40
0.5517241379310345
 40
0.5517241379310345
 40
0.5517241379310345
 40
0.5862068965517241
 40
0.5862068965517241
 40
0.5862068965517241
 40
0.5862068965517241
 40
0.6206896551724138
 40
0.6206896551724138
 40
0.6206896551724138
 40
0.6206896551724138
 40
0.6551724137931034
 40
0.6551724137931034
 40
0.6551724137931034
 40
0.6551724137931034
 40
0.6896551724137931
 40
0.6896551724137931
 40
0.6896551724137931
 40
0.6896551724137931
 40
0.7241379310344828
 40
0.7241379310344828
 40
0.7241379310344828
 40
0.7241379310344828
 40
0.7586206896551724
 40
0.7586206896551724
 40
0.7586206896551724
 40
0.7586206896551724
 40
0.7931034482758621
 40
0.7931034482758621
 40
0.7931034482758621
 40
0.7931034482758621
 40
0.8275862068965517
 40
0.8275862068965517
 40
0.8275862068965517
 40
0.8275862068965517
 40
0.8620689655172413
 40
0.8620689655172413
 40
0.8620689655172413
 40
0.8620689655172413
 40
0.896551724137931
 40
0.896551724137931
 40
0.896551724137931
 40
0.896551724137931
 40
0.9310344827586207
 40
0.9310344827586207
 40
0.9310344827586207
 40
0.9310344827586207
 40
1.0
 40
1.0
 40
1.0
 40
1.0
 10
-26.569
 20
12.6512
 30
0.0
 10
-26.569
 20
12.6512
 30
0.0
 10
-28.0323
 20
12.6512
 30
0.0
 10
-28.0323
 20
12.6512
 30
0.0
 10
-28.0323
 20
12.6512
 30
0.0
 10
-28.0323
 20
12.6512
 30
0.0
 10
-28.0323
 20
12.8727
 30
0.0
 10
-28.0323
 20
12.8727
 30
0.0
 10
-28.0323
 20
12.8727
 30
0.0
 10
-28.0323
 20
12.8727
 30
0.0
 10
-27.8272
 20
12.8727
 30
0.0
 10
-27.8272
 20
12.8727
 30
0.0
 10
-27.8272
 20
12.8727
 30
0.0
 10
-27.8987
 20
12.9188
 30
0.0
 10
-27.9566
 20
12.98
 30
0.0
 10
-27.9999
 20
13.0562
 30
0.0
 10
-27.9999
 20
13.0562
 30
0.0
 10
-28.0436
 20
13.1324
 30
0.0
 10
-28.0657
 20
13.2194
 30
0.0
 10
-28.0657
 20
13.3167
 30
0.0
 10
-28.0657
 20
13.3167
 30
0.0
 10
-28.0657
 20
13.4249
 30
0.0
 10
-28.0431
 20
13.5138
 30
0.0
 10
-27.998
 20
13.583
 30
0.0
 10
-27.998
 20
13.583
 30
0.0
 10
-27.9528
 20
13.6526
 30
0.0
 10
-27.8903
 20
13.7015
 30
0.0
 10
-27.8094
 20
13.7297
 30
0.0
 10
-27.8094
 20
13.7297
 30
0.0
 10
-27.9801
 20
13.8459
 30
0.0
 10
-28.0657
 20
13.9964
 30
0.0
 10
-28.0657
 20
14.1817
 30
0.0
 10
-28.0657
 20
14.1817
 30
0.0
 10
-28.0657
 20
14.3271
 30
0.0
 10
-28.0253
 20
14.4386
 30
0.0
 10
-27.9448
 20
14.5166
 30
0.0
 10
-27.9448
 20
14.5166
 30
0.0
 10
-27.8644
 20
14.5947
 30
0.0
 10
-27.7407
 20
14.6338
 30
0.0
 10
-27.5737
 20
14.6338
 30
0.0
 10
-27.5737
 20
14.6338
 30
0.0
 10
-27.5737
 20
14.6338
 30
0.0
 10
-26.569
 20
14.6338
 30
0.0
 10
-26.569
 20
14.6338
 30
0.0
 10
-26.569
 20
14.6338
 30
0.0
 10
-26.569
 20
14.6338
 30
0.0
 10
-26.569
 20
14.3873
 30
0.0
 10
-26.569
 20
14.3873
 30
0.0
 10
-26.569
 20
14.3873
 30
0.0
 10
-26.569
 20
14.3873
 30
0.0
 10
-27.4909
 20
14.3873
 30
0.0
 10
-27.4909
 20
14.3873
 30
0.0
 10
-27.4909
 20
14.3873
 30
0.0
 10
-27.5902
 20
14.3873
 30
0.0
 10
-27.6617
 20
14.3793
 30
0.0
 10
-27.7054
 20
14.3633
 30
0.0
 10
-27.7054
 20
14.3633
 30
0.0
 10
-27.7487
 20
14.3468
 30
0.0
 10
-27.784
 20
14.3177
 30
0.0
 10
-27.8108
 20
14.2758
 30
0.0
 10
-27.8108
 20
14.2758
 30
0.0
 10
-27.8371
 20
14.2335
 30
0.0
 10
-27.8507
 20
14.1836
 30
0.0
 10
-27.8507
 20
14.1267
 30
0.0
 10
-27.8507
 20
14.1267
 30
0.0
 10
-27.8507
 20
14.0237
 30
0.0
 10
-27.8164
 20
13.9386
 30
0.0
 10
-27.7477
 20
13.8704
 30
0.0
 10
-27.7477
 20
13.8704
 30
0.0
 10
-27.6795
 20
13.8026
 30
0.0
 10
-27.5699
 20
13.7683
 30
0.0
 10
-27.4194
 20
13.7683
 30
0.0
 10
-27.4194
 20
13.7683
 30
0.0
 10
-27.4194
 20
13.7683
 30
0.0
 10
-26.569
 20
13.7683
 30
0.0
 10
-26.569
 20
13.7683
 30
0.0
 10
-26.569
 20
13.7683
 30
0.0
 10
-26.569
 20
13.7683
 30
0.0
 10
-26.569
 20
13.5204
 30
0.0
 10
-26.569
 20
13.5204
 30
0.0
 10
-26.569
 20
13.5204
 30
0.0
 10
-26.569
 20
13.5204
 30
0.0
 10
-27.5196
 20
13.5204
 30
0.0
 10
-27.5196
 20
13.5204
 30
0.0
 10
-27.5196
 20
13.5204
 30
0.0
 10
-27.6301
 20
13.5204
 30
0.0
 10
-27.7129
 20
13.5002
 30
0.0
 10
-27.768
 20
13.4597
 30
0.0
 10
-27.768
 20
13.4597
 30
0.0
 10
-27.823
 20
13.4193
 30
0.0
 10
-27.8507
 20
13.3534
 30
0.0
 10
-27.8507
 20
13.2612
 30
0.0
 10
-27.8507
 20
13.2612
 30
0.0
 10
-27.8507
 20
13.1916
 30
0.0
 10
-27.8324
 20
13.1272
 30
0.0
 10
-27.7952
 20
13.0679
 30
0.0
 10
-27.7952
 20
13.0679
 30
0.0
 10
-27.7586
 20
13.0086
 30
0.0
 10
-27.7049
 20
12.9654
 30
0.0
 10
-27.6344
 20
12.939
 30
0.0
 10
-27.6344
 20
12.939
 30
0.0
 10
-27.5634
 20
12.9122
 30
0.0
 10
-27.4613
 20
12.899
 30
0.0
 10
-27.3282
 20
12.899
 30
0.0
 10
-27.3282
 20
12.899
 30
0.0
 10
-27.3282
 20
12.899
 30
0.0
 10
-26.569
 20
12.899
 30
0.0
 10
-26.569
 20
12.899
 30
0.0
 10
-26.569
 20
12.899
 30
0.0
 10
-26.569
 20
12.899
 30
0.0
 10
-26.569
 20
12.6512
 30
0.0
 10
-26.569
 20
12.6512
 30
0.0
  0
SPLINE
  5
7A
330
1F
100
AcDbEntity
  8
DEFAULT_1
 62
   250
100
AcDbSpline
210
0.0
220
0.0
230
1.0
 70
    11
 71
     3
 72
   112
 73
   108
 74
     0
 42
0.0000000001
 43
0.0000000001
 40
0.0
 40
0.0
 40
0.0
 40
0.0
 40
0.0357142857142857
 40
0.0357142857142857
 40
0.0357142857142857
 40
0.0357142857142857
 40
0.0714285714285714
 40
0.0714285714285714
 40
0.0714285714285714
 40
0.0714285714285714
 40
0.1071428571428571
 40
0.1071428571428571
 40
0.1071428571428571
 40
0.1071428571428571
 40
0.1428571428571428
 40
0.1428571428571428
 40
0.1428571428571428
 40
0.1428571428571428
 40
0.1785714285714286
 40
0.1785714285714286
 40
0.1785714285714286
 40
0.1785714285714286
 40
0.2142857142857143
 40
0.2142857142857143
 40
0.2142857142857143
 40
0.2142857142857143
 40
0.25
 40
0.25
 40
0.25
 40
0.25
 40
0.2857142857142857
 40
0.2857142857142857
 40
0.2857142857142857
 40
0.2857142857142857
 40
0.3214285714285715
 40
0.3214285714285715
 40
0.3214285714285715
 40
0.3214285714285715
 40
0.3571428571428572
 40
0.3571428571428572
 40
0.3571428571428572
 40
0.3571428571428572
 40
0.3928571428571428
 40
0.3928571428571428
 40
0.3928571428571428
 40
0.3928571428571428
 40
0.4285714285714285
 40
0.4285714285714285
 40
0.4285714285714285
 40
0.4285714285714285
 40
0.4642857142857143
 40
0.4642857142857143
 40
0.4642857142857143
 40
0.4642857142857143
 40
0.5
 40
0.5
 40
0.5
 40
0.5
 40
0.5357142857142857
 40
0.5357142857142857
 40
0.5357142857142857
 40
0.5357142857142857
 40
0.5714285714285714
 40
0.5714285714285714
 40
0.5714285714285714
 40
0.5714285714285714
 40
0.6071428571428571
 40
0.6071428571428571
 40
0.6071428571428571
 40
0.6071428571428571
 40
0.6428571428571429
 40
0.6428571428571429
 40
0.6428571428571429
 40
0.6428571428571429
 40
0.6785714285714286
 40
0.6785714285714286
 40
0.6785714285714286
 40
0.6785714285714286
 40
0.7142857142857143
 40
0.7142857142857143
 40
0.7142857142857143
 40
0.7142857142857143
 40
0.75
 40
0.75
 40
0.75
 40
0.75
 40
0.7857142857142857
 40
0.7857142857142857
 40
0.7857142857142857
 40
0.7857142857142857
 40
0.8214285714285714
 40
0.8214285714285714
 40
0.8214285714285714
 40
0.8214285714285714
 40
0.8571428571428571
 40
0.8571428571428571
 40
0.8571428571428571
 40
0.8571428571428571
 40
0.8928571428571429
 40
0.8928571428571429
 40
0.8928571428571429
 40
0.8928571428571429
 40
0.9285714285714286
 40
0.9285714285714286
 40
0.9285714285714286
 40
0.9285714285714286
 40
1.0
 40
1.0
 40
1.0
 40
1.0
 10
-26.7496
 20
15.9569
 30
0.0
 10
-26.6715
 20
15.8647
 30
0.0
 10
-26.6165
 20
15.7763
 30
0.0
 10
-26.5841
 20
15.6916
 30
0.0
 10
-26.5841
 20
15.6916
 30
0.0
 10
-26.5521
 20
15.6065
 30
0.0
 10
-26.5361
 20
15.5152
 30
0.0
 10
-26.5361
 20
15.4179
 30
0.0
 10
-26.5361
 20
15.4179
 30
0.0
 10
-26.5361
 20
15.257
 30
0.0
 10
-26.5751
 20
15.1338
 30
0.0
 10
-26.6537
 20
15.0472
 30
0.0
 10
-26.6537
 20
15.0472
 30
0.0
 10
-26.7322
 20
14.9611
 30
0.0
 10
-26.8329
 20
14.9179
 30
0.0
 10
-26.9547
 20
14.9179
 30
0.0
 10
-26.9547
 20
14.9179
 30
0.0
 10
-27.0267
 20
14.9179
 30
0.0
 10
-27.092
 20
14.9339
 30
0.0
 10
-27.1513
 20
14.9668
 30
0.0
 10
-27.1513
 20
14.9668
 30
0.0
 10
-27.2106
 20
14.9992
 30
0.0
 10
-27.2581
 20
15.042
 30
0.0
 10
-27.2938
 20
15.0947
 30
0.0
 10
-27.2938
 20
15.0947
 30
0.0
 10
-27.3296
 20
15.1479
 30
0.0
 10
-27.3569
 20
15.2071
 30
0.0
 10
-27.3752
 20
15.2735
 30
0.0
 10
-27.3752
 20
15.2735
 30
0.0
 10
-27.3879
 20
15.3219
 30
0.0
 10
-27.4006
 20
15.3953
 30
0.0
 10
-27.4124
 20
15.4936
 30
0.0
 10
-27.4124
 20
15.4936
 30
0.0
 10
-27.4364
 20
15.694
 30
0.0
 10
-27.4646
 20
15.8417
 30
0.0
 10
-27.498
 20
15.9362
 30
0.0
 10
-27.498
 20
15.9362
 30
0.0
 10
-27.5318
 20
15.9372
 30
0.0
 10
-27.5535
 20
15.9376
 30
0.0
 10
-27.5624
 20
15.9376
 30
0.0
 10
-27.5624
 20
15.9376
 30
0.0
 10
-27.6635
 20
15.9376
 30
0.0
 10
-27.735
 20
15.9141
 30
0.0
 10
-27.776
 20
15.8671
 30
0.0
 10
-27.776
 20
15.8671
 30
0.0
 10
-27.8324
 20
15.804
 30
0.0
 10
-27.8602
 20
15.7095
 30
0.0
 10
-27.8602
 20
15.5848
 30
0.0
 10
-27.8602
 20
15.5848
 30
0.0
 10
-27.8602
 20
15.4682
 30
0.0
 10
-27.8399
 20
15.3821
 30
0.0
 10
-27.799
 20
15.3261
 30
0.0
 10
-27.799
 20
15.3261
 30
0.0
 10
-27.7581
 20
15.2706
 30
0.0
 10
-27.6857
 20
15.2297
 30
0.0
 10
-27.5817
 20
15.2029
 30
0.0
 10
-27.5817
 20
15.2029
 30
0.0
 10
-27.5817
 20
15.2029
 30
0.0
 10
-27.6151
 20
14.9607
 30
0.0
 10
-27.6151
 20
14.9607
 30
0.0
 10
-27.6151
 20
14.9607
 30
0.0
 10
-27.7186
 20
14.9828
 30
0.0
 10
-27.8028
 20
15.019
 30
0.0
 10
-27.8663
 20
15.0693
 30
0.0
 10
-27.8663
 20
15.0693
 30
0.0
 10
-27.9302
 20
15.1197
 30
0.0
 10
-27.9796
 20
15.193
 30
0.0
 10
-28.014
 20
15.2885
 30
0.0
 10
-28.014
 20
15.2885
 30
0.0
 10
-28.0483
 20
15.384
 30
0.0
 10
-28.0657
 20
15.4945
 30
0.0
 10
-28.0657
 20
15.6206
 30
0.0
 10
-28.0657
 20
15.6206
 30
0.0
 10
-28.0657
 20
15.7457
 30
0.0
 10
-28.0507
 20
15.8468
 30
0.0
 10
-28.0215
 20
15.9249
 30
0.0
 10
-28.0215
 20
15.9249
 30
0.0
 10
-27.9919
 20
16.003
 30
0.0
 10
-27.9552
 20
16.0604
 30
0.0
 10
-27.9105
 20
16.0975
 30
0.0
 10
-27.9105
 20
16.0975
 30
0.0
 10
-27.8658
 20
16.1342
 30
0.0
 10
-27.8098
 20
16.1596
 30
0.0
 10
-27.7416
 20
16.1747
 30
0.0
 10
-27.7416
 20
16.1747
 30
0.0
 10
-27.6993
 20
16.1827
 30
0.0
 10
-27.6231
 20
16.1869
 30
0.0
 10
-27.513
 20
16.1869
 30
0.0
 10
-27.513
 20
16.1869
 30
0.0
 10
-27.513
 20
16.1869
 30
0.0
 10
-27.1824
 20
16.1869
 30
0.0
 10
-27.1824
 20
16.1869
 30
0.0
 10
-27.1824
 20
16.1869
 30
0.0
 10
-26.9514
 20
16.1869
 30
0.0
 10
-26.8056
 20
16.1921
 30
0.0
 10
-26.7449
 20
16.2029
 30
0.0
 10
-26.7449
 20
16.2029
 30
0.0
 10
-26.6838
 20
16.2133
 30
0.0
 10
-26.625
 20
16.2344
 30
0.0
 10
-26.569
 20
16.2655
 30
0.0
 10
-26.569
 20
16.2655
 30
0.0
 10
-26.569
 20
16.2655
 30
0.0
 10
-26.569
 20
16.0063
 30
0.0
 10
-26.569
 20
16.0063
 30
0.0
 10
-26.569
 20
16.0063
 30
0.0
 10
-26.6203
 20
15.9809
 30
0.0
 10
-26.6805
 20
15.964
 30
0.0
 10
-26.7496
 20
15.9569
 30
0.0
  0
SPLINE
  5
7B
330
1F
100
AcDbEntity
  8
DEFAULT_1
 62
   250
100
AcDbSpline
210
0.0
220
0.0
230
1.0
 70
    11
 71
     3
 72
    44
 73
    40
 74
     0
 42
0.0000000001
 43
0.0000000001
 40
0.0
 40
0.0
 40
0.0
 40
0.0
 40
0.0909090909090909
 40
0.0909090909090909
 40
0.0909090909090909
 40
0.0909090909090909
 40
0.1818181818181818
 40
0.1818181818181818
 40
0.1818181818181818
 40
0.1818181818181818
 40
0.2727272727272727
 40
0.2727272727272727
 40
0.2727272727272727
 40
0.2727272727272727
 40
0.3636363636363636
 40
0.3636363636363636
 40
0.3636363636363636
 40
0.3636363636363636
 40
0.4545454545454545
 40
0.4545454545454545
 40
0.4545454545454545
 40
0.4545454545454545
 40
0.5454545454545454
 40
0.5454545454545454
 40
0.5454545454545454
 40
0.5454545454545454
 40
0.6363636363636364
 40
0.6363636363636364
 40
0.6363636363636364
 40
0.6363636363636364
 40
0.7272727272727273
 40
0.7272727272727273
 40
0.7272727272727273
 40
0.7272727272727273
 40
0.8181818181818182
 40
0.8181818181818182
 40
0.8181818181818182
 40
0.8181818181818182
 40
1.0
 40
1.0
 40
1.0
 40
1.0
 10
-27.3037
 20
15.9362
 30
0.0
 10
-27.2666
 20
15.8459
 30
0.0
 10
-27.2355
 20
15.7109
 30
0.0
 10
-27.2096
 20
15.5312
 30
0.0
 10
-27.2096
 20
15.5312
 30
0.0
 10
-27.1951
 20
15.4292
 30
0.0
 10
-27.1786
 20
15.3567
 30
0.0
 10
-27.1603
 20
15.3149
 30
0.0
 10
-27.1603
 20
15.3149
 30
0.0
 10
-27.1419
 20
15.2725
 30
0.0
 10
-27.1151
 20
15.2396
 30
0.0
 10
-27.0793
 20
15.217
 30
0.0
 10
-27.0793
 20
15.217
 30
0.0
 10
-27.0441
 20
15.194
 30
0.0
 10
-27.005
 20
15.1822
 30
0.0
 10
-26.9618
 20
15.1822
 30
0.0
 10
-26.9618
 20
15.1822
 30
0.0
 10
-26.8954
 20
15.1822
 30
0.0
 10
-26.8404
 20
15.2076
 30
0.0
 10
-26.7962
 20
15.2575
 30
0.0
 10
-26.7962
 20
15.2575
 30
0.0
 10
-26.7524
 20
15.3073
 30
0.0
 10
-26.7303
 20
15.3807
 30
0.0
 10
-26.7303
 20
15.4771
 30
0.0
 10
-26.7303
 20
15.4771
 30
0.0
 10
-26.7303
 20
15.5726
 30
0.0
 10
-26.751
 20
15.6578
 30
0.0
 10
-26.7929
 20
15.7321
 30
0.0
 10
-26.7929
 20
15.7321
 30
0.0
 10
-26.8348
 20
15.8064
 30
0.0
 10
-26.8921
 20
15.8614
 30
0.0
 10
-26.9646
 20
15.8962
 30
0.0
 10
-26.9646
 20
15.8962
 30
0.0
 10
-27.0206
 20
15.923
 30
0.0
 10
-27.1033
 20
15.9362
 30
0.0
 10
-27.2125
 20
15.9362
 30
0.0
 10
-27.2125
 20
15.9362
 30
0.0
 10
-27.2125
 20
15.9362
 30
0.0
 10
-27.3037
 20
15.9362
 30
0.0
 10
-27.3037
 20
15.9362
 30
0.0
  0
SPLINE
  5
7C
330
1F
100
AcDbEntity
  8
DEFAULT_1
 62
   250
100
AcDbSpline
210
0.0
220
0.0
230
1.0
 70
    11
 71
     3
 72
    64
 73
    60
 74
     0
 42
0.0000000001
 43
0.0000000001
 40
0.0
 40
0.0
 40
0.0
 40
0.0
 40
0.0625
 40
0.0625
 40
0.0625
 40
0.0625
 40
0.125
 40
0.125
 40
0.125
 40
0.125
 40
0.1875
 40
0.1875
 40
0.1875
 40
0.1875
 40
0.25
 40
0.25
 40
0.25
 40
0.25
 40
0.3125
 40
0.3125
 40
0.3125
 40
0.3125
 40
0.375
 40
0.375
 40
0.375
 40
0.375
 40
0.4375
 40
0.4375
 40
0.4375
 40
0.4375
 40
0.5
 40
0.5
 40
0.5
 40
0.5
 40
0.5625
 40
0.5625
 40
0.5625
 40
0.5625
 40
0.625
 40
0.625
 40
0.625
 40
0.625
 40
0.6875
 40
0.6875
 40
0.6875
 40
0.6875
 40
0.75
 40
0.75
 40
0.75
 40
0.75
 40
0.8125
 40
0.8125
 40
0.8125
 40
0.8125
 40
0.875
 40
0.875
 40
0.875
 40
0.875
 40
1.0
 40
1.0
 40
1.0
 40
1.0
 10
-26.569
 20
16.4061
 30
0.0
 10
-26.569
 20
16.4061
 30
0.0
 10
-27.3296
 20
16.9409
 30
0.0
 10
-27.3296
 20
16.9409
 30
0.0
 10
-27.3296
 20
16.9409
 30
0.0
 10
-27.3296
 20
16.9409
 30
0.0
 10
-28.0323
 20
16.4461
 30
0.0
 10
-28.0323
 20
16.4461
 30
0.0
 10
-28.0323
 20
16.4461
 30
0.0
 10
-28.0323
 20
16.4461
 30
0.0
 10
-28.0323
 20
16.756
 30
0.0
 10
-28.0323
 20
16.756
 30
0.0
 10
-28.0323
 20
16.756
 30
0.0
 10
-28.0323
 20
16.756
 30
0.0
 10
-27.6894
 20
16.9809
 30
0.0
 10
-27.6894
 20
16.9809
 30
0.0
 10
-27.6894
 20
16.9809
 30
0.0
 10
-27.624
 20
17.0227
 30
0.0
 10
-27.5695
 20
17.0571
 30
0.0
 10
-27.5253
 20
17.0825
 30
0.0
 10
-27.5253
 20
17.0825
 30
0.0
 10
-27.5859
 20
17.1229
 30
0.0
 10
-27.6396
 20
17.1601
 30
0.0
 10
-27.6866
 20
17.1944
 30
0.0
 10
-27.6866
 20
17.1944
 30
0.0
 10
-27.6866
 20
17.1944
 30
0.0
 10
-28.0323
 20
17.4409
 30
0.0
 10
-28.0323
 20
17.4409
 30
0.0
 10
-28.0323
 20
17.4409
 30
0.0
 10
-28.0323
 20
17.4409
 30
0.0
 10
-28.0323
 20
17.7372
 30
0.0
 10
-28.0323
 20
17.7372
 30
0.0
 10
-28.0323
 20
17.7372
 30
0.0
 10
-28.0323
 20
17.7372
 30
0.0
 10
-27.3432
 20
17.2316
 30
0.0
 10
-27.3432
 20
17.2316
 30
0.0
 10
-27.3432
 20
17.2316
 30
0.0
 10
-27.3432
 20
17.2316
 30
0.0
 10
-26.569
 20
17.7758
 30
0.0
 10
-26.569
 20
17.7758
 30
0.0
 10
-26.569
 20
17.7758
 30
0.0
 10
-26.569
 20
17.7758
 30
0.0
 10
-26.569
 20
17.4715
 30
0.0
 10
-26.569
 20
17.4715
 30
0.0
 10
-26.569
 20
17.4715
 30
0.0
 10
-26.569
 20
17.4715
 30
0.0
 10
-27.0238
 20
17.1709
 30
0.0
 10
-27.0238
 20
17.1709
 30
0.0
 10
-27.0238
 20
17.1709
 30
0.0
 10
-27.0238
 20
17.1709
 30
0.0
 10
-27.1466
 20
17.091
 30
0.0
 10
-27.1466
 20
17.091
 30
0.0
 10
-27.1466
 20
17.091
 30
0.0
 10
-27.1466
 20
17.091
 30
0.0
 10
-26.569
 20
16.7067
 30
0.0
 10
-26.569
 20
16.7067
 30
0.0
 10
-26.569
 20
16.7067
 30
0.0
 10
-26.569
 20
16.7067
 30
0.0
 10
-26.569
 20
16.4061
 30
0.0
 10
-26.569
 20
16.4061
 30
0.0
  0
SPLINE
  5
7D
330
1F
100
AcDbEntity
  8
DEFAULT_1
 62
   250
100
AcDbSpline
210
0.0
220
0.0
230
1.0
 70
    11
 71
     3
 72
    48
 73
    44
 74
     0
 42
0.0000000001
 43
0.0000000001
 40
0.0
 40
0.0
 40
0.0
 40
0.0
 40
0.0833333333333333
 40
0.0833333333333333
 40
0.0833333333333333
 40
0.0833333333333333
 40
0.1666666666666667
 40
0.1666666666666667
 40
0.1666666666666667
 40
0.1666666666666667
 40
0.25
 40
0.25
 40
0.25
 40
0.25
 40
0.3333333333333333
 40
0.3333333333333333
 40
0.3333333333333333
 40
0.3333333333333333
 40
0.4166666666666667
 40
0.4166666666666667
 40
0.4166666666666667
 40
0.4166666666666667
 40
0.5
 40
0.5
 40
0.5
 40
0.5
 40
0.5833333333333334
 40
0.5833333333333334
 40
0.5833333333333334
 40
0.5833333333333334
 40
0.6666666666666666
 40
0.6666666666666666
 40
0.6666666666666666
 40
0.6666666666666666
 40
0.75
 40
0.75
 40
0.75
 40
0.75
 40
0.8333333333333334
 40
0.8333333333333334
 40
0.8333333333333334
 40
0.8333333333333334
 40
1.0
 40
1.0
 40
1.0
 40
1.0
 10
-26.569
 20
19.4926
 30
0.0
 10
-26.569
 20
19.4926
 30
0.0
 10
-27.0525
 20
19.4926
 30
0.0
 10
-27.0525
 20
19.4926
 30
0.0
 10
-27.0525
 20
19.4926
 30
0.0
 10
-27.0525
 20
19.4926
 30
0.0
 10
-27.0525
 20
18.6163
 30
0.0
 10
-27.0525
 20
18.6163
 30
0.0
 10
-27.0525
 20
18.6163
 30
0.0
 10
-27.0525
 20
18.6163
 30
0.0
 10
-27.2802
 20
18.6163
 30
0.0
 10
-27.2802
 20
18.6163
 30
0.0
 10
-27.2802
 20
18.6163
 30
0.0
 10
-27.2802
 20
18.6163
 30
0.0
 10
-28.5892
 20
19.5383
 30
0.0
 10
-28.5892
 20
19.5383
 30
0.0
 10
-28.5892
 20
19.5383
 30
0.0
 10
-28.5892
 20
19.5383
 30
0.0
 10
-28.5892
 20
19.741
 30
0.0
 10
-28.5892
 20
19.741
 30
0.0
 10
-28.5892
 20
19.741
 30
0.0
 10
-28.5892
 20
19.741
 30
0.0
 10
-27.2802
 20
19.741
 30
0.0
 10
-27.2802
 20
19.741
 30
0.0
 10
-27.2802
 20
19.741
 30
0.0
 10
-27.2802
 20
19.741
 30
0.0
 10
-27.2802
 20
20.0138
 30
0.0
 10
-27.2802
 20
20.0138
 30
0.0
 10
-27.2802
 20
20.0138
 30
0.0
 10
-27.2802
 20
20.0138
 30
0.0
 10
-27.0525
 20
20.0138
 30
0.0
 10
-27.0525
 20
20.0138
 30
0.0
 10
-27.0525
 20
20.0138
 30
0.0
 10
-27.0525
 20
20.0138
 30
0.0
 10
-27.0525
 20
19.741
 30
0.0
 10
-27.0525
 20
19.741
 30
0.0
 10
-27.0525
 20
19.741
 30
0.0
 10
-27.0525
 20
19.741
 30
0.0
 10
-26.569
 20
19.741
 30
0.0
 10
-26.569
 20
19.741
 30
0.0
 10
-26.569
 20
19.741
 30
0.0
 10
-26.569
 20
19.741
 30
0.0
 10
-26.569
 20
19.4926
 30
0.0
 10
-26.569
 20
19.4926
 30
0.0
  0
SPLINE
  5
7E
330
1F
100
AcDbEntity
  8
DEFAULT_1
 62
   250
100
AcDbSpline
210
0.0
220
0.0
230
1.0
 70
    11
 71
     3
 72
    16
 73
    12
 74
     0
 42
0.0000000001
 43
0.0000000001
 40
0.0
 40
0.0
 40
0.0
 40
0.0
 40
0.25
 40
0.25
 40
0.25
 40
0.25
 40
0.5
 40
0.5
 40
0.5
 40
0.5
 40
1.0
 40
1.0
 40
1.0
 40
1.0
 10
-27.2802
 20
19.4926
 30
0.0
 10
-27.2802
 20
19.4926
 30
0.0
 10
-28.1908
 20
19.4926
 30
0.0
 10
-28.1908
 20
19.4926
 30
0.0
 10
-28.1908
 20
19.4926
 30
0.0
 10
-28.1908
 20
19.4926
 30
0.0
 10
-27.2802
 20
18.8605
 30
0.0
 10
-27.2802
 20
18.8605
 30
0.0
 10
-27.2802
 20
18.8605
 30
0.0
 10
-27.2802
 20
18.8605
 30
0.0
 10
-27.2802
 20
19.4926
 30
0.0
 10
-27.2802
 20
19.4926
 30
0.0
  0
SPLINE
  5
7F
330
1F
100
AcDbEntity
  8
DEFAULT_1
 62
   250
100
AcDbSpline
210
0.0
220
0.0
230
1.0
 70
    11
 71
     3
 72
    92
 73
    88
 74
     0
 42
0.0000000001
 43
0.0000000001
 40
0.0
 40
0.0
 40
0.0
 40
0.0
 40
0.0434782608695652
 40
0.0434782608695652
 40
0.0434782608695652
 40
0.0434782608695652
 40
0.0869565217391304
 40
0.0869565217391304
 40
0.0869565217391304
 40
0.0869565217391304
 40
0.1304347826086956
 40
0.1304347826086956
 40
0.1304347826086956
 40
0.1304347826086956
 40
0.1739130434782609
 40
0.1739130434782609
 40
0.1739130434782609
 40
0.1739130434782609
 40
0.2173913043478261
 40
0.2173913043478261
 40
0.2173913043478261
 40
0.2173913043478261
 40
0.2608695652173913
 40
0.2608695652173913
 40
0.2608695652173913
 40
0.2608695652173913
 40
0.3043478260869565
 40
0.3043478260869565
 40
0.3043478260869565
 40
0.3043478260869565
 40
0.3478260869565217
 40
0.3478260869565217
 40
0.3478260869565217
 40
0.3478260869565217
 40
0.391304347826087
 40
0.391304347826087
 40
0.391304347826087
 40
0.391304347826087
 40
0.4347826086956522
 40
0.4347826086956522
 40
0.4347826086956522
 40
0.4347826086956522
 40
0.4782608695652174
 40
0.4782608695652174
 40
0.4782608695652174
 40
0.4782608695652174
 40
0.5217391304347826
 40
0.5217391304347826
 40
0.5217391304347826
 40
0.5217391304347826
 40
0.5652173913043478
 40
0.5652173913043478
 40
0.5652173913043478
 40
0.5652173913043478
 40
0.6086956521739131
 40
0.6086956521739131
 40
0.6086956521739131
 40
0.6086956521739131
 40
0.6521739130434783
 40
0.6521739130434783
 40
0.6521739130434783
 40
0.6521739130434783
 40
0.6956521739130435
 40
0.6956521739130435
 40
0.6956521739130435
 40
0.6956521739130435
 40
0.7391304347826086
 40
0.7391304347826086
 40
0.7391304347826086
 40
0.7391304347826086
 40
0.782608695652174
 40
0.782608695652174
 40
0.782608695652174
 40
0.782608695652174
 40
0.8260869565217391
 40
0.8260869565217391
 40
0.8260869565217391
 40
0.8260869565217391
 40
0.8695652173913043
 40
0.8695652173913043
 40
0.8695652173913043
 40
0.8695652173913043
 40
0.9130434782608695
 40
0.9130434782608695
 40
0.9130434782608695
 40
0.9130434782608695
 40
1.0
 40
1.0
 40
1.0
 40
1.0
 10
-27.0982
 20
20.2673
 30
0.0
 10
-27.0982
 20
20.2673
 30
0.0
 10
-27.1203
 20
20.5279
 30
0.0
 10
-27.1203
 20
20.5279
 30
0.0
 10
-27.1203
 20
20.5279
 30
0.0
 10
-26.9933
 20
20.5472
 30
0.0
 10
-26.8983
 20
20.5919
 30
0.0
 10
-26.8343
 20
20.662
 30
0.0
 10
-26.8343
 20
20.662
 30
0.0
 10
-26.7703
 20
20.7325
 30
0.0
 10
-26.7383
 20
20.8172
 30
0.0
 10
-26.7383
 20
20.9164
 30
0.0
 10
-26.7383
 20
20.9164
 30
0.0
 10
-26.7383
 20
21.0359
 30
0.0
 10
-26.7835
 20
21.137
 30
0.0
 10
-26.8733
 20
21.2193
 30
0.0
 10
-26.8733
 20
21.2193
 30
0.0
 10
-26.9636
 20
21.3021
 30
0.0
 10
-27.0831
 20
21.3435
 30
0.0
 10
-27.2317
 20
21.3435
 30
0.0
 10
-27.2317
 20
21.3435
 30
0.0
 10
-27.3733
 20
21.3435
 30
0.0
 10
-27.4848
 20
21.304
 30
0.0
 10
-27.5666
 20
21.2245
 30
0.0
 10
-27.5666
 20
21.2245
 30
0.0
 10
-27.6485
 20
21.145
 30
0.0
 10
-27.6894
 20
21.0411
 30
0.0
 10
-27.6894
 20
20.9122
 30
0.0
 10
-27.6894
 20
20.9122
 30
0.0
 10
-27.6894
 20
20.8322
 30
0.0
 10
-27.6711
 20
20.7603
 30
0.0
 10
-27.6349
 20
20.6958
 30
0.0
 10
-27.6349
 20
20.6958
 30
0.0
 10
-27.5986
 20
20.6314
 30
0.0
 10
-27.5516
 20
20.5811
 30
0.0
 10
-27.4937
 20
20.5444
 30
0.0
 10
-27.4937
 20
20.5444
 30
0.0
 10
-27.4937
 20
20.5444
 30
0.0
 10
-27.5238
 20
20.3115
 30
0.0
 10
-27.5238
 20
20.3115
 30
0.0
 10
-27.5238
 20
20.3115
 30
0.0
 10
-27.5238
 20
20.3115
 30
0.0
 10
-28.5615
 20
20.5072
 30
0.0
 10
-28.5615
 20
20.5072
 30
0.0
 10
-28.5615
 20
20.5072
 30
0.0
 10
-28.5615
 20
20.5072
 30
0.0
 10
-28.5615
 20
21.5119
 30
0.0
 10
-28.5615
 20
21.5119
 30
0.0
 10
-28.5615
 20
21.5119
 30
0.0
 10
-28.5615
 20
21.5119
 30
0.0
 10
-28.3244
 20
21.5119
 30
0.0
 10
-28.3244
 20
21.5119
 30
0.0
 10
-28.3244
 20
21.5119
 30
0.0
 10
-28.3244
 20
21.5119
 30
0.0
 10
-28.3244
 20
20.7057
 30
0.0
 10
-28.3244
 20
20.7057
 30
0.0
 10
-28.3244
 20
20.7057
 30
0.0
 10
-28.3244
 20
20.7057
 30
0.0
 10
-27.7816
 20
20.5966
 30
0.0
 10
-27.7816
 20
20.5966
 30
0.0
 10
-27.7816
 20
20.5966
 30
0.0
 10
-27.8663
 20
20.7179
 30
0.0
 10
-27.9086
 20
20.8454
 30
0.0
 10
-27.9086
 20
20.9785
 30
0.0
 10
-27.9086
 20
20.9785
 30
0.0
 10
-27.9086
 20
21.1549
 30
0.0
 10
-27.8475
 20
21.3035
 30
0.0
 10
-27.7252
 20
21.4249
 30
0.0
 10
-27.7252
 20
21.4249
 30
0.0
 10
-27.6029
 20
21.5462
 30
0.0
 10
-27.4458
 20
21.6069
 30
0.0
 10
-27.2539
 20
21.6069
 30
0.0
 10
-27.2539
 20
21.6069
 30
0.0
 10
-27.0709
 20
21.6069
 30
0.0
 10
-26.9128
 20
21.5533
 30
0.0
 10
-26.7797
 20
21.447
 30
0.0
 10
-26.7797
 20
21.447
 30
0.0
 10
-26.6165
 20
21.3172
 30
0.0
 10
-26.5347
 20
21.1403
 30
0.0
 10
-26.5347
 20
20.9164
 30
0.0
 10
-26.5347
 20
20.9164
 30
0.0
 10
-26.5347
 20
20.7325
 30
0.0
 10
-26.5859
 20
20.5825
 30
0.0
 10
-26.6889
 20
20.4663
 30
0.0
 10
-26.6889
 20
20.4663
 30
0.0
 10
-26.792
 20
20.3501
 30
0.0
 10
-26.9284
 20
20.2838
 30
0.0
 10
-27.0982
 20
20.2673
 30
0.0
  0
SPLINE
  5
80
330
1F
100
AcDbEntity
  8
DEFAULT_1
 62
   250
100
AcDbSpline
210
0.0
220
0.0
230
1.0
 70
    11
 71
     3
 72
    20
 73
    16
 74
     0
 42
0.0000000001
 43
0.0000000001
 40
0.0
 40
0.0
 40
0.0
 40
0.0
 40
0.2
 40
0.2
 40
0.2
 40
0.2
 40
0.4
 40
0.4
 40
0.4
 40
0.4
 40
0.6
 40
0.6
 40
0.6
 40
0.6
 40
1.0
 40
1.0
 40
1.0
 40
1.0
 10
7.8312
 20
-12.5606
 30
0.0
 10
7.8312
 20
-12.5606
 30
0.0
 10
7.4783
 20
-15.0606
 30
0.0
 10
7.4783
 20
-15.0606
 30
0.0
 10
7.4783
 20
-15.0606
 30
0.0
 10
7.4783
 20
-15.0606
 30
0.0
 10
7.4
 20
-15.0606
 30
0.0
 10
7.4
 20
-15.0606
 30
0.0
 10
7.4
 20
-15.0606
 30
0.0
 10
7.4
 20
-15.0606
 30
0.0
 10
7.0237
 20
-12.5606
 30
0.0
 10
7.0237
 20
-12.5606
 30
0.0
 10
7.0237
 20
-12.5606
 30
0.0
 10
7.0237
 20
-12.5606
 30
0.0
 10
7.8312
 20
-12.5606
 30
0.0
 10
7.8312
 20
-12.5606
 30
0.0
  0
SPLINE
  5
81
330
1F
100
AcDbEntity
  8
DEFAULT_1
 62
   250
100
AcDbSpline
210
0.0
220
0.0
230
1.0
 70
    11
 71
     3
 72
   164
 73
   160
 74
     0
 42
0.0000000001
 43
0.0000000001
 40
0.0
 40
0.0
 40
0.0
 40
0.0
 40
0.024390243902439
 40
0.024390243902439
 40
0.024390243902439
 40
0.024390243902439
 40
0.0487804878048781
 40
0.0487804878048781
 40
0.0487804878048781
 40
0.0487804878048781
 40
0.0731707317073171
 40
0.0731707317073171
 40
0.0731707317073171
 40
0.0731707317073171
 40
0.0975609756097561
 40
0.0975609756097561
 40
0.0975609756097561
 40
0.0975609756097561
 40
0.1219512195121951
 40
0.1219512195121951
 40
0.1219512195121951
 40
0.1219512195121951
 40
0.1463414634146341
 40
0.1463414634146341
 40
0.1463414634146341
 40
0.1463414634146341
 40
0.1707317073170732
 40
0.1707317073170732
 40
0.1707317073170732
 40
0.1707317073170732
 40
0.1951219512195122
 40
0.1951219512195122
 40
0.1951219512195122
 40
0.1951219512195122
 40
0.2195121951219512
 40
0.2195121951219512
 40
0.2195121951219512
 40
0.2195121951219512
 40
0.2439024390243902
 40
0.2439024390243902
 40
0.2439024390243902
 40
0.2439024390243902
 40
0.2682926829268293
 40
0.2682926829268293
 40
0.2682926829268293
 40
0.2682926829268293
 40
0.2926829268292683
 40
0.2926829268292683
 40
0.2926829268292683
 40
0.2926829268292683
 40
0.3170731707317073
 40
0.3170731707317073
 40
0.3170731707317073
 40
0.3170731707317073
 40
0.3414634146341464
 40
0.3414634146341464
 40
0.3414634146341464
 40
0.3414634146341464
 40
0.3658536585365854
 40
0.3658536585365854
 40
0.3658536585365854
 40
0.3658536585365854
 40
0.3902439024390244
 40
0.3902439024390244
 40
0.3902439024390244
 40
0.3902439024390244
 40
0.4146341463414634
 40
0.4146341463414634
 40
0.4146341463414634
 40
0.4146341463414634
 40
0.4390243902439024
 40
0.4390243902439024
 40
0.4390243902439024
 40
0.4390243902439024
 40
0.4634146341463415
 40
0.4634146341463415
 40
0.4634146341463415
 40
0.4634146341463415
 40
0.4878048780487805
 40
0.4878048780487805
 40
0.4878048780487805
 40
0.4878048780487805
 40
0.5121951219512195
 40
0.5121951219512195
 40
0.5121951219512195
 40
0.5121951219512195
 40
0.5365853658536586
 40
0.5365853658536586
 40
0.5365853658536586
 40
0.5365853658536586
 40
0.5609756097560976
 40
0.5609756097560976
 40
0.5609756097560976
 40
0.5609756097560976
 40
0.5853658536585366
 40
0.5853658536585366
 40
0.5853658536585366
 40
0.5853658536585366
 40
0.6097560975609756
 40
0.6097560975609756
 40
0.6097560975609756
 40
0.6097560975609756
 40
0.6341463414634146
 40
0.6341463414634146
 40
0.6341463414634146
 40
0.6341463414634146
 40
0.6585365853658537
 40
0.6585365853658537
 40
0.6585365853658537
 40
0.6585365853658537
 40
0.6829268292682927
 40
0.6829268292682927
 40
0.6829268292682927
 40
0.6829268292682927
 40
0.7073170731707317
 40
0.7073170731707317
 40
0.7073170731707317
 40
0.7073170731707317
 40
0.7317073170731707
 40
0.7317073170731707
 40
0.7317073170731707
 40
0.7317073170731707
 40
0.7560975609756098
 40
0.7560975609756098
 40
0.7560975609756098
 40
0.7560975609756098
 40
0.7804878048780488
 40
0.7804878048780488
 40
0.7804878048780488
 40
0.7804878048780488
 40
0.8048780487804879
 40
0.8048780487804879
 40
0.8048780487804879
 40
0.8048780487804879
 40
0.8292682926829268
 40
0.8292682926829268
 40
0.8292682926829268
 40
0.8292682926829268
 40
0.8536585365853658
 40
0.8536585365853658
 40
0.8536585365853658
 40
0.8536585365853658
 40
0.8780487804878049
 40
0.8780487804878049
 40
0.8780487804878049
 40
0.8780487804878049
 40
0.9024390243902439
 40
0.9024390243902439
 40
0.9024390243902439
 40
0.9024390243902439
 40
0.926829268292683
 40
0.926829268292683
 40
0.926829268292683
 40
0.926829268292683
 40
0.9512195121951219
 40
0.9512195121951219
 40
0.9512195121951219
 40
0.9512195121951219
 40
1.0
 40
1.0
 40
1.0
 40
1.0
 10
-6.9509
 20
-18.3357
 30
0.0
 10
-6.9509
 20
-18.3357
 30
0.0
 10
-6.9509
 20
-15.5703
 30
0.0
 10
-6.9509
 20
-15.5703
 30
0.0
 10
-6.9509
 20
-15.5703
 30
0.0
 10
-6.9509
 20
-15.5703
 30
0.0
 10
-5.726
 20
-15.5842
 30
0.0
 10
-5.726
 20
-15.5842
 30
0.0
 10
-5.726
 20
-15.5842
 30
0.0
 10
-5.726
 20
-15.5842
 30
0.0
 10
-5.5439
 20
-15.5062
 30
0.0
 10
-5.5439
 20
-15.5062
 30
0.0
 10
-5.5439
 20
-15.5062
 30
0.0
 10
-5.5439
 20
-15.5062
 30
0.0
 10
-5.4097
 20
-15.36
 30
0.0
 10
-5.4097
 20
-15.36
 30
0.0
 10
-5.4097
 20
-15.36
 30
0.0
 10
-5.4097
 20
-15.36
 30
0.0
 10
-5.4289
 20
-15.2528
 30
0.0
 10
-5.4289
 20
-15.2528
 30
0.0
 10
-5.4289
 20
-15.2528
 30
0.0
 10
-5.4289
 20
-15.2528
 30
0.0
 10
-5.5055
 20
-15.165
 30
0.0
 10
-5.5055
 20
-15.165
 30
0.0
 10
-5.5055
 20
-15.165
 30
0.0
 10
-5.5055
 20
-15.165
 30
0.0
 10
-5.6302
 20
-15.1162
 30
0.0
 10
-5.6302
 20
-15.1162
 30
0.0
 10
-5.6302
 20
-15.1162
 30
0.0
 10
-5.6302
 20
-15.1162
 30
0.0
 10
-5.8028
 20
-15.0675
 30
0.0
 10
-5.8028
 20
-15.0675
 30
0.0
 10
-5.8028
 20
-15.0675
 30
0.0
 10
-5.8028
 20
-15.0675
 30
0.0
 10
-6.9436
 20
-15.0675
 30
0.0
 10
-6.9436
 20
-15.0675
 30
0.0
 10
-6.9436
 20
-15.0675
 30
0.0
 10
-6.9436
 20
-15.0675
 30
0.0
 10
-6.9532
 20
-13.9856
 30
0.0
 10
-6.9532
 20
-13.9856
 30
0.0
 10
-6.9532
 20
-13.9856
 30
0.0
 10
-6.9532
 20
-13.9856
 30
0.0
 10
-4.8632
 20
-14.005
 30
0.0
 10
-4.8632
 20
-14.005
 30
0.0
 10
-4.8632
 20
-14.005
 30
0.0
 10
-4.8632
 20
-14.005
 30
0.0
 10
-4.7386
 20
-14.0538
 30
0.0
 10
-4.7386
 20
-14.0538
 30
0.0
 10
-4.7386
 20
-14.0538
 30
0.0
 10
-4.7386
 20
-14.0538
 30
0.0
 10
-4.6427
 20
-14.161
 30
0.0
 10
-4.6427
 20
-14.161
 30
0.0
 10
-4.6427
 20
-14.161
 30
0.0
 10
-4.6427
 20
-14.161
 30
0.0
 10
-4.5948
 20
-14.2487
 30
0.0
 10
-4.5948
 20
-14.2487
 30
0.0
 10
-4.5948
 20
-14.2487
 30
0.0
 10
-4.5948
 20
-14.2487
 30
0.0
 10
-4.5563
 20
-14.3754
 30
0.0
 10
-4.5563
 20
-14.3754
 30
0.0
 10
-4.5563
 20
-14.3754
 30
0.0
 10
-4.5563
 20
-14.3754
 30
0.0
 10
-4.5494
 20
-23.019
 30
0.0
 10
-4.5494
 20
-23.019
 30
0.0
 10
-4.5494
 20
-23.019
 30
0.0
 10
-4.5494
 20
-23.019
 30
0.0
 10
-4.616
 20
-23.1968
 30
0.0
 10
-4.616
 20
-23.1968
 30
0.0
 10
-4.616
 20
-23.1968
 30
0.0
 10
-4.616
 20
-23.1968
 30
0.0
 10
-4.7173
 20
-23.3171
 30
0.0
 10
-4.7173
 20
-23.3171
 30
0.0
 10
-4.7173
 20
-23.3171
 30
0.0
 10
-4.7173
 20
-23.3171
 30
0.0
 10
-4.8947
 20
-23.3514
 30
0.0
 10
-4.8947
 20
-23.3514
 30
0.0
 10
-4.8947
 20
-23.3514
 30
0.0
 10
-4.8947
 20
-23.3514
 30
0.0
 10
-6.9731
 20
-23.3514
 30
0.0
 10
-6.9731
 20
-23.3514
 30
0.0
 10
-6.9731
 20
-23.3514
 30
0.0
 10
-6.9731
 20
-23.3514
 30
0.0
 10
-6.9646
 20
-22.2519
 30
0.0
 10
-6.9646
 20
-22.2519
 30
0.0
 10
-6.9646
 20
-22.2519
 30
0.0
 10
-6.9646
 20
-22.2519
 30
0.0
 10
-5.7565
 20
-22.2777
 30
0.0
 10
-5.7565
 20
-22.2777
 30
0.0
 10
-5.7565
 20
-22.2777
 30
0.0
 10
-5.7565
 20
-22.2777
 30
0.0
 10
-5.5283
 20
-22.2176
 30
0.0
 10
-5.5283
 20
-22.2176
 30
0.0
 10
-5.5283
 20
-22.2176
 30
0.0
 10
-5.5283
 20
-22.2176
 30
0.0
 10
-5.427
 20
-22.1488
 30
0.0
 10
-5.427
 20
-22.1488
 30
0.0
 10
-5.427
 20
-22.1488
 30
0.0
 10
-5.427
 20
-22.1488
 30
0.0
 10
-5.427
 20
-22.0715
 30
0.0
 10
-5.427
 20
-22.0715
 30
0.0
 10
-5.427
 20
-22.0715
 30
0.0
 10
-5.427
 20
-22.0715
 30
0.0
 10
-5.427
 20
-21.9857
 30
0.0
 10
-5.427
 20
-21.9857
 30
0.0
 10
-5.427
 20
-21.9857
 30
0.0
 10
-5.427
 20
-21.9857
 30
0.0
 10
-5.5199
 20
-21.8654
 30
0.0
 10
-5.5199
 20
-21.8654
 30
0.0
 10
-5.5199
 20
-21.8654
 30
0.0
 10
-5.5199
 20
-21.8654
 30
0.0
 10
-5.6636
 20
-21.7881
 30
0.0
 10
-5.6636
 20
-21.7881
 30
0.0
 10
-5.6636
 20
-21.7881
 30
0.0
 10
-5.6636
 20
-21.7881
 30
0.0
 10
-5.7481
 20
-21.7881
 30
0.0
 10
-5.7481
 20
-21.7881
 30
0.0
 10
-5.7481
 20
-21.7881
 30
0.0
 10
-5.7481
 20
-21.7881
 30
0.0
 10
-6.9477
 20
-21.7881
 30
0.0
 10
-6.9477
 20
-21.7881
 30
0.0
 10
-6.9477
 20
-21.7881
 30
0.0
 10
-6.9477
 20
-21.7881
 30
0.0
 10
-6.9477
 20
-18.9965
 30
0.0
 10
-6.9477
 20
-18.9965
 30
0.0
 10
-6.9477
 20
-18.9965
 30
0.0
 10
-6.9477
 20
-18.9965
 30
0.0
 10
-5.7733
 20
-18.9965
 30
0.0
 10
-5.7733
 20
-18.9965
 30
0.0
 10
-5.7733
 20
-18.9965
 30
0.0
 10
-5.7733
 20
-18.9965
 30
0.0
 10
-5.6128
 20
-18.9621
 30
0.0
 10
-5.6128
 20
-18.9621
 30
0.0
 10
-5.6128
 20
-18.9621
 30
0.0
 10
-5.6128
 20
-18.9621
 30
0.0
 10
-5.4946
 20
-18.8762
 30
0.0
 10
-5.4946
 20
-18.8762
 30
0.0
 10
-5.4946
 20
-18.8762
 30
0.0
 10
-5.4946
 20
-18.8762
 30
0.0
 10
-5.4438
 20
-18.7131
 30
0.0
 10
-5.4438
 20
-18.7131
 30
0.0
 10
-5.4438
 20
-18.7131
 30
0.0
 10
-5.4438
 20
-18.7131
 30
0.0
 10
-5.4692
 20
-18.5498
 30
0.0
 10
-5.4692
 20
-18.5498
 30
0.0
 10
-5.4692
 20
-18.5498
 30
0.0
 10
-5.4692
 20
-18.5498
 30
0.0
 10
-5.5199
 20
-18.4296
 30
0.0
 10
-5.5199
 20
-18.4296
 30
0.0
 10
-5.5199
 20
-18.4296
 30
0.0
 10
-5.5199
 20
-18.4296
 30
0.0
 10
-5.5959
 20
-18.3608
 30
0.0
 10
-5.5959
 20
-18.3608
 30
0.0
 10
-5.5959
 20
-18.3608
 30
0.0
 10
-5.5959
 20
-18.3608
 30
0.0
 10
-5.672
 20
-18.3265
 30
0.0
 10
-5.672
 20
-18.3265
 30
0.0
 10
-5.672
 20
-18.3265
 30
0.0
 10
-5.672
 20
-18.3265
 30
0.0
 10
-6.9509
 20
-18.3357
 30
0.0
 10
-6.9509
 20
-18.3357
 30
0.0
  0
SPLINE
  5
82
330
1F
100
AcDbEntity
  8
DEFAULT_1
 62
   250
100
AcDbSpline
210
0.0
220
0.0
230
1.0
 70
    11
 71
     3
 72
    28
 73
    24
 74
     0
 42
0.0000000001
 43
0.0000000001
 40
0.0
 40
0.0
 40
0.0
 40
0.0
 40
0.1428571428571428
 40
0.1428571428571428
 40
0.1428571428571428
 40
0.1428571428571428
 40
0.2857142857142857
 40
0.2857142857142857
 40
0.2857142857142857
 40
0.2857142857142857
 40
0.4285714285714285
 40
0.4285714285714285
 40
0.4285714285714285
 40
0.4285714285714285
 40
0.5714285714285714
 40
0.5714285714285714
 40
0.5714285714285714
 40
0.5714285714285714
 40
0.7142857142857143
 40
0.7142857142857143
 40
0.7142857142857143
 40
0.7142857142857143
 40
1.0
 40
1.0
 40
1.0
 40
1.0
 10
-5.4158
 20
-13.9226
 30
0.0
 10
-5.4158
 20
-13.9226
 30
0.0
 10
-7.4627
 20
-13.9226
 30
0.0
 10
-7.4627
 20
-13.9226
 30
0.0
 10
-7.4627
 20
-13.9226
 30
0.0
 10
-7.4627
 20
-13.9226
 30
0.0
 10
-7.4627
 20
-23.4411
 30
0.0
 10
-7.4627
 20
-23.4411
 30
0.0
 10
-7.4627
 20
-23.4411
 30
0.0
 10
-7.4627
 20
-23.4411
 30
0.0
 10
-5.4158
 20
-23.4411
 30
0.0
 10
-5.4158
 20
-23.4411
 30
0.0
 10
-5.4158
 20
-23.4411
 30
0.0
 10
-5.4158
 20
-23.4411
 30
0.0
 10
-7.4627
 20
-23.4411
 30
0.0
 10
-7.4627
 20
-23.4411
 30
0.0
 10
-7.4627
 20
-23.4411
 30
0.0
 10
-7.4627
 20
-23.4411
 30
0.0
 10
-7.4627
 20
-13.9226
 30
0.0
 10
-7.4627
 20
-13.9226
 30
0.0
 10
-7.4627
 20
-13.9226
 30
0.0
 10
-7.4627
 20
-13.9226
 30
0.0
 10
-5.4158
 20
-13.9226
 30
0.0
 10
-5.4158
 20
-13.9226
 30
0.0
  0
SPLINE
  5
83
330
1F
100
AcDbEntity
  8
DEFAULT_1
 62
   250
100
AcDbSpline
210
0.0
220
0.0
230
1.0
 70
    11
 71
     3
 72
   164
 73
   160
 74
     0
 42
0.0000000001
 43
0.0000000001
 40
0.0
 40
0.0
 40
0.0
 40
0.0
 40
0.024390243902439
 40
0.024390243902439
 40
0.024390243902439
 40
0.024390243902439
 40
0.0487804878048781
 40
0.0487804878048781
 40
0.0487804878048781
 40
0.0487804878048781
 40
0.0731707317073171
 40
0.0731707317073171
 40
0.0731707317073171
 40
0.0731707317073171
 40
0.0975609756097561
 40
0.0975609756097561
 40
0.0975609756097561
 40
0.0975609756097561
 40
0.1219512195121951
 40
0.1219512195121951
 40
0.1219512195121951
 40
0.1219512195121951
 40
0.1463414634146341
 40
0.1463414634146341
 40
0.1463414634146341
 40
0.1463414634146341
 40
0.1707317073170732
 40
0.1707317073170732
 40
0.1707317073170732
 40
0.1707317073170732
 40
0.1951219512195122
 40
0.1951219512195122
 40
0.1951219512195122
 40
0.1951219512195122
 40
0.2195121951219512
 40
0.2195121951219512
 40
0.2195121951219512
 40
0.2195121951219512
 40
0.2439024390243902
 40
0.2439024390243902
 40
0.2439024390243902
 40
0.2439024390243902
 40
0.2682926829268293
 40
0.2682926829268293
 40
0.2682926829268293
 40
0.2682926829268293
 40
0.2926829268292683
 40
0.2926829268292683
 40
0.2926829268292683
 40
0.2926829268292683
 40
0.3170731707317073
 40
0.3170731707317073
 40
0.3170731707317073
 40
0.3170731707317073
 40
0.3414634146341464
 40
0.3414634146341464
 40
0.3414634146341464
 40
0.3414634146341464
 40
0.3658536585365854
 40
0.3658536585365854
 40
0.3658536585365854
 40
0.3658536585365854
 40
0.3902439024390244
 40
0.3902439024390244
 40
0.3902439024390244
 40
0.3902439024390244
 40
0.4146341463414634
 40
0.4146341463414634
 40
0.4146341463414634
 40
0.4146341463414634
 40
0.4390243902439024
 40
0.4390243902439024
 40
0.4390243902439024
 40
0.4390243902439024
 40
0.4634146341463415
 40
0.4634146341463415
 40
0.4634146341463415
 40
0.4634146341463415
 40
0.4878048780487805
 40
0.4878048780487805
 40
0.4878048780487805
 40
0.4878048780487805
 40
0.5121951219512195
 40
0.5121951219512195
 40
0.5121951219512195
 40
0.5121951219512195
 40
0.5365853658536586
 40
0.5365853658536586
 40
0.5365853658536586
 40
0.5365853658536586
 40
0.5609756097560976
 40
0.5609756097560976
 40
0.5609756097560976
 40
0.5609756097560976
 40
0.5853658536585366
 40
0.5853658536585366
 40
0.5853658536585366
 40
0.5853658536585366
 40
0.6097560975609756
 40
0.6097560975609756
 40
0.6097560975609756
 40
0.6097560975609756
 40
0.6341463414634146
 40
0.6341463414634146
 40
0.6341463414634146
 40
0.6341463414634146
 40
0.6585365853658537
 40
0.6585365853658537
 40
0.6585365853658537
 40
0.6585365853658537
 40
0.6829268292682927
 40
0.6829268292682927
 40
0.6829268292682927
 40
0.6829268292682927
 40
0.7073170731707317
 40
0.7073170731707317
 40
0.7073170731707317
 40
0.7073170731707317
 40
0.7317073170731707
 40
0.7317073170731707
 40
0.7317073170731707
 40
0.7317073170731707
 40
0.7560975609756098
 40
0.7560975609756098
 40
0.7560975609756098
 40
0.7560975609756098
 40
0.7804878048780488
 40
0.7804878048780488
 40
0.7804878048780488
 40
0.7804878048780488
 40
0.8048780487804879
 40
0.8048780487804879
 40
0.8048780487804879
 40
0.8048780487804879
 40
0.8292682926829268
 40
0.8292682926829268
 40
0.8292682926829268
 40
0.8292682926829268
 40
0.8536585365853658
 40
0.8536585365853658
 40
0.8536585365853658
 40
0.8536585365853658
 40
0.8780487804878049
 40
0.8780487804878049
 40
0.8780487804878049
 40
0.8780487804878049
 40
0.9024390243902439
 40
0.9024390243902439
 40
0.9024390243902439
 40
0.9024390243902439
 40
0.926829268292683
 40
0.926829268292683
 40
0.926829268292683
 40
0.926829268292683
 40
0.9512195121951219
 40
0.9512195121951219
 40
0.9512195121951219
 40
0.9512195121951219
 40
1.0
 40
1.0
 40
1.0
 40
1.0
 10
-15.7743
 20
-11.7685
 30
0.0
 10
-15.7743
 20
-11.7685
 30
0.0
 10
-18.2171
 20
-11.7685
 30
0.0
 10
-18.2171
 20
-11.7685
 30
0.0
 10
-18.2171
 20
-11.7685
 30
0.0
 10
-18.2171
 20
-11.7685
 30
0.0
 10
-18.2049
 20
-10.7582
 30
0.0
 10
-18.2049
 20
-10.7582
 30
0.0
 10
-18.2049
 20
-10.7582
 30
0.0
 10
-18.2049
 20
-10.7582
 30
0.0
 10
-18.2738
 20
-10.608
 30
0.0
 10
-18.2738
 20
-10.608
 30
0.0
 10
-18.2738
 20
-10.608
 30
0.0
 10
-18.2738
 20
-10.608
 30
0.0
 10
-18.4028
 20
-10.4973
 30
0.0
 10
-18.4028
 20
-10.4973
 30
0.0
 10
-18.4028
 20
-10.4973
 30
0.0
 10
-18.4028
 20
-10.4973
 30
0.0
 10
-18.4976
 20
-10.5131
 30
0.0
 10
-18.4976
 20
-10.5131
 30
0.0
 10
-18.4976
 20
-10.5131
 30
0.0
 10
-18.4976
 20
-10.5131
 30
0.0
 10
-18.5751
 20
-10.5763
 30
0.0
 10
-18.5751
 20
-10.5763
 30
0.0
 10
-18.5751
 20
-10.5763
 30
0.0
 10
-18.5751
 20
-10.5763
 30
0.0
 10
-18.6183
 20
-10.6791
 30
0.0
 10
-18.6183
 20
-10.6791
 30
0.0
 10
-18.6183
 20
-10.6791
 30
0.0
 10
-18.6183
 20
-10.6791
 30
0.0
 10
-18.6612
 20
-10.8216
 30
0.0
 10
-18.6612
 20
-10.8216
 30
0.0
 10
-18.6612
 20
-10.8216
 30
0.0
 10
-18.6612
 20
-10.8216
 30
0.0
 10
-18.6612
 20
-11.7625
 30
0.0
 10
-18.6612
 20
-11.7625
 30
0.0
 10
-18.6612
 20
-11.7625
 30
0.0
 10
-18.6612
 20
-11.7625
 30
0.0
 10
-19.6169
 20
-11.7704
 30
0.0
 10
-19.6169
 20
-11.7704
 30
0.0
 10
-19.6169
 20
-11.7704
 30
0.0
 10
-19.6169
 20
-11.7704
 30
0.0
 10
-19.5997
 20
-10.0465
 30
0.0
 10
-19.5997
 20
-10.0465
 30
0.0
 10
-19.5997
 20
-10.0465
 30
0.0
 10
-19.5997
 20
-10.0465
 30
0.0
 10
-19.5567
 20
-9.9437
 30
0.0
 10
-19.5567
 20
-9.9437
 30
0.0
 10
-19.5567
 20
-9.9437
 30
0.0
 10
-19.5567
 20
-9.9437
 30
0.0
 10
-19.462
 20
-9.8646
 30
0.0
 10
-19.462
 20
-9.8646
 30
0.0
 10
-19.462
 20
-9.8646
 30
0.0
 10
-19.462
 20
-9.8646
 30
0.0
 10
-19.3846
 20
-9.825
 30
0.0
 10
-19.3846
 20
-9.825
 30
0.0
 10
-19.3846
 20
-9.825
 30
0.0
 10
-19.3846
 20
-9.825
 30
0.0
 10
-19.2725
 20
-9.7933
 30
0.0
 10
-19.2725
 20
-9.7933
 30
0.0
 10
-19.2725
 20
-9.7933
 30
0.0
 10
-19.2725
 20
-9.7933
 30
0.0
 10
-11.6374
 20
-9.7876
 30
0.0
 10
-11.6374
 20
-9.7876
 30
0.0
 10
-11.6374
 20
-9.7876
 30
0.0
 10
-11.6374
 20
-9.7876
 30
0.0
 10
-11.4804
 20
-9.8426
 30
0.0
 10
-11.4804
 20
-9.8426
 30
0.0
 10
-11.4804
 20
-9.8426
 30
0.0
 10
-11.4804
 20
-9.8426
 30
0.0
 10
-11.3742
 20
-9.9261
 30
0.0
 10
-11.3742
 20
-9.9261
 30
0.0
 10
-11.3742
 20
-9.9261
 30
0.0
 10
-11.3742
 20
-9.9261
 30
0.0
 10
-11.3437
 20
-10.0725
 30
0.0
 10
-11.3437
 20
-10.0725
 30
0.0
 10
-11.3437
 20
-10.0725
 30
0.0
 10
-11.3437
 20
-10.0725
 30
0.0
 10
-11.3437
 20
-11.7867
 30
0.0
 10
-11.3437
 20
-11.7867
 30
0.0
 10
-11.3437
 20
-11.7867
 30
0.0
 10
-11.3437
 20
-11.7867
 30
0.0
 10
-12.315
 20
-11.7798
 30
0.0
 10
-12.315
 20
-11.7798
 30
0.0
 10
-12.315
 20
-11.7798
 30
0.0
 10
-12.315
 20
-11.7798
 30
0.0
 10
-12.2922
 20
-10.7832
 30
0.0
 10
-12.2922
 20
-10.7832
 30
0.0
 10
-12.2922
 20
-10.7832
 30
0.0
 10
-12.2922
 20
-10.7832
 30
0.0
 10
-12.3453
 20
-10.5951
 30
0.0
 10
-12.3453
 20
-10.5951
 30
0.0
 10
-12.3453
 20
-10.5951
 30
0.0
 10
-12.3453
 20
-10.5951
 30
0.0
 10
-12.4061
 20
-10.5116
 30
0.0
 10
-12.4061
 20
-10.5116
 30
0.0
 10
-12.4061
 20
-10.5116
 30
0.0
 10
-12.4061
 20
-10.5116
 30
0.0
 10
-12.4744
 20
-10.5116
 30
0.0
 10
-12.4744
 20
-10.5116
 30
0.0
 10
-12.4744
 20
-10.5116
 30
0.0
 10
-12.4744
 20
-10.5116
 30
0.0
 10
-12.5502
 20
-10.5116
 30
0.0
 10
-12.5502
 20
-10.5116
 30
0.0
 10
-12.5502
 20
-10.5116
 30
0.0
 10
-12.5502
 20
-10.5116
 30
0.0
 10
-12.6564
 20
-10.5882
 30
0.0
 10
-12.6564
 20
-10.5882
 30
0.0
 10
-12.6564
 20
-10.5882
 30
0.0
 10
-12.6564
 20
-10.5882
 30
0.0
 10
-12.7247
 20
-10.7066
 30
0.0
 10
-12.7247
 20
-10.7066
 30
0.0
 10
-12.7247
 20
-10.7066
 30
0.0
 10
-12.7247
 20
-10.7066
 30
0.0
 10
-12.7247
 20
-10.7763
 30
0.0
 10
-12.7247
 20
-10.7763
 30
0.0
 10
-12.7247
 20
-10.7763
 30
0.0
 10
-12.7247
 20
-10.7763
 30
0.0
 10
-12.7247
 20
-11.7658
 30
0.0
 10
-12.7247
 20
-11.7658
 30
0.0
 10
-12.7247
 20
-11.7658
 30
0.0
 10
-12.7247
 20
-11.7658
 30
0.0
 10
-15.1906
 20
-11.7658
 30
0.0
 10
-15.1906
 20
-11.7658
 30
0.0
 10
-15.1906
 20
-11.7658
 30
0.0
 10
-15.1906
 20
-11.7658
 30
0.0
 10
-15.1906
 20
-10.7972
 30
0.0
 10
-15.1906
 20
-10.7972
 30
0.0
 10
-15.1906
 20
-10.7972
 30
0.0
 10
-15.1906
 20
-10.7972
 30
0.0
 10
-15.221
 20
-10.6648
 30
0.0
 10
-15.221
 20
-10.6648
 30
0.0
 10
-15.221
 20
-10.6648
 30
0.0
 10
-15.221
 20
-10.6648
 30
0.0
 10
-15.2968
 20
-10.5673
 30
0.0
 10
-15.2968
 20
-10.5673
 30
0.0
 10
-15.2968
 20
-10.5673
 30
0.0
 10
-15.2968
 20
-10.5673
 30
0.0
 10
-15.441
 20
-10.5254
 30
0.0
 10
-15.441
 20
-10.5254
 30
0.0
 10
-15.441
 20
-10.5254
 30
0.0
 10
-15.441
 20
-10.5254
 30
0.0
 10
-15.5852
 20
-10.5463
 30
0.0
 10
-15.5852
 20
-10.5463
 30
0.0
 10
-15.5852
 20
-10.5463
 30
0.0
 10
-15.5852
 20
-10.5463
 30
0.0
 10
-15.6913
 20
-10.5882
 30
0.0
 10
-15.6913
 20
-10.5882
 30
0.0
 10
-15.6913
 20
-10.5882
 30
0.0
 10
-15.6913
 20
-10.5882
 30
0.0
 10
-15.7522
 20
-10.6509
 30
0.0
 10
-15.7522
 20
-10.6509
 30
0.0
 10
-15.7522
 20
-10.6509
 30
0.0
 10
-15.7522
 20
-10.6509
 30
0.0
 10
-15.7825
 20
-10.7137
 30
0.0
 10
-15.7825
 20
-10.7137
 30
0.0
 10
-15.7825
 20
-10.7137
 30
0.0
 10
-15.7825
 20
-10.7137
 30
0.0
 10
-15.7743
 20
-11.7685
 30
0.0
 10
-15.7743
 20
-11.7685
 30
0.0
  0
SPLINE
  5
84
330
1F
100
AcDbEntity
  8
DEFAULT_1
 62
   250
100
AcDbSpline
210
0.0
220
0.0
230
1.0
 70
    11
 71
     3
 72
    28
 73
    24
 74
     0
 42
0.0000000001
 43
0.0000000001
 40
0.0
 40
0.0
 40
0.0
 40
0.0
 40
0.1428571428571428
 40
0.1428571428571428
 40
0.1428571428571428
 40
0.1428571428571428
 40
0.2857142857142857
 40
0.2857142857142857
 40
0.2857142857142857
 40
0.2857142857142857
 40
0.4285714285714285
 40
0.4285714285714285
 40
0.4285714285714285
 40
0.4285714285714285
 40
0.5714285714285714
 40
0.5714285714285714
 40
0.5714285714285714
 40
0.5714285714285714
 40
0.7142857142857143
 40
0.7142857142857143
 40
0.7142857142857143
 40
0.7142857142857143
 40
1.0
 40
1.0
 40
1.0
 40
1.0
 10
-19.6725
 20
-10.5023
 30
0.0
 10
-19.6725
 20
-10.5023
 30
0.0
 10
-19.6725
 20
-12.1906
 30
0.0
 10
-19.6725
 20
-12.1906
 30
0.0
 10
-19.6725
 20
-12.1906
 30
0.0
 10
-19.6725
 20
-12.1906
 30
0.0
 10
-11.2646
 20
-12.1906
 30
0.0
 10
-11.2646
 20
-12.1906
 30
0.0
 10
-11.2646
 20
-12.1906
 30
0.0
 10
-11.2646
 20
-12.1906
 30
0.0
 10
-11.2646
 20
-10.5023
 30
0.0
 10
-11.2646
 20
-10.5023
 30
0.0
 10
-11.2646
 20
-10.5023
 30
0.0
 10
-11.2646
 20
-10.5023
 30
0.0
 10
-11.2646
 20
-12.1906
 30
0.0
 10
-11.2646
 20
-12.1906
 30
0.0
 10
-11.2646
 20
-12.1906
 30
0.0
 10
-11.2646
 20
-12.1906
 30
0.0
 10
-19.6725
 20
-12.1906
 30
0.0
 10
-19.6725
 20
-12.1906
 30
0.0
 10
-19.6725
 20
-12.1906
 30
0.0
 10
-19.6725
 20
-12.1906
 30
0.0
 10
-19.6725
 20
-10.5023
 30
0.0
 10
-19.6725
 20
-10.5023
 30
0.0
  0
SPLINE
  5
85
330
1F
100
AcDbEntity
  8
DEFAULT_1
 62
   250
100
AcDbSpline
210
0.0
220
0.0
230
1.0
 70
     8
 71
     3
 72
    44
 73
    40
 74
     0
 42
0.0000000001
 43
0.0000000001
 40
0.0
 40
0.0
 40
0.0
 40
0.0
 40
0.0909090909090909
 40
0.0909090909090909
 40
0.0909090909090909
 40
0.0909090909090909
 40
0.1818181818181818
 40
0.1818181818181818
 40
0.1818181818181818
 40
0.1818181818181818
 40
0.2727272727272727
 40
0.2727272727272727
 40
0.2727272727272727
 40
0.2727272727272727
 40
0.3636363636363636
 40
0.3636363636363636
 40
0.3636363636363636
 40
0.3636363636363636
 40
0.4545454545454545
 40
0.4545454545454545
 40
0.4545454545454545
 40
0.4545454545454545
 40
0.5454545454545454
 40
0.5454545454545454
 40
0.5454545454545454
 40
0.5454545454545454
 40
0.6363636363636364
 40
0.6363636363636364
 40
0.6363636363636364
 40
0.6363636363636364
 40
0.7272727272727273
 40
0.7272727272727273
 40
0.7272727272727273
 40
0.7272727272727273
 40
0.8181818181818182
 40
0.8181818181818182
 40
0.8181818181818182
 40
0.8181818181818182
 40
1.0
 40
1.0
 40
1.0
 40
1.0
 10
-18.844
 20
-15.0138
 30
0.0
 10
-18.844
 20
-15.0138
 30
0.0
 10
-18.844
 20
-14.9471
 30
0.0
 10
-18.844
 20
-14.9471
 30
0.0
 10
-18.844
 20
-14.9471
 30
0.0
 10
-18.844
 20
-14.9471
 30
0.0
 10
-18.8143
 20
-14.8207
 30
0.0
 10
-18.8143
 20
-14.8207
 30
0.0
 10
-18.8143
 20
-14.8207
 30
0.0
 10
-18.8143
 20
-14.8207
 30
0.0
 10
-18.7108
 20
-14.6614
 30
0.0
 10
-18.7108
 20
-14.6614
 30
0.0
 10
-18.7108
 20
-14.6614
 30
0.0
 10
-18.7108
 20
-14.6614
 30
0.0
 10
-18.6072
 20
-14.6049
 30
0.0
 10
-18.6072
 20
-14.6049
 30
0.0
 10
-18.6072
 20
-14.6049
 30
0.0
 10
-18.6072
 20
-14.6049
 30
0.0
 10
-12.4339
 20
-14.256
 30
0.0
 10
-12.4339
 20
-14.256
 30
0.0
 10
-12.4339
 20
-14.256
 30
0.0
 10
-11.3855
 20
-14.3052
 30
0.0
 10
-10.3402
 20
-14.4077
 30
0.0
 10
-9.3022
 20
-14.563
 30
0.0
 10
-9.3022
 20
-14.563
 30
0.0
 10
-9.3022
 20
-14.563
 30
0.0
 10
-9.0409
 20
-14.6912
 30
0.0
 10
-9.0409
 20
-14.6912
 30
0.0
 10
-9.0409
 20
-14.6912
 30
0.0
 10
-9.0409
 20
-14.6912
 30
0.0
 10
-8.9686
 20
-14.825
 30
0.0
 10
-8.9686
 20
-14.825
 30
0.0
 10
-8.9686
 20
-14.825
 30
0.0
 10
-8.9686
 20
-14.825
 30
0.0
 10
-8.9479
 20
-14.9486
 30
0.0
 10
-8.9479
 20
-14.9486
 30
0.0
 10
-8.9479
 20
-14.9486
 30
0.0
 10
-8.9479
 20
-14.9486
 30
0.0
 10
-8.9376
 20
-15.0721
 30
0.0
 10
-8.9376
 20
-15.0721
 30
0.0
  0
SPLINE
  5
86
330
1F
100
AcDbEntity
  8
DEFAULT_1
 62
   250
100
AcDbSpline
210
0.0
220
0.0
230
1.0
 70
     8
 71
     3
 72
    24
 73
    20
 74
     0
 42
0.0000000001
 43
0.0000000001
 40
0.0
 40
0.0
 40
0.0
 40
0.0
 40
0.1666666666666667
 40
0.1666666666666667
 40
0.1666666666666667
 40
0.1666666666666667
 40
0.3333333333333333
 40
0.3333333333333333
 40
0.3333333333333333
 40
0.3333333333333333
 40
0.5
 40
0.5
 40
0.5
 40
0.5
 40
0.6666666666666666
 40
0.6666666666666666
 40
0.6666666666666666
 40
0.6666666666666666
 40
1.0
 40
1.0
 40
1.0
 40
1.0
 10
-19.076
 20
-12.2488
 30
0.0
 10
-19.076
 20
-12.2488
 30
0.0
 10
-19.076
 20
-12.8016
 30
0.0
 10
-19.076
 20
-12.8016
 30
0.0
 10
-19.076
 20
-12.8016
 30
0.0
 10
-19.076
 20
-12.8016
 30
0.0
 10
-18.8181
 20
-12.8016
 30
0.0
 10
-18.8181
 20
-12.8016
 30
0.0
 10
-18.8181
 20
-12.8016
 30
0.0
 10
-18.8181
 20
-12.8016
 30
0.0
 10
-12.1261
 20
-12.8016
 30
0.0
 10
-12.1261
 20
-12.8016
 30
0.0
 10
-12.1261
 20
-12.8016
 30
0.0
 10
-12.1261
 20
-12.8016
 30
0.0
 10
-11.8682
 20
-12.8016
 30
0.0
 10
-11.8682
 20
-12.8016
 30
0.0
 10
-11.8682
 20
-12.8016
 30
0.0
 10
-11.8682
 20
-12.8016
 30
0.0
 10
-11.8543
 20
-12.216
 30
0.0
 10
-11.8543
 20
-12.216
 30
0.0
  0
SPLINE
  5
87
330
1F
100
AcDbEntity
  8
DEFAULT_1
 62
   250
100
AcDbSpline
210
0.0
220
0.0
230
1.0
 70
     8
 71
     3
 72
    44
 73
    40
 74
     0
 42
0.0000000001
 43
0.0000000001
 40
0.0
 40
0.0
 40
0.0
 40
0.0
 40
0.0909090909090909
 40
0.0909090909090909
 40
0.0909090909090909
 40
0.0909090909090909
 40
0.1818181818181818
 40
0.1818181818181818
 40
0.1818181818181818
 40
0.1818181818181818
 40
0.2727272727272727
 40
0.2727272727272727
 40
0.2727272727272727
 40
0.2727272727272727
 40
0.3636363636363636
 40
0.3636363636363636
 40
0.3636363636363636
 40
0.3636363636363636
 40
0.4545454545454545
 40
0.4545454545454545
 40
0.4545454545454545
 40
0.4545454545454545
 40
0.5454545454545454
 40
0.5454545454545454
 40
0.5454545454545454
 40
0.5454545454545454
 40
0.6363636363636364
 40
0.6363636363636364
 40
0.6363636363636364
 40
0.6363636363636364
 40
0.7272727272727273
 40
0.7272727272727273
 40
0.7272727272727273
 40
0.7272727272727273
 40
0.8181818181818182
 40
0.8181818181818182
 40
0.8181818181818182
 40
0.8181818181818182
 40
1.0
 40
1.0
 40
1.0
 40
1.0
 10
-19.3445
 20
-32.2916
 30
0.0
 10
-19.3445
 20
-32.2916
 30
0.0
 10
-19.1903
 20
-32.3285
 30
0.0
 10
-19.1903
 20
-32.3285
 30
0.0
 10
-19.1903
 20
-32.3285
 30
0.0
 10
-19.1903
 20
-32.3285
 30
0.0
 10
-19.0793
 20
-32.4452
 30
0.0
 10
-19.0793
 20
-32.4452
 30
0.0
 10
-19.0793
 20
-32.4452
 30
0.0
 10
-19.0793
 20
-32.4452
 30
0.0
 10
-19.0223
 20
-32.6029
 30
0.0
 10
-19.0223
 20
-32.6029
 30
0.0
 10
-19.0223
 20
-32.6029
 30
0.0
 10
-18.8526
 20
-35.2975
 30
0.0
 10
-16.6056
 20
-37.3965
 30
0.0
 10
-13.8907
 20
-37.3965
 30
0.0
 10
-13.8907
 20
-37.3965
 30
0.0
 10
-11.1758
 20
-37.3965
 30
0.0
 10
-8.9287
 20
-35.2975
 30
0.0
 10
-8.7591
 20
-32.6029
 30
0.0
 10
-8.7591
 20
-32.6029
 30
0.0
 10
-8.7591
 20
-32.6029
 30
0.0
 10
-8.7289
 20
-32.4724
 30
0.0
 10
-8.7289
 20
-32.4724
 30
0.0
 10
-8.7289
 20
-32.4724
 30
0.0
 10
-8.7289
 20
-32.4724
 30
0.0
 10
-8.6725
 20
-32.3928
 30
0.0
 10
-8.6725
 20
-32.3928
 30
0.0
 10
-8.6725
 20
-32.3928
 30
0.0
 10
-8.6725
 20
-32.3928
 30
0.0
 10
-8.5927
 20
-32.3399
 30
0.0
 10
-8.5927
 20
-32.3399
 30
0.0
 10
-8.5927
 20
-32.3399
 30
0.0
 10
-8.5927
 20
-32.3399
 30
0.0
 10
-8.5163
 20
-32.3035
 30
0.0
 10
-8.5163
 20
-32.3035
 30
0.0
 10
-8.5163
 20
-32.3035
 30
0.0
 10
-8.5163
 20
-32.3035
 30
0.0
 10
-8.4398
 20
-32.2902
 30
0.0
 10
-8.4398
 20
-32.2902
 30
0.0
  0
SPLINE
  5
88
330
1F
100
AcDbEntity
  8
DEFAULT_1
 62
   250
100
AcDbSpline
210
0.0
220
0.0
230
1.0
 70
     8
 71
     3
 72
     8
 73
     4
 74
     0
 42
0.0000000001
 43
0.0000000001
 40
0.0
 40
0.0
 40
0.0
 40
0.0
 40
1.0
 40
1.0
 40
1.0
 40
1.0
 10
-19.1181
 20
-29.6417
 30
0.0
 10
-19.3074
 20
-29.6417
 30
0.0
 10
-19.4609
 20
-29.7942
 30
0.0
 10
-19.4609
 20
-29.9825
 30
0.0
  0
SPLINE
  5
89
330
1F
100
AcDbEntity
  8
DEFAULT_1
 62
   250
100
AcDbSpline
210
0.0
220
0.0
230
1.0
 70
     8
 71
     3
 72
     8
 73
     4
 74
     0
 42
0.0000000001
 43
0.0000000001
 40
0.0
 40
0.0
 40
0.0
 40
0.0
 40
1.0
 40
1.0
 40
1.0
 40
1.0
 10
-8.3206
 20
-29.9825
 30
0.0
 10
-8.3206
 20
-29.7942
 30
0.0
 10
-8.474
 20
-29.6417
 30
0.0
 10
-8.6632
 20
-29.6417
 30
0.0
  0
SPLINE
  5
8A
330
1F
100
AcDbEntity
  8
DEFAULT_1
 62
   250
100
AcDbSpline
210
0.0
220
0.0
230
1.0
 70
     8
 71
     3
 72
   144
 73
   140
 74
     0
 42
0.0000000001
 43
0.0000000001
 40
0.0
 40
0.0
 40
0.0
 40
0.0
 40
0.0277777777777778
 40
0.0277777777777778
 40
0.0277777777777778
 40
0.0277777777777778
 40
0.0555555555555556
 40
0.0555555555555556
 40
0.0555555555555556
 40
0.0555555555555556
 40
0.0833333333333333
 40
0.0833333333333333
 40
0.0833333333333333
 40
0.0833333333333333
 40
0.1111111111111111
 40
0.1111111111111111
 40
0.1111111111111111
 40
0.1111111111111111
 40
0.1388888888888889
 40
0.1388888888888889
 40
0.1388888888888889
 40
0.1388888888888889
 40
0.1666666666666667
 40
0.1666666666666667
 40
0.1666666666666667
 40
0.1666666666666667
 40
0.1944444444444444
 40
0.1944444444444444
 40
0.1944444444444444
 40
0.1944444444444444
 40
0.2222222222222222
 40
0.2222222222222222
 40
0.2222222222222222
 40
0.2222222222222222
 40
0.25
 40
0.25
 40
0.25
 40
0.25
 40
0.2777777777777778
 40
0.2777777777777778
 40
0.2777777777777778
 40
0.2777777777777778
 40
0.3055555555555556
 40
0.3055555555555556
 40
0.3055555555555556
 40
0.3055555555555556
 40
0.3333333333333333
 40
0.3333333333333333
 40
0.3333333333333333
 40
0.3333333333333333
 40
0.3611111111111111
 40
0.3611111111111111
 40
0.3611111111111111
 40
0.3611111111111111
 40
0.3888888888888889
 40
0.3888888888888889
 40
0.3888888888888889
 40
0.3888888888888889
 40
0.4166666666666667
 40
0.4166666666666667
 40
0.4166666666666667
 40
0.4166666666666667
 40
0.4444444444444444
 40
0.4444444444444444
 40
0.4444444444444444
 40
0.4444444444444444
 40
0.4722222222222222
 40
0.4722222222222222
 40
0.4722222222222222
 40
0.4722222222222222
 40
0.5
 40
0.5
 40
0.5
 40
0.5
 40
0.5277777777777778
 40
0.5277777777777778
 40
0.5277777777777778
 40
0.5277777777777778
 40
0.5555555555555556
 40
0.5555555555555556
 40
0.5555555555555556
 40
0.5555555555555556
 40
0.5833333333333334
 40
0.5833333333333334
 40
0.5833333333333334
 40
0.5833333333333334
 40
0.6111111111111112
 40
0.6111111111111112
 40
0.6111111111111112
 40
0.6111111111111112
 40
0.6388888888888888
 40
0.6388888888888888
 40
0.6388888888888888
 40
0.6388888888888888
 40
0.6666666666666666
 40
0.6666666666666666
 40
0.6666666666666666
 40
0.6666666666666666
 40
0.6944444444444444
 40
0.6944444444444444
 40
0.6944444444444444
 40
0.6944444444444444
 40
0.7222222222222222
 40
0.7222222222222222
 40
0.7222222222222222
 40
0.7222222222222222
 40
0.75
 40
0.75
 40
0.75
 40
0.75
 40
0.7777777777777778
 40
0.7777777777777778
 40
0.7777777777777778
 40
0.7777777777777778
 40
0.8055555555555556
 40
0.8055555555555556
 40
0.8055555555555556
 40
0.8055555555555556
 40
0.8333333333333334
 40
0.8333333333333334
 40
0.8333333333333334
 40
0.8333333333333334
 40
0.8611111111111112
 40
0.8611111111111112
 40
0.8611111111111112
 40
0.8611111111111112
 40
0.8888888888888888
 40
0.8888888888888888
 40
0.8888888888888888
 40
0.8888888888888888
 40
0.9166666666666666
 40
0.9166666666666666
 40
0.9166666666666666
 40
0.9166666666666666
 40
0.9444444444444444
 40
0.9444444444444444
 40
0.9444444444444444
 40
0.9444444444444444
 40
1.0
 40
1.0
 40
1.0
 40
1.0
 10
-19.3794
 20
-32.2951
 30
0.0
 10
-19.3794
 20
-32.2951
 30
0.0
 10
-19.3703
 20
-30.5684
 30
0.0
 10
-19.3703
 20
-30.5684
 30
0.0
 10
-19.3703
 20
-30.5684
 30
0.0
 10
-19.3703
 20
-30.5684
 30
0.0
 10
-18.0617
 20
-30.5684
 30
0.0
 10
-18.0617
 20
-30.5684
 30
0.0
 10
-18.0617
 20
-30.5684
 30
0.0
 10
-18.0617
 20
-30.5684
 30
0.0
 10
-18.0643
 20
-31.9425
 30
0.0
 10
-18.0643
 20
-31.9425
 30
0.0
 10
-18.0643
 20
-31.9425
 30
0.0
 10
-18.0643
 20
-31.9425
 30
0.0
 10
-18.0565
 20
-32.0307
 30
0.0
 10
-18.0565
 20
-32.0307
 30
0.0
 10
-18.0565
 20
-32.0307
 30
0.0
 10
-18.0565
 20
-32.0307
 30
0.0
 10
-18.0337
 20
-32.113
 30
0.0
 10
-18.0337
 20
-32.113
 30
0.0
 10
-18.0337
 20
-32.113
 30
0.0
 10
-18.0337
 20
-32.113
 30
0.0
 10
-17.997
 20
-32.1837
 30
0.0
 10
-17.997
 20
-32.1837
 30
0.0
 10
-17.997
 20
-32.1837
 30
0.0
 10
-17.997
 20
-32.1837
 30
0.0
 10
-17.9486
 20
-32.2378
 30
0.0
 10
-17.9486
 20
-32.2378
 30
0.0
 10
-17.9486
 20
-32.2378
 30
0.0
 10
-17.9486
 20
-32.2378
 30
0.0
 10
-17.8914
 20
-32.2719
 30
0.0
 10
-17.8914
 20
-32.2719
 30
0.0
 10
-17.8914
 20
-32.2719
 30
0.0
 10
-17.8914
 20
-32.2719
 30
0.0
 10
-17.8293
 20
-32.2834
 30
0.0
 10
-17.8293
 20
-32.2834
 30
0.0
 10
-17.8293
 20
-32.2834
 30
0.0
 10
-17.8293
 20
-32.2834
 30
0.0
 10
-17.723
 20
-32.2486
 30
0.0
 10
-17.723
 20
-32.2486
 30
0.0
 10
-17.723
 20
-32.2486
 30
0.0
 10
-17.723
 20
-32.2486
 30
0.0
 10
-17.6343
 20
-32.1601
 30
0.0
 10
-17.6343
 20
-32.1601
 30
0.0
 10
-17.6343
 20
-32.1601
 30
0.0
 10
-17.6343
 20
-32.1601
 30
0.0
 10
-17.5948
 20
-32.0717
 30
0.0
 10
-17.5948
 20
-32.0717
 30
0.0
 10
-17.5948
 20
-32.0717
 30
0.0
 10
-17.5948
 20
-32.0717
 30
0.0
 10
-17.5652
 20
-31.9442
 30
0.0
 10
-17.5652
 20
-31.9442
 30
0.0
 10
-17.5652
 20
-31.9442
 30
0.0
 10
-17.5652
 20
-31.9442
 30
0.0
 10
-17.5752
 20
-30.5596
 30
0.0
 10
-17.5752
 20
-30.5596
 30
0.0
 10
-17.5752
 20
-30.5596
 30
0.0
 10
-17.5752
 20
-30.5596
 30
0.0
 10
-14.2243
 20
-30.5596
 30
0.0
 10
-14.2243
 20
-30.5596
 30
0.0
 10
-14.2243
 20
-30.5596
 30
0.0
 10
-14.2243
 20
-30.5596
 30
0.0
 10
-14.2145
 20
-32.0226
 30
0.0
 10
-14.2145
 20
-32.0226
 30
0.0
 10
-14.2145
 20
-32.0226
 30
0.0
 10
-14.2145
 20
-32.0226
 30
0.0
 10
-14.1554
 20
-32.17
 30
0.0
 10
-14.1554
 20
-32.17
 30
0.0
 10
-14.1554
 20
-32.17
 30
0.0
 10
-14.1554
 20
-32.17
 30
0.0
 10
-14.0471
 20
-32.2289
 30
0.0
 10
-14.0471
 20
-32.2289
 30
0.0
 10
-14.0471
 20
-32.2289
 30
0.0
 10
-14.0471
 20
-32.2289
 30
0.0
 10
-13.9189
 20
-32.2583
 30
0.0
 10
-13.9189
 20
-32.2583
 30
0.0
 10
-13.9189
 20
-32.2583
 30
0.0
 10
-13.9189
 20
-32.2583
 30
0.0
 10
-13.7317
 20
-32.2583
 30
0.0
 10
-13.7317
 20
-32.2583
 30
0.0
 10
-13.7317
 20
-32.2583
 30
0.0
 10
-13.7317
 20
-32.2583
 30
0.0
 10
-13.6626
 20
-32.1798
 30
0.0
 10
-13.6626
 20
-32.1798
 30
0.0
 10
-13.6626
 20
-32.1798
 30
0.0
 10
-13.6626
 20
-32.1798
 30
0.0
 10
-13.5839
 20
-32.0816
 30
0.0
 10
-13.5839
 20
-32.0816
 30
0.0
 10
-13.5839
 20
-32.0816
 30
0.0
 10
-13.5839
 20
-32.0816
 30
0.0
 10
-13.5346
 20
-31.9736
 30
0.0
 10
-13.5346
 20
-31.9736
 30
0.0
 10
-13.5346
 20
-31.9736
 30
0.0
 10
-13.5346
 20
-31.9736
 30
0.0
 10
-13.5246
 20
-30.5693
 30
0.0
 10
-13.5246
 20
-30.5693
 30
0.0
 10
-13.5246
 20
-30.5693
 30
0.0
 10
-13.5246
 20
-30.5693
 30
0.0
 10
-10.2035
 20
-30.5791
 30
0.0
 10
-10.2035
 20
-30.5791
 30
0.0
 10
-10.2035
 20
-30.5791
 30
0.0
 10
-10.2035
 20
-30.5791
 30
0.0
 10
-10.1937
 20
-32.0128
 30
0.0
 10
-10.1937
 20
-32.0128
 30
0.0
 10
-10.1937
 20
-32.0128
 30
0.0
 10
-10.1937
 20
-32.0128
 30
0.0
 10
-10.1641
 20
-32.1503
 30
0.0
 10
-10.1641
 20
-32.1503
 30
0.0
 10
-10.1641
 20
-32.1503
 30
0.0
 10
-10.1641
 20
-32.1503
 30
0.0
 10
-9.9769
 20
-32.2878
 30
0.0
 10
-9.9769
 20
-32.2878
 30
0.0
 10
-9.9769
 20
-32.2878
 30
0.0
 10
-9.9769
 20
-32.2878
 30
0.0
 10
-9.8783
 20
-32.2681
 30
0.0
 10
-9.8783
 20
-32.2681
 30
0.0
 10
-9.8783
 20
-32.2681
 30
0.0
 10
-9.8783
 20
-32.2681
 30
0.0
 10
-9.7305
 20
-32.1209
 30
0.0
 10
-9.7305
 20
-32.1209
 30
0.0
 10
-9.7305
 20
-32.1209
 30
0.0
 10
-9.7305
 20
-32.1209
 30
0.0
 10
-9.7207
 20
-32.0325
 30
0.0
 10
-9.7207
 20
-32.0325
 30
0.0
 10
-9.7207
 20
-32.0325
 30
0.0
 10
-9.7207
 20
-32.0325
 30
0.0
 10
-9.7009
 20
-31.8164
 30
0.0
 10
-9.7009
 20
-31.8164
 30
0.0
 10
-9.7009
 20
-31.8164
 30
0.0
 10
-9.7009
 20
-31.8164
 30
0.0
 10
-9.7107
 20
-30.5596
 30
0.0
 10
-9.7107
 20
-30.5596
 30
0.0
 10
-9.7107
 20
-30.5596
 30
0.0
 10
-9.7107
 20
-30.5596
 30
0.0
 10
-8.4099
 20
-30.5693
 30
0.0
 10
-8.4099
 20
-30.5693
 30
0.0
 10
-8.4099
 20
-30.5693
 30
0.0
 10
-8.4099
 20
-30.5693
 30
0.0
 10
-8.4001
 20
-32.2976
 30
0.0
 10
-8.4001
 20
-32.2976
 30
0.0
  0
SPLINE
  5
8B
330
1F
100
AcDbEntity
  8
DEFAULT_1
 62
   250
100
AcDbSpline
210
0.0
220
0.0
230
1.0
 70
     8
 71
     3
 72
    84
 73
    80
 74
     0
 42
0.0000000001
 43
0.0000000001
 40
0.0
 40
0.0
 40
0.0
 40
0.0
 40
0.0476190476190476
 40
0.0476190476190476
 40
0.0476190476190476
 40
0.0476190476190476
 40
0.0952380952380952
 40
0.0952380952380952
 40
0.0952380952380952
 40
0.0952380952380952
 40
0.1428571428571428
 40
0.1428571428571428
 40
0.1428571428571428
 40
0.1428571428571428
 40
0.1904761904761905
 40
0.1904761904761905
 40
0.1904761904761905
 40
0.1904761904761905
 40
0.2380952380952381
 40
0.2380952380952381
 40
0.2380952380952381
 40
0.2380952380952381
 40
0.2857142857142857
 40
0.2857142857142857
 40
0.2857142857142857
 40
0.2857142857142857
 40
0.3333333333333333
 40
0.3333333333333333
 40
0.3333333333333333
 40
0.3333333333333333
 40
0.3809523809523809
 40
0.3809523809523809
 40
0.3809523809523809
 40
0.3809523809523809
 40
0.4285714285714285
 40
0.4285714285714285
 40
0.4285714285714285
 40
0.4285714285714285
 40
0.4761904761904762
 40
0.4761904761904762
 40
0.4761904761904762
 40
0.4761904761904762
 40
0.5238095238095238
 40
0.5238095238095238
 40
0.5238095238095238
 40
0.5238095238095238
 40
0.5714285714285714
 40
0.5714285714285714
 40
0.5714285714285714
 40
0.5714285714285714
 40
0.6190476190476191
 40
0.6190476190476191
 40
0.6190476190476191
 40
0.6190476190476191
 40
0.6666666666666666
 40
0.6666666666666666
 40
0.6666666666666666
 40
0.6666666666666666
 40
0.7142857142857143
 40
0.7142857142857143
 40
0.7142857142857143
 40
0.7142857142857143
 40
0.7619047619047619
 40
0.7619047619047619
 40
0.7619047619047619
 40
0.7619047619047619
 40
0.8095238095238095
 40
0.8095238095238095
 40
0.8095238095238095
 40
0.8095238095238095
 40
0.8571428571428571
 40
0.8571428571428571
 40
0.8571428571428571
 40
0.8571428571428571
 40
0.9047619047619048
 40
0.9047619047619048
 40
0.9047619047619048
 40
0.9047619047619048
 40
1.0
 40
1.0
 40
1.0
 40
1.0
 10
-8.9376
 20
-15.0525
 30
0.0
 10
-8.9376
 20
-15.0525
 30
0.0
 10
-8.96
 20
-15.0817
 30
0.0
 10
-8.96
 20
-15.0817
 30
0.0
 10
-8.96
 20
-15.0817
 30
0.0
 10
-8.96
 20
-15.0817
 30
0.0
 10
-9.0476
 20
-15.1968
 30
0.0
 10
-9.0476
 20
-15.1968
 30
0.0
 10
-9.0476
 20
-15.1968
 30
0.0
 10
-9.0476
 20
-15.1968
 30
0.0
 10
-9.2164
 20
-15.4232
 30
0.0
 10
-9.2164
 20
-15.4232
 30
0.0
 10
-9.2164
 20
-15.4232
 30
0.0
 10
-9.2164
 20
-15.4232
 30
0.0
 10
-9.454
 20
-15.7544
 30
0.0
 10
-9.454
 20
-15.7544
 30
0.0
 10
-9.454
 20
-15.7544
 30
0.0
 10
-9.454
 20
-15.7544
 30
0.0
 10
-9.7312
 20
-16.1668
 30
0.0
 10
-9.7312
 20
-16.1668
 30
0.0
 10
-9.7312
 20
-16.1668
 30
0.0
 10
-9.7312
 20
-16.1668
 30
0.0
 10
-10.0173
 20
-16.6366
 30
0.0
 10
-10.0173
 20
-16.6366
 30
0.0
 10
-10.0173
 20
-16.6366
 30
0.0
 10
-10.0173
 20
-16.6366
 30
0.0
 10
-10.282
 20
-17.1447
 30
0.0
 10
-10.282
 20
-17.1447
 30
0.0
 10
-10.282
 20
-17.1447
 30
0.0
 10
-10.282
 20
-17.1447
 30
0.0
 10
-10.4981
 20
-17.6754
 30
0.0
 10
-10.4981
 20
-17.6754
 30
0.0
 10
-10.4981
 20
-17.6754
 30
0.0
 10
-10.4981
 20
-17.6754
 30
0.0
 10
-10.6448
 20
-18.232
 30
0.0
 10
-10.6448
 20
-18.232
 30
0.0
 10
-10.6448
 20
-18.232
 30
0.0
 10
-10.6448
 20
-18.232
 30
0.0
 10
-10.699
 20
-18.8173
 30
0.0
 10
-10.699
 20
-18.8173
 30
0.0
 10
-10.699
 20
-18.8173
 30
0.0
 10
-10.699
 20
-18.8173
 30
0.0
 10
-10.6453
 20
-19.4036
 30
0.0
 10
-10.6453
 20
-19.4036
 30
0.0
 10
-10.6453
 20
-19.4036
 30
0.0
 10
-10.6453
 20
-19.4036
 30
0.0
 10
-10.4983
 20
-19.9621
 30
0.0
 10
-10.4983
 20
-19.9621
 30
0.0
 10
-10.4983
 20
-19.9621
 30
0.0
 10
-10.4983
 20
-19.9621
 30
0.0
 10
-10.2817
 20
-20.4941
 30
0.0
 10
-10.2817
 20
-20.4941
 30
0.0
 10
-10.2817
 20
-20.4941
 30
0.0
 10
-10.2817
 20
-20.4941
 30
0.0
 10
-10.0162
 20
-21.0032
 30
0.0
 10
-10.0162
 20
-21.0032
 30
0.0
 10
-10.0162
 20
-21.0032
 30
0.0
 10
-10.0162
 20
-21.0032
 30
0.0
 10
-9.7301
 20
-21.4732
 30
0.0
 10
-9.7301
 20
-21.4732
 30
0.0
 10
-9.7301
 20
-21.4732
 30
0.0
 10
-9.7301
 20
-21.4732
 30
0.0
 10
-9.4535
 20
-21.8844
 30
0.0
 10
-9.4535
 20
-21.8844
 30
0.0
 10
-9.4535
 20
-21.8844
 30
0.0
 10
-9.4535
 20
-21.8844
 30
0.0
 10
-9.2167
 20
-22.2145
 30
0.0
 10
-9.2167
 20
-22.2145
 30
0.0
 10
-9.2167
 20
-22.2145
 30
0.0
 10
-9.2167
 20
-22.2145
 30
0.0
 10
-9.0483
 20
-22.4406
 30
0.0
 10
-9.0483
 20
-22.4406
 30
0.0
 10
-9.0483
 20
-22.4406
 30
0.0
 10
-9.0483
 20
-22.4406
 30
0.0
 10
-8.9602
 20
-22.5561
 30
0.0
 10
-8.9602
 20
-22.5561
 30
0.0
 10
-8.9602
 20
-22.5561
 30
0.0
 10
-8.9602
 20
-22.5561
 30
0.0
 10
-8.9376
 20
-22.5857
 30
0.0
 10
-8.9376
 20
-22.5857
 30
0.0
  0
SPLINE
  5
8C
330
1F
100
AcDbEntity
  8
DEFAULT_1
 62
   250
100
AcDbSpline
210
0.0
220
0.0
230
1.0
 70
    27
 71
     3
 72
    12
 73
     8
 74
     0
 42
0.0000000001
 43
0.0000000001
 40
0.0
 40
0.0
 40
0.0
 40
0.0
 40
0.3333333333333333
 40
0.3333333333333333
 40
0.3333333333333333
 40
0.3333333333333333
 40
1.0
 40
1.0
 40
1.0
 40
1.0
 10
-18.604
 20
-14.6017
 30
0.0
 10
-18.604
 20
-14.6017
 30
0.0
 10
-18.604
 20
-12.8539
 30
0.0
 10
-18.604
 20
-12.8539
 30
0.0
 10
-18.604
 20
-12.8539
 30
0.0
 10
-18.604
 20
-12.8539
 30
0.0
 10
-18.604
 20
-14.6017
 30
0.0
 10
-18.604
 20
-14.6017
 30
0.0
  0
SPLINE
  5
8D
330
1F
100
AcDbEntity
  8
DEFAULT_1
 62
   250
100
AcDbSpline
210
0.0
220
0.0
230
1.0
 70
    27
 71
     3
 72
    12
 73
     8
 74
     0
 42
0.0000000001
 43
0.0000000001
 40
0.0
 40
0.0
 40
0.0
 40
0.0
 40
0.3333333333333333
 40
0.3333333333333333
 40
0.3333333333333333
 40
0.3333333333333333
 40
1.0
 40
1.0
 40
1.0
 40
1.0
 10
-12.1261
 20
-12.2885
 30
0.0
 10
-12.1261
 20
-12.2885
 30
0.0
 10
-12.1261
 20
-12.8016
 30
0.0
 10
-12.1261
 20
-12.8016
 30
0.0
 10
-12.1261
 20
-12.8016
 30
0.0
 10
-12.1261
 20
-12.8016
 30
0.0
 10
-12.1261
 20
-12.2885
 30
0.0
 10
-12.1261
 20
-12.2885
 30
0.0
  0
SPLINE
  5
8E
330
1F
100
AcDbEntity
  8
DEFAULT_1
 62
   250
100
AcDbSpline
210
0.0
220
0.0
230
1.0
 70
    11
 71
     3
 72
    68
 73
    64
 74
     0
 42
0.0000000001
 43
0.0000000001
 40
0.0
 40
0.0
 40
0.0
 40
0.0
 40
0.0588235294117647
 40
0.0588235294117647
 40
0.0588235294117647
 40
0.0588235294117647
 40
0.1176470588235294
 40
0.1176470588235294
 40
0.1176470588235294
 40
0.1176470588235294
 40
0.1764705882352941
 40
0.1764705882352941
 40
0.1764705882352941
 40
0.1764705882352941
 40
0.2352941176470588
 40
0.2352941176470588
 40
0.2352941176470588
 40
0.2352941176470588
 40
0.2941176470588235
 40
0.2941176470588235
 40
0.2941176470588235
 40
0.2941176470588235
 40
0.3529411764705883
 40
0.3529411764705883
 40
0.3529411764705883
 40
0.3529411764705883
 40
0.4117647058823529
 40
0.4117647058823529
 40
0.4117647058823529
 40
0.4117647058823529
 40
0.4705882352941176
 40
0.4705882352941176
 40
0.4705882352941176
 40
0.4705882352941176
 40
0.5294117647058824
 40
0.5294117647058824
 40
0.5294117647058824
 40
0.5294117647058824
 40
0.5882352941176471
 40
0.5882352941176471
 40
0.5882352941176471
 40
0.5882352941176471
 40
0.6470588235294118
 40
0.6470588235294118
 40
0.6470588235294118
 40
0.6470588235294118
 40
0.7058823529411765
 40
0.7058823529411765
 40
0.7058823529411765
 40
0.7058823529411765
 40
0.7647058823529411
 40
0.7647058823529411
 40
0.7647058823529411
 40
0.7647058823529411
 40
0.8235294117647058
 40
0.8235294117647058
 40
0.8235294117647058
 40
0.8235294117647058
 40
0.8823529411764706
 40
0.8823529411764706
 40
0.8823529411764706
 40
0.8823529411764706
 40
1.0
 40
1.0
 40
1.0
 40
1.0
 10
-7.7206
 20
-14.7457
 30
0.0
 10
-7.7206
 20
-14.7457
 30
0.0
 10
-7.4636
 20
-14.7457
 30
0.0
 10
-7.4636
 20
-14.7457
 30
0.0
 10
-7.4636
 20
-14.7457
 30
0.0
 10
-7.4636
 20
-14.7457
 30
0.0
 10
-7.7206
 20
-14.7457
 30
0.0
 10
-7.7206
 20
-14.7457
 30
0.0
 10
-7.7206
 20
-14.7457
 30
0.0
 10
-7.7206
 20
-14.7457
 30
0.0
 10
-7.7206
 20
-15.0525
 30
0.0
 10
-7.7206
 20
-15.0525
 30
0.0
 10
-7.7206
 20
-15.0525
 30
0.0
 10
-7.7206
 20
-15.0525
 30
0.0
 10
-8.9376
 20
-15.0525
 30
0.0
 10
-8.9376
 20
-15.0525
 30
0.0
 10
-8.9376
 20
-15.0525
 30
0.0
 10
-8.9376
 20
-15.0525
 30
0.0
 10
-7.7206
 20
-15.0525
 30
0.0
 10
-7.7206
 20
-15.0525
 30
0.0
 10
-7.7206
 20
-15.0525
 30
0.0
 10
-7.7206
 20
-15.0525
 30
0.0
 10
-7.7206
 20
-22.5857
 30
0.0
 10
-7.7206
 20
-22.5857
 30
0.0
 10
-7.7206
 20
-22.5857
 30
0.0
 10
-7.7206
 20
-22.5857
 30
0.0
 10
-8.9376
 20
-22.5857
 30
0.0
 10
-8.9376
 20
-22.5857
 30
0.0
 10
-8.9376
 20
-22.5857
 30
0.0
 10
-8.9376
 20
-22.5857
 30
0.0
 10
-8.9376
 20
-29.59
 30
0.0
 10
-8.9376
 20
-29.59
 30
0.0
 10
-8.9376
 20
-29.59
 30
0.0
 10
-8.9376
 20
-29.59
 30
0.0
 10
-8.9376
 20
-22.5857
 30
0.0
 10
-8.9376
 20
-22.5857
 30
0.0
 10
-8.9376
 20
-22.5857
 30
0.0
 10
-8.9376
 20
-22.5857
 30
0.0
 10
-7.7206
 20
-22.5857
 30
0.0
 10
-7.7206
 20
-22.5857
 30
0.0
 10
-7.7206
 20
-22.5857
 30
0.0
 10
-7.7206
 20
-22.5857
 30
0.0
 10
-7.7206
 20
-22.8924
 30
0.0
 10
-7.7206
 20
-22.8924
 30
0.0
 10
-7.7206
 20
-22.8924
 30
0.0
 10
-7.7206
 20
-22.8924
 30
0.0
 10
-7.4636
 20
-22.8924
 30
0.0
 10
-7.4636
 20
-22.8924
 30
0.0
 10
-7.4636
 20
-22.8924
 30
0.0
 10
-7.4636
 20
-22.8924
 30
0.0
 10
-7.7206
 20
-22.8924
 30
0.0
 10
-7.7206
 20
-22.8924
 30
0.0
 10
-7.7206
 20
-22.8924
 30
0.0
 10
-7.7206
 20
-22.8924
 30
0.0
 10
-7.7206
 20
-22.5857
 30
0.0
 10
-7.7206
 20
-22.5857
 30
0.0
 10
-7.7206
 20
-22.5857
 30
0.0
 10
-7.7206
 20
-22.5857
 30
0.0
 10
-7.7206
 20
-15.0525
 30
0.0
 10
-7.7206
 20
-15.0525
 30
0.0
 10
-7.7206
 20
-15.0525
 30
0.0
 10
-7.7206
 20
-15.0525
 30
0.0
 10
-7.7206
 20
-14.7457
 30
0.0
 10
-7.7206
 20
-14.7457
 30
0.0
  0
SPLINE
  5
8F
330
1F
100
AcDbEntity
  8
DEFAULT_1
 62
   250
100
AcDbSpline
210
0.0
220
0.0
230
1.0
 70
    27
 71
     3
 72
    12
 73
     8
 74
     0
 42
0.0000000001
 43
0.0000000001
 40
0.0
 40
0.0
 40
0.0
 40
0.0
 40
0.3333333333333333
 40
0.3333333333333333
 40
0.3333333333333333
 40
0.3333333333333333
 40
1.0
 40
1.0
 40
1.0
 40
1.0
 10
-12.4339
 20
-14.256
 30
0.0
 10
-12.4339
 20
-14.256
 30
0.0
 10
-12.4339
 20
-12.8539
 30
0.0
 10
-12.4339
 20
-12.8539
 30
0.0
 10
-12.4339
 20
-12.8539
 30
0.0
 10
-12.4339
 20
-12.8539
 30
0.0
 10
-12.4339
 20
-14.256
 30
0.0
 10
-12.4339
 20
-14.256
 30
0.0
  0
SPLINE
  5
90
330
1F
100
AcDbEntity
  8
DEFAULT_1
 62
   250
100
AcDbSpline
210
0.0
220
0.0
230
1.0
 70
    27
 71
     3
 72
    12
 73
     8
 74
     0
 42
0.0000000001
 43
0.0000000001
 40
0.0
 40
0.0
 40
0.0
 40
0.0
 40
0.3333333333333333
 40
0.3333333333333333
 40
0.3333333333333333
 40
0.3333333333333333
 40
1.0
 40
1.0
 40
1.0
 40
1.0
 10
-18.8439
 20
-29.6359
 30
0.0
 10
-18.8439
 20
-29.6359
 30
0.0
 10
-18.8439
 20
-14.9842
 30
0.0
 10
-18.8439
 20
-14.9842
 30
0.0
 10
-18.8439
 20
-14.9842
 30
0.0
 10
-18.8439
 20
-14.9842
 30
0.0
 10
-18.8439
 20
-29.6359
 30
0.0
 10
-18.8439
 20
-29.6359
 30
0.0
  0
SPLINE
  5
91
330
1F
100
AcDbEntity
  8
DEFAULT_1
 62
   250
100
AcDbSpline
210
0.0
220
0.0
230
1.0
 70
    11
 71
     3
 72
    52
 73
    48
 74
     0
 42
0.0000000001
 43
0.0000000001
 40
0.0
 40
0.0
 40
0.0
 40
0.0
 40
0.0769230769230769
 40
0.0769230769230769
 40
0.0769230769230769
 40
0.0769230769230769
 40
0.1538461538461539
 40
0.1538461538461539
 40
0.1538461538461539
 40
0.1538461538461539
 40
0.2307692307692308
 40
0.2307692307692308
 40
0.2307692307692308
 40
0.2307692307692308
 40
0.3076923076923077
 40
0.3076923076923077
 40
0.3076923076923077
 40
0.3076923076923077
 40
0.3846153846153846
 40
0.3846153846153846
 40
0.3846153846153846
 40
0.3846153846153846
 40
0.4615384615384616
 40
0.4615384615384616
 40
0.4615384615384616
 40
0.4615384615384616
 40
0.5384615384615384
 40
0.5384615384615384
 40
0.5384615384615384
 40
0.5384615384615384
 40
0.6153846153846154
 40
0.6153846153846154
 40
0.6153846153846154
 40
0.6153846153846154
 40
0.6923076923076923
 40
0.6923076923076923
 40
0.6923076923076923
 40
0.6923076923076923
 40
0.7692307692307693
 40
0.7692307692307693
 40
0.7692307692307693
 40
0.7692307692307693
 40
0.8461538461538461
 40
0.8461538461538461
 40
0.8461538461538461
 40
0.8461538461538461
 40
1.0
 40
1.0
 40
1.0
 40
1.0
 10
-19.4609
 20
-32.2834
 30
0.0
 10
-19.4609
 20
-32.2834
 30
0.0
 10
-8.3206
 20
-32.2834
 30
0.0
 10
-8.3206
 20
-32.2834
 30
0.0
 10
-8.3206
 20
-32.2834
 30
0.0
 10
-8.3206
 20
-32.2834
 30
0.0
 10
-8.3206
 20
-30.0677
 30
0.0
 10
-8.3206
 20
-30.0677
 30
0.0
 10
-8.3206
 20
-30.0677
 30
0.0
 10
-8.3206
 20
-30.0677
 30
0.0
 10
-19.4609
 20
-30.0677
 30
0.0
 10
-19.4609
 20
-30.0677
 30
0.0
 10
-19.4609
 20
-30.0677
 30
0.0
 10
-19.4609
 20
-30.0677
 30
0.0
 10
-19.4609
 20
-29.9825
 30
0.0
 10
-19.4609
 20
-29.9825
 30
0.0
 10
-19.4609
 20
-29.9825
 30
0.0
 10
-19.4609
 20
-29.9825
 30
0.0
 10
-19.4609
 20
-30.0677
 30
0.0
 10
-19.4609
 20
-30.0677
 30
0.0
 10
-19.4609
 20
-30.0677
 30
0.0
 10
-19.4609
 20
-30.0677
 30
0.0
 10
-8.3206
 20
-30.0677
 30
0.0
 10
-8.3206
 20
-30.0677
 30
0.0
 10
-8.3206
 20
-30.0677
 30
0.0
 10
-8.3206
 20
-30.0677
 30
0.0
 10
-8.3206
 20
-29.9825
 30
0.0
 10
-8.3206
 20
-29.9825
 30
0.0
 10
-8.3206
 20
-29.9825
 30
0.0
 10
-8.3206
 20
-29.9825
 30
0.0
 10
-8.3206
 20
-30.0677
 30
0.0
 10
-8.3206
 20
-30.0677
 30
0.0
 10
-8.3206
 20
-30.0677
 30
0.0
 10
-8.3206
 20
-30.0677
 30
0.0
 10
-8.3206
 20
-32.2834
 30
0.0
 10
-8.3206
 20
-32.2834
 30
0.0
 10
-8.3206
 20
-32.2834
 30
0.0
 10
-8.3206
 20
-32.2834
 30
0.0
 10
-19.4609
 20
-32.2834
 30
0.0
 10
-19.4609
 20
-32.2834
 30
0.0
 10
-19.4609
 20
-32.2834
 30
0.0
 10
-19.4609
 20
-32.2834
 30
0.0
 10
-19.4609
 20
-30.0677
 30
0.0
 10
-19.4609
 20
-30.0677
 30
0.0
 10
-19.4609
 20
-30.0677
 30
0.0
 10
-19.4609
 20
-30.0677
 30
0.0
 10
-19.4609
 20
-32.2834
 30
0.0
 10
-19.4609
 20
-32.2834
 30
0.0
  0
SPLINE
  5
92
330
1F
100
AcDbEntity
  8
DEFAULT_1
 62
   250
100
AcDbSpline
210
0.0
220
0.0
230
1.0
 70
    27
 71
     3
 72
    16
 73
    12
 74
     0
 42
0.0000000001
 43
0.0000000001
 40
0.0
 40
0.0
 40
0.0
 40
0.0
 40
0.25
 40
0.25
 40
0.25
 40
0.25
 40
0.5
 40
0.5
 40
0.5
 40
0.5
 40
1.0
 40
1.0
 40
1.0
 40
1.0
 10
-19.1181
 20
-29.6417
 30
0.0
 10
-19.1181
 20
-29.6417
 30
0.0
 10
-18.9816
 20
-29.6417
 30
0.0
 10
-18.9816
 20
-29.6417
 30
0.0
 10
-18.9816
 20
-29.6417
 30
0.0
 10
-18.9816
 20
-29.6417
 30
0.0
 10
-8.6632
 20
-29.6417
 30
0.0
 10
-8.6632
 20
-29.6417
 30
0.0
 10
-8.6632
 20
-29.6417
 30
0.0
 10
-8.6632
 20
-29.6417
 30
0.0
 10
-19.1181
 20
-29.6417
 30
0.0
 10
-19.1181
 20
-29.6417
 30
0.0
  0
SPLINE
  5
93
330
1F
100
AcDbEntity
  8
DEFAULT_1
 62
   250
100
AcDbSpline
210
0.0
220
0.0
230
1.0
 70
    27
 71
     3
 72
    12
 73
     8
 74
     0
 42
0.0000000001
 43
0.0000000001
 40
0.0
 40
0.0
 40
0.0
 40
0.0
 40
0.3333333333333333
 40
0.3333333333333333
 40
0.3333333333333333
 40
0.3333333333333333
 40
1.0
 40
1.0
 40
1.0
 40
1.0
 10
-18.8181
 20
-12.2885
 30
0.0
 10
-18.8181
 20
-12.2885
 30
0.0
 10
-18.8181
 20
-12.8016
 30
0.0
 10
-18.8181
 20
-12.8016
 30
0.0
 10
-18.8181
 20
-12.8016
 30
0.0
 10
-18.8181
 20
-12.8016
 30
0.0
 10
-18.8181
 20
-12.2885
 30
0.0
 10
-18.8181
 20
-12.2885
 30
0.0
  0
SPLINE
  5
94
330
1F
100
AcDbEntity
  8
DEFAULT_1
 62
   250
100
AcDbSpline
210
0.0
220
0.0
230
1.0
 70
    27
 71
     3
 72
    20
 73
    16
 74
     0
 42
0.0000000001
 43
0.0000000001
 40
0.0
 40
0.0
 40
0.0
 40
0.0
 40
0.2
 40
0.2
 40
0.2
 40
0.2
 40
0.4
 40
0.4
 40
0.4
 40
0.4
 40
0.6
 40
0.6
 40
0.6
 40
0.6
 40
1.0
 40
1.0
 40
1.0
 40
1.0
 10
-12.668
 20
4.7493
 30
0.0
 10
-12.668
 20
4.7493
 30
0.0
 10
-12.668
 20
4.7228
 30
0.0
 10
-12.668
 20
4.7228
 30
0.0
 10
-12.668
 20
4.7228
 30
0.0
 10
-12.668
 20
4.7228
 30
0.0
 10
-12.668
 20
-9.6268
 30
0.0
 10
-12.668
 20
-9.6268
 30
0.0
 10
-12.668
 20
-9.6268
 30
0.0
 10
-12.668
 20
-9.6268
 30
0.0
 10
-12.668
 20
4.7228
 30
0.0
 10
-12.668
 20
4.7228
 30
0.0
 10
-12.668
 20
4.7228
 30
0.0
 10
-12.668
 20
4.7228
 30
0.0
 10
-12.668
 20
4.7493
 30
0.0
 10
-12.668
 20
4.7493
 30
0.0
  0
SPLINE
  5
95
330
1F
100
AcDbEntity
  8
DEFAULT_1
 62
   250
100
AcDbSpline
210
0.0
220
0.0
230
1.0
 70
    27
 71
     3
 72
    16
 73
    12
 74
     0
 42
0.0000000001
 43
0.0000000001
 40
0.0
 40
0.0
 40
0.0
 40
0.0
 40
0.25
 40
0.25
 40
0.25
 40
0.25
 40
0.5
 40
0.5
 40
0.5
 40
0.5
 40
1.0
 40
1.0
 40
1.0
 40
1.0
 10
-18.132
 20
4.7988
 30
0.0
 10
-18.132
 20
4.7988
 30
0.0
 10
-18.132
 20
-9.6268
 30
0.0
 10
-18.132
 20
-9.6268
 30
0.0
 10
-18.132
 20
-9.6268
 30
0.0
 10
-18.132
 20
-9.6268
 30
0.0
 10
-18.132
 20
4.7988
 30
0.0
 10
-18.132
 20
4.7988
 30
0.0
 10
-18.132
 20
4.7988
 30
0.0
 10
-18.132
 20
4.7988
 30
0.0
 10
-18.132
 20
4.7988
 30
0.0
 10
-18.132
 20
4.7988
 30
0.0
  0
SPLINE
  5
96
330
1F
100
AcDbEntity
  8
DEFAULT_1
 62
   250
100
AcDbSpline
210
0.0
220
0.0
230
1.0
 70
    11
 71
     3
 72
    20
 73
    16
 74
     0
 42
0.0000000001
 43
0.0000000001
 40
0.0
 40
0.0
 40
0.0
 40
0.0
 40
0.2
 40
0.2
 40
0.2
 40
0.2
 40
0.4
 40
0.4
 40
0.4
 40
0.4
 40
0.6
 40
0.6
 40
0.6
 40
0.6
 40
1.0
 40
1.0
 40
1.0
 40
1.0
 10
-21.3761
 20
13.9891
 30
0.0
 10
-21.3761
 20
13.9891
 30
0.0
 10
-9.4107
 20
13.9891
 30
0.0
 10
-9.4107
 20
13.9891
 30
0.0
 10
-9.4107
 20
13.9891
 30
0.0
 10
-9.4107
 20
13.9891
 30
0.0
 10
-9.4107
 20
13.2053
 30
0.0
 10
-9.4107
 20
13.2053
 30
0.0
 10
-9.4107
 20
13.2053
 30
0.0
 10
-9.4107
 20
13.2053
 30
0.0
 10
-21.3761
 20
13.2053
 30
0.0
 10
-21.3761
 20
13.2053
 30
0.0
 10
-21.3761
 20
13.2053
 30
0.0
 10
-21.3761
 20
13.2053
 30
0.0
 10
-21.3761
 20
13.9891
 30
0.0
 10
-21.3761
 20
13.9891
 30
0.0
  0
SPLINE
  5
97
330
1F
100
AcDbEntity
  8
DEFAULT_1
 62
   250
100
AcDbSpline
210
0.0
220
0.0
230
1.0
 70
     8
 71
     3
 72
    16
 73
    12
 74
     0
 42
0.0000000001
 43
0.0000000001
 40
0.0
 40
0.0
 40
0.0
 40
0.0
 40
0.25
 40
0.25
 40
0.25
 40
0.25
 40
0.5
 40
0.5
 40
0.5
 40
0.5
 40
1.0
 40
1.0
 40
1.0
 40
1.0
 10
-18.9274
 20
7.3238
 30
0.0
 10
-18.9274
 20
7.3238
 30
0.0
 10
-18.9274
 20
8.6908
 30
0.0
 10
-18.9274
 20
8.6908
 30
0.0
 10
-18.9274
 20
8.6908
 30
0.0
 10
-18.9274
 20
8.6908
 30
0.0
 10
-19.8497
 20
9.6037
 30
0.0
 10
-19.8497
 20
9.6037
 30
0.0
 10
-19.8497
 20
9.6037
 30
0.0
 10
-19.8497
 20
9.6037
 30
0.0
 10
-19.8497
 20
10.8627
 30
0.0
 10
-19.8497
 20
10.8627
 30
0.0
  0
SPLINE
  5
98
330
1F
100
AcDbEntity
  8
DEFAULT_1
 62
   250
100
AcDbSpline
210
0.0
220
0.0
230
1.0
 70
     8
 71
     3
 72
    16
 73
    12
 74
     0
 42
0.0000000001
 43
0.0000000001
 40
0.0
 40
0.0
 40
0.0
 40
0.0
 40
0.25
 40
0.25
 40
0.25
 40
0.25
 40
0.5
 40
0.5
 40
0.5
 40
0.5
 40
1.0
 40
1.0
 40
1.0
 40
1.0
 10
-11.8191
 20
7.3238
 30
0.0
 10
-11.8191
 20
7.3238
 30
0.0
 10
-11.8191
 20
8.6908
 30
0.0
 10
-11.8191
 20
8.6908
 30
0.0
 10
-11.8191
 20
8.6908
 30
0.0
 10
-11.8191
 20
8.6908
 30
0.0
 10
-10.9233
 20
9.6196
 30
0.0
 10
-10.9233
 20
9.6196
 30
0.0
 10
-10.9233
 20
9.6196
 30
0.0
 10
-10.9233
 20
9.6196
 30
0.0
 10
-10.9543
 20
10.8627
 30
0.0
 10
-10.9543
 20
10.8627
 30
0.0
  0
SPLINE
  5
99
330
1F
100
AcDbEntity
  8
DEFAULT_1
 62
   250
100
AcDbSpline
210
0.0
220
0.0
230
1.0
 70
    11
 71
     3
 72
    20
 73
    16
 74
     0
 42
0.0000000001
 43
0.0000000001
 40
0.0
 40
0.0
 40
0.0
 40
0.0
 40
0.2
 40
0.2
 40
0.2
 40
0.2
 40
0.4
 40
0.4
 40
0.4
 40
0.4
 40
0.6
 40
0.6
 40
0.6
 40
0.6
 40
1.0
 40
1.0
 40
1.0
 40
1.0
 10
-18.6626
 20
8.6908
 30
0.0
 10
-18.6626
 20
8.6908
 30
0.0
 10
-18.6626
 20
7.3238
 30
0.0
 10
-18.6626
 20
7.3238
 30
0.0
 10
-18.6626
 20
7.3238
 30
0.0
 10
-18.6626
 20
7.3238
 30
0.0
 10
-18.6626
 20
8.6908
 30
0.0
 10
-18.6626
 20
8.6908
 30
0.0
 10
-18.6626
 20
8.6908
 30
0.0
 10
-18.6626
 20
8.6908
 30
0.0
 10
-18.9274
 20
8.6908
 30
0.0
 10
-18.9274
 20
8.6908
 30
0.0
 10
-18.9274
 20
8.6908
 30
0.0
 10
-18.9274
 20
8.6908
 30
0.0
 10
-18.6626
 20
8.6908
 30
0.0
 10
-18.6626
 20
8.6908
 30
0.0
  0
SPLINE
  5
9A
330
1F
100
AcDbEntity
  8
DEFAULT_1
 62
   250
100
AcDbSpline
210
0.0
220
0.0
230
1.0
 70
    11
 71
     3
 72
    36
 73
    32
 74
     0
 42
0.0000000001
 43
0.0000000001
 40
0.0
 40
0.0
 40
0.0
 40
0.0
 40
0.1111111111111111
 40
0.1111111111111111
 40
0.1111111111111111
 40
0.1111111111111111
 40
0.2222222222222222
 40
0.2222222222222222
 40
0.2222222222222222
 40
0.2222222222222222
 40
0.3333333333333333
 40
0.3333333333333333
 40
0.3333333333333333
 40
0.3333333333333333
 40
0.4444444444444444
 40
0.4444444444444444
 40
0.4444444444444444
 40
0.4444444444444444
 40
0.5555555555555556
 40
0.5555555555555556
 40
0.5555555555555556
 40
0.5555555555555556
 40
0.6666666666666666
 40
0.6666666666666666
 40
0.6666666666666666
 40
0.6666666666666666
 40
0.7777777777777778
 40
0.7777777777777778
 40
0.7777777777777778
 40
0.7777777777777778
 40
1.0
 40
1.0
 40
1.0
 40
1.0
 10
-21.6137
 20
11.9251
 30
0.0
 10
-21.6137
 20
11.9251
 30
0.0
 10
-9.1339
 20
11.9251
 30
0.0
 10
-9.1339
 20
11.9251
 30
0.0
 10
-9.1339
 20
11.9251
 30
0.0
 10
-9.1339
 20
11.9251
 30
0.0
 10
-9.1339
 20
10.8627
 30
0.0
 10
-9.1339
 20
10.8627
 30
0.0
 10
-9.1339
 20
10.8627
 30
0.0
 10
-9.1339
 20
10.8627
 30
0.0
 10
-10.9543
 20
10.8627
 30
0.0
 10
-10.9543
 20
10.8627
 30
0.0
 10
-10.9543
 20
10.8627
 30
0.0
 10
-10.9543
 20
10.8627
 30
0.0
 10
-10.9592
 20
10.8627
 30
0.0
 10
-10.9592
 20
10.8627
 30
0.0
 10
-10.9592
 20
10.8627
 30
0.0
 10
-10.9592
 20
10.8627
 30
0.0
 10
-19.8481
 20
10.8627
 30
0.0
 10
-19.8481
 20
10.8627
 30
0.0
 10
-19.8481
 20
10.8627
 30
0.0
 10
-19.8481
 20
10.8627
 30
0.0
 10
-19.8497
 20
10.8627
 30
0.0
 10
-19.8497
 20
10.8627
 30
0.0
 10
-19.8497
 20
10.8627
 30
0.0
 10
-19.8497
 20
10.8627
 30
0.0
 10
-21.6137
 20
10.8627
 30
0.0
 10
-21.6137
 20
10.8627
 30
0.0
 10
-21.6137
 20
10.8627
 30
0.0
 10
-21.6137
 20
10.8627
 30
0.0
 10
-21.6137
 20
11.9251
 30
0.0
 10
-21.6137
 20
11.9251
 30
0.0
  0
SPLINE
  5
9B
330
1F
100
AcDbEntity
  8
DEFAULT_1
 62
   250
100
AcDbSpline
210
0.0
220
0.0
230
1.0
 70
    11
 71
     3
 72
    20
 73
    16
 74
     0
 42
0.0000000001
 43
0.0000000001
 40
0.0
 40
0.0
 40
0.0
 40
0.0
 40
0.2
 40
0.2
 40
0.2
 40
0.2
 40
0.4
 40
0.4
 40
0.4
 40
0.4
 40
0.6
 40
0.6
 40
0.6
 40
0.6
 40
1.0
 40
1.0
 40
1.0
 40
1.0
 10
-12.084
 20
8.6908
 30
0.0
 10
-12.084
 20
8.6908
 30
0.0
 10
-12.084
 20
7.3238
 30
0.0
 10
-12.084
 20
7.3238
 30
0.0
 10
-12.084
 20
7.3238
 30
0.0
 10
-12.084
 20
7.3238
 30
0.0
 10
-12.084
 20
8.6908
 30
0.0
 10
-12.084
 20
8.6908
 30
0.0
 10
-12.084
 20
8.6908
 30
0.0
 10
-12.084
 20
8.6908
 30
0.0
 10
-18.6626
 20
8.6908
 30
0.0
 10
-18.6626
 20
8.6908
 30
0.0
 10
-18.6626
 20
8.6908
 30
0.0
 10
-18.6626
 20
8.6908
 30
0.0
 10
-12.084
 20
8.6908
 30
0.0
 10
-12.084
 20
8.6908
 30
0.0
  0
SPLINE
  5
9C
330
1F
100
AcDbEntity
  8
DEFAULT_1
 62
   250
100
AcDbSpline
210
0.0
220
0.0
230
1.0
 70
    27
 71
     3
 72
    12
 73
     8
 74
     0
 42
0.0000000001
 43
0.0000000001
 40
0.0
 40
0.0
 40
0.0
 40
0.0
 40
0.3333333333333333
 40
0.3333333333333333
 40
0.3333333333333333
 40
0.3333333333333333
 40
1.0
 40
1.0
 40
1.0
 40
1.0
 10
-11.8191
 20
8.6908
 30
0.0
 10
-11.8191
 20
8.6908
 30
0.0
 10
-12.084
 20
8.6908
 30
0.0
 10
-12.084
 20
8.6908
 30
0.0
 10
-12.084
 20
8.6908
 30
0.0
 10
-12.084
 20
8.6908
 30
0.0
 10
-11.8191
 20
8.6908
 30
0.0
 10
-11.8191
 20
8.6908
 30
0.0
  0
SPLINE
  5
9D
330
1F
100
AcDbEntity
  8
DEFAULT_1
 62
   250
100
AcDbSpline
210
0.0
220
0.0
230
1.0
 70
     8
 71
     3
 72
    60
 73
    56
 74
     0
 42
0.0000000001
 43
0.0000000001
 40
0.0
 40
0.0
 40
0.0
 40
0.0
 40
0.0666666666666667
 40
0.0666666666666667
 40
0.0666666666666667
 40
0.0666666666666667
 40
0.1333333333333333
 40
0.1333333333333333
 40
0.1333333333333333
 40
0.1333333333333333
 40
0.2
 40
0.2
 40
0.2
 40
0.2
 40
0.2666666666666667
 40
0.2666666666666667
 40
0.2666666666666667
 40
0.2666666666666667
 40
0.3333333333333333
 40
0.3333333333333333
 40
0.3333333333333333
 40
0.3333333333333333
 40
0.4
 40
0.4
 40
0.4
 40
0.4
 40
0.4666666666666667
 40
0.4666666666666667
 40
0.4666666666666667
 40
0.4666666666666667
 40
0.5333333333333333
 40
0.5333333333333333
 40
0.5333333333333333
 40
0.5333333333333333
 40
0.6
 40
0.6
 40
0.6
 40
0.6
 40
0.6666666666666666
 40
0.6666666666666666
 40
0.6666666666666666
 40
0.6666666666666666
 40
0.7333333333333333
 40
0.7333333333333333
 40
0.7333333333333333
 40
0.7333333333333333
 40
0.8
 40
0.8
 40
0.8
 40
0.8
 40
0.8666666666666667
 40
0.8666666666666667
 40
0.8666666666666667
 40
0.8666666666666667
 40
1.0
 40
1.0
 40
1.0
 40
1.0
 10
-16.0575
 20
23.7618
 30
0.0
 10
-16.0575
 20
23.7618
 30
0.0
 10
-16.0552
 20
24.5139
 30
0.0
 10
-16.0552
 20
24.5139
 30
0.0
 10
-16.0552
 20
24.5139
 30
0.0
 10
-16.0552
 20
24.5139
 30
0.0
 10
-16.0441
 20
24.6207
 30
0.0
 10
-16.0441
 20
24.6207
 30
0.0
 10
-16.0441
 20
24.6207
 30
0.0
 10
-16.0441
 20
24.6207
 30
0.0
 10
-16.0085
 20
24.742
 30
0.0
 10
-16.0085
 20
24.742
 30
0.0
 10
-16.0085
 20
24.742
 30
0.0
 10
-16.0085
 20
24.742
 30
0.0
 10
-15.95
 20
24.8567
 30
0.0
 10
-15.95
 20
24.8567
 30
0.0
 10
-15.95
 20
24.8567
 30
0.0
 10
-15.95
 20
24.8567
 30
0.0
 10
-15.8726
 20
24.9566
 30
0.0
 10
-15.8726
 20
24.9566
 30
0.0
 10
-15.8726
 20
24.9566
 30
0.0
 10
-15.8726
 20
24.9566
 30
0.0
 10
-15.7737
 20
25.0438
 30
0.0
 10
-15.7737
 20
25.0438
 30
0.0
 10
-15.7737
 20
25.0438
 30
0.0
 10
-15.7737
 20
25.0438
 30
0.0
 10
-15.6558
 20
25.1122
 30
0.0
 10
-15.6558
 20
25.1122
 30
0.0
 10
-15.6558
 20
25.1122
 30
0.0
 10
-15.6558
 20
25.1122
 30
0.0
 10
-15.5233
 20
25.1567
 30
0.0
 10
-15.5233
 20
25.1567
 30
0.0
 10
-15.5233
 20
25.1567
 30
0.0
 10
-15.5233
 20
25.1567
 30
0.0
 10
-15.3731
 20
25.1734
 30
0.0
 10
-15.3731
 20
25.1734
 30
0.0
 10
-15.3731
 20
25.1734
 30
0.0
 10
-15.3731
 20
25.1734
 30
0.0
 10
-15.0723
 20
25.1147
 30
0.0
 10
-15.0723
 20
25.1147
 30
0.0
 10
-15.0723
 20
25.1147
 30
0.0
 10
-15.0723
 20
25.1147
 30
0.0
 10
-14.8911
 20
25.0012
 30
0.0
 10
-14.8911
 20
25.0012
 30
0.0
 10
-14.8911
 20
25.0012
 30
0.0
 10
-14.8911
 20
25.0012
 30
0.0
 10
-14.7665
 20
24.8311
 30
0.0
 10
-14.7665
 20
24.8311
 30
0.0
 10
-14.7665
 20
24.8311
 30
0.0
 10
-14.7665
 20
24.8311
 30
0.0
 10
-14.7326
 20
24.6608
 30
0.0
 10
-14.7326
 20
24.6608
 30
0.0
 10
-14.7326
 20
24.6608
 30
0.0
 10
-14.7326
 20
24.6608
 30
0.0
 10
-14.7212
 20
23.787
 30
0.0
 10
-14.7212
 20
23.787
 30
0.0
  0
SPLINE
  5
9E
330
1F
100
AcDbEntity
  8
DEFAULT_1
 62
   250
100
AcDbSpline
210
0.0
220
0.0
230
1.0
 70
    11
 71
     3
 72
    40
 73
    36
 74
     0
 42
0.0000000001
 43
0.0000000001
 40
0.0
 40
0.0
 40
0.0
 40
0.0
 40
0.1
 40
0.1
 40
0.1
 40
0.1
 40
0.2
 40
0.2
 40
0.2
 40
0.2
 40
0.3
 40
0.3
 40
0.3
 40
0.3
 40
0.4
 40
0.4
 40
0.4
 40
0.4
 40
0.5
 40
0.5
 40
0.5
 40
0.5
 40
0.6
 40
0.6
 40
0.6
 40
0.6
 40
0.7
 40
0.7
 40
0.7
 40
0.7
 40
0.8
 40
0.8
 40
0.8
 40
0.8
 40
1.0
 40
1.0
 40
1.0
 40
1.0
 10
-16.0567
 20
23.7618
 30
0.0
 10
-16.0569
 20
23.7618
 30
0.0
 10
-16.0572
 20
23.7618
 30
0.0
 10
-16.0575
 20
23.7618
 30
0.0
 10
-16.0575
 20
23.7618
 30
0.0
 10
-16.9687
 20
23.7158
 30
0.0
 10
-17.8729
 20
23.5785
 30
0.0
 10
-18.7566
 20
23.3518
 30
0.0
 10
-18.7566
 20
23.3518
 30
0.0
 10
-18.7566
 20
23.3518
 30
0.0
 10
-18.4796
 20
21.477
 30
0.0
 10
-18.4796
 20
21.477
 30
0.0
 10
-18.4796
 20
21.477
 30
0.0
 10
-18.4796
 20
21.477
 30
0.0
 10
-12.2858
 20
21.4915
 30
0.0
 10
-12.2858
 20
21.4915
 30
0.0
 10
-12.2858
 20
21.4915
 30
0.0
 10
-12.2858
 20
21.4915
 30
0.0
 10
-11.9957
 20
23.4207
 30
0.0
 10
-11.9957
 20
23.4207
 30
0.0
 10
-11.9957
 20
23.4207
 30
0.0
 10
-11.9957
 20
23.4207
 30
0.0
 10
-13.6928
 20
23.6673
 30
0.0
 10
-13.6928
 20
23.6673
 30
0.0
 10
-13.6928
 20
23.6673
 30
0.0
 10
-13.6928
 20
23.6673
 30
0.0
 10
-14.5631
 20
23.7833
 30
0.0
 10
-14.5631
 20
23.7833
 30
0.0
 10
-14.5631
 20
23.7833
 30
0.0
 10
-14.5631
 20
23.7833
 30
0.0
 10
-14.8619
 20
23.779
 30
0.0
 10
-14.8619
 20
23.779
 30
0.0
 10
-14.8619
 20
23.779
 30
0.0
 10
-14.8619
 20
23.779
 30
0.0
 10
-16.0567
 20
23.7618
 30
0.0
 10
-16.0567
 20
23.7618
 30
0.0
  0
SPLINE
  5
9F
330
1F
100
AcDbEntity
  8
DEFAULT_1
 62
   250
100
AcDbSpline
210
0.0
220
0.0
230
1.0
 70
     8
 71
     3
 72
    16
 73
    12
 74
     0
 42
0.0000000001
 43
0.0000000001
 40
0.0
 40
0.0
 40
0.0
 40
0.0
 40
0.25
 40
0.25
 40
0.25
 40
0.25
 40
0.5
 40
0.5
 40
0.5
 40
0.5
 40
1.0
 40
1.0
 40
1.0
 40
1.0
 10
-14.16
 20
24.5991
 30
0.0
 10
-14.16
 20
24.5991
 30
0.0
 10
-13.6474
 20
24.5991
 30
0.0
 10
-13.6474
 20
24.5991
 30
0.0
 10
-13.6474
 20
24.5991
 30
0.0
 10
-13.6474
 20
24.5991
 30
0.0
 10
-13.6414
 20
23.9422
 30
0.0
 10
-13.6414
 20
23.9422
 30
0.0
 10
-13.6414
 20
23.9422
 30
0.0
 10
-13.6414
 20
23.9422
 30
0.0
 10
-14.1424
 20
23.9313
 30
0.0
 10
-14.1424
 20
23.9313
 30
0.0
  0
SPLINE
  5
A0
330
1F
100
AcDbEntity
  8
DEFAULT_1
 62
   250
100
AcDbSpline
210
0.0
220
0.0
230
1.0
 70
     8
 71
     3
 72
    24
 73
    20
 74
     0
 42
0.0000000001
 43
0.0000000001
 40
0.0
 40
0.0
 40
0.0
 40
0.0
 40
0.1666666666666667
 40
0.1666666666666667
 40
0.1666666666666667
 40
0.1666666666666667
 40
0.3333333333333333
 40
0.3333333333333333
 40
0.3333333333333333
 40
0.3333333333333333
 40
0.5
 40
0.5
 40
0.5
 40
0.5
 40
0.6666666666666666
 40
0.6666666666666666
 40
0.6666666666666666
 40
0.6666666666666666
 40
1.0
 40
1.0
 40
1.0
 40
1.0
 10
-16.6243
 20
24.5006
 30
0.0
 10
-16.6243
 20
24.5006
 30
0.0
 10
-17.0015
 20
24.3933
 30
0.0
 10
-17.0015
 20
24.3933
 30
0.0
 10
-17.0015
 20
24.3933
 30
0.0
 10
-17.039
 20
24.3833
 30
0.0
 10
-17.0648
 20
24.3496
 30
0.0
 10
-17.0648
 20
24.3108
 30
0.0
 10
-17.0648
 20
24.3108
 30
0.0
 10
-17.0648
 20
24.3108
 30
0.0
 10
-17.0639
 20
24.1625
 30
0.0
 10
-17.0639
 20
24.1625
 30
0.0
 10
-17.0639
 20
24.1625
 30
0.0
 10
-17.0639
 20
24.1625
 30
0.0
 10
-16.9975
 20
24.1215
 30
0.0
 10
-16.9975
 20
24.1215
 30
0.0
 10
-16.9975
 20
24.1215
 30
0.0
 10
-16.9975
 20
24.1215
 30
0.0
 10
-16.6165
 20
23.9986
 30
0.0
 10
-16.6165
 20
23.9986
 30
0.0
  0
SPLINE
  5
A1
330
1F
100
AcDbEntity
  8
DEFAULT_1
 62
   250
100
AcDbSpline
210
0.0
220
0.0
230
1.0
 70
     8
 71
     3
 72
    36
 73
    32
 74
     0
 42
0.0000000001
 43
0.0000000001
 40
0.0
 40
0.0
 40
0.0
 40
0.0
 40
0.1111111111111111
 40
0.1111111111111111
 40
0.1111111111111111
 40
0.1111111111111111
 40
0.2222222222222222
 40
0.2222222222222222
 40
0.2222222222222222
 40
0.2222222222222222
 40
0.3333333333333333
 40
0.3333333333333333
 40
0.3333333333333333
 40
0.3333333333333333
 40
0.4444444444444444
 40
0.4444444444444444
 40
0.4444444444444444
 40
0.4444444444444444
 40
0.5555555555555556
 40
0.5555555555555556
 40
0.5555555555555556
 40
0.5555555555555556
 40
0.6666666666666666
 40
0.6666666666666666
 40
0.6666666666666666
 40
0.6666666666666666
 40
0.7777777777777778
 40
0.7777777777777778
 40
0.7777777777777778
 40
0.7777777777777778
 40
1.0
 40
1.0
 40
1.0
 40
1.0
 10
-16.0679
 20
23.7811
 30
0.0
 10
-16.0679
 20
23.7811
 30
0.0
 10
-16.0679
 20
25.3214
 30
0.0
 10
-16.0679
 20
25.3214
 30
0.0
 10
-16.0679
 20
25.3214
 30
0.0
 10
-16.0679
 20
25.3214
 30
0.0
 10
-16.1051
 20
25.4165
 30
0.0
 10
-16.1051
 20
25.4165
 30
0.0
 10
-16.1051
 20
25.4165
 30
0.0
 10
-16.4815
 20
25.7255
 30
0.0
 10
-16.6233
 20
26.2378
 30
0.0
 10
-16.4591
 20
26.6966
 30
0.0
 10
-16.4591
 20
26.6966
 30
0.0
 10
-16.2951
 20
27.1552
 30
0.0
 10
-15.8604
 20
27.4613
 30
0.0
 10
-15.3733
 20
27.4613
 30
0.0
 10
-15.3733
 20
27.4613
 30
0.0
 10
-14.8861
 20
27.4613
 30
0.0
 10
-14.4514
 20
27.1552
 30
0.0
 10
-14.2873
 20
26.6966
 30
0.0
 10
-14.2873
 20
26.6966
 30
0.0
 10
-14.1231
 20
26.2378
 30
0.0
 10
-14.2649
 20
25.7255
 30
0.0
 10
-14.6414
 20
25.4165
 30
0.0
 10
-14.6414
 20
25.4165
 30
0.0
 10
-14.6414
 20
25.4165
 30
0.0
 10
-14.6942
 20
25.2669
 30
0.0
 10
-14.6942
 20
25.2669
 30
0.0
 10
-14.6942
 20
25.2669
 30
0.0
 10
-14.6942
 20
25.2669
 30
0.0
 10
-14.6834
 20
23.7703
 30
0.0
 10
-14.6834
 20
23.7703
 30
0.0
  0
SPLINE
  5
A2
330
1F
100
AcDbEntity
  8
DEFAULT_1
 62
   250
100
AcDbSpline
210
0.0
220
0.0
230
1.0
 70
     8
 71
     3
 72
    24
 73
    20
 74
     0
 42
0.0000000001
 43
0.0000000001
 40
0.0
 40
0.0
 40
0.0
 40
0.0
 40
0.1666666666666667
 40
0.1666666666666667
 40
0.1666666666666667
 40
0.1666666666666667
 40
0.3333333333333333
 40
0.3333333333333333
 40
0.3333333333333333
 40
0.3333333333333333
 40
0.5
 40
0.5
 40
0.5
 40
0.5
 40
0.6666666666666666
 40
0.6666666666666666
 40
0.6666666666666666
 40
0.6666666666666666
 40
1.0
 40
1.0
 40
1.0
 40
1.0
 10
-16.5912
 20
23.7265
 30
0.0
 10
-16.5912
 20
23.7265
 30
0.0
 10
-16.5864
 20
25.1047
 30
0.0
 10
-16.5864
 20
25.1047
 30
0.0
 10
-16.5864
 20
25.1047
 30
0.0
 10
-17.2498
 20
25.7734
 30
0.0
 10
-17.2468
 20
26.8528
 30
0.0
 10
-16.5798
 20
27.5178
 30
0.0
 10
-16.5798
 20
27.5178
 30
0.0
 10
-15.913
 20
28.1829
 30
0.0
 10
-14.8335
 20
28.1829
 30
0.0
 10
-14.1666
 20
27.5178
 30
0.0
 10
-14.1666
 20
27.5178
 30
0.0
 10
-13.4996
 20
26.8528
 30
0.0
 10
-13.4968
 20
25.7734
 30
0.0
 10
-14.16
 20
25.1047
 30
0.0
 10
-14.16
 20
25.1047
 30
0.0
 10
-14.16
 20
25.1047
 30
0.0
 10
-14.1819
 20
23.7375
 30
0.0
 10
-14.1819
 20
23.7375
 30
0.0
  0
SPLINE
  5
A3
330
1F
100
AcDbEntity
  8
DEFAULT_1
 62
   250
100
AcDbSpline
210
0.0
220
0.0
230
1.0
 70
    11
 71
     3
 72
   164
 73
   160
 74
     0
 42
0.0000000001
 43
0.0000000001
 40
0.0
 40
0.0
 40
0.0
 40
0.0
 40
0.024390243902439
 40
0.024390243902439
 40
0.024390243902439
 40
0.024390243902439
 40
0.0487804878048781
 40
0.0487804878048781
 40
0.0487804878048781
 40
0.0487804878048781
 40
0.0731707317073171
 40
0.0731707317073171
 40
0.0731707317073171
 40
0.0731707317073171
 40
0.0975609756097561
 40
0.0975609756097561
 40
0.0975609756097561
 40
0.0975609756097561
 40
0.1219512195121951
 40
0.1219512195121951
 40
0.1219512195121951
 40
0.1219512195121951
 40
0.1463414634146341
 40
0.1463414634146341
 40
0.1463414634146341
 40
0.1463414634146341
 40
0.1707317073170732
 40
0.1707317073170732
 40
0.1707317073170732
 40
0.1707317073170732
 40
0.1951219512195122
 40
0.1951219512195122
 40
0.1951219512195122
 40
0.1951219512195122
 40
0.2195121951219512
 40
0.2195121951219512
 40
0.2195121951219512
 40
0.2195121951219512
 40
0.2439024390243902
 40
0.2439024390243902
 40
0.2439024390243902
 40
0.2439024390243902
 40
0.2682926829268293
 40
0.2682926829268293
 40
0.2682926829268293
 40
0.2682926829268293
 40
0.2926829268292683
 40
0.2926829268292683
 40
0.2926829268292683
 40
0.2926829268292683
 40
0.3170731707317073
 40
0.3170731707317073
 40
0.3170731707317073
 40
0.3170731707317073
 40
0.3414634146341464
 40
0.3414634146341464
 40
0.3414634146341464
 40
0.3414634146341464
 40
0.3658536585365854
 40
0.3658536585365854
 40
0.3658536585365854
 40
0.3658536585365854
 40
0.3902439024390244
 40
0.3902439024390244
 40
0.3902439024390244
 40
0.3902439024390244
 40
0.4146341463414634
 40
0.4146341463414634
 40
0.4146341463414634
 40
0.4146341463414634
 40
0.4390243902439024
 40
0.4390243902439024
 40
0.4390243902439024
 40
0.4390243902439024
 40
0.4634146341463415
 40
0.4634146341463415
 40
0.4634146341463415
 40
0.4634146341463415
 40
0.4878048780487805
 40
0.4878048780487805
 40
0.4878048780487805
 40
0.4878048780487805
 40
0.5121951219512195
 40
0.5121951219512195
 40
0.5121951219512195
 40
0.5121951219512195
 40
0.5365853658536586
 40
0.5365853658536586
 40
0.5365853658536586
 40
0.5365853658536586
 40
0.5609756097560976
 40
0.5609756097560976
 40
0.5609756097560976
 40
0.5609756097560976
 40
0.5853658536585366
 40
0.5853658536585366
 40
0.5853658536585366
 40
0.5853658536585366
 40
0.6097560975609756
 40
0.6097560975609756
 40
0.6097560975609756
 40
0.6097560975609756
 40
0.6341463414634146
 40
0.6341463414634146
 40
0.6341463414634146
 40
0.6341463414634146
 40
0.6585365853658537
 40
0.6585365853658537
 40
0.6585365853658537
 40
0.6585365853658537
 40
0.6829268292682927
 40
0.6829268292682927
 40
0.6829268292682927
 40
0.6829268292682927
 40
0.7073170731707317
 40
0.7073170731707317
 40
0.7073170731707317
 40
0.7073170731707317
 40
0.7317073170731707
 40
0.7317073170731707
 40
0.7317073170731707
 40
0.7317073170731707
 40
0.7560975609756098
 40
0.7560975609756098
 40
0.7560975609756098
 40
0.7560975609756098
 40
0.7804878048780488
 40
0.7804878048780488
 40
0.7804878048780488
 40
0.7804878048780488
 40
0.8048780487804879
 40
0.8048780487804879
 40
0.8048780487804879
 40
0.8048780487804879
 40
0.8292682926829268
 40
0.8292682926829268
 40
0.8292682926829268
 40
0.8292682926829268
 40
0.8536585365853658
 40
0.8536585365853658
 40
0.8536585365853658
 40
0.8536585365853658
 40
0.8780487804878049
 40
0.8780487804878049
 40
0.8780487804878049
 40
0.8780487804878049
 40
0.9024390243902439
 40
0.9024390243902439
 40
0.9024390243902439
 40
0.9024390243902439
 40
0.926829268292683
 40
0.926829268292683
 40
0.926829268292683
 40
0.926829268292683
 40
0.9512195121951219
 40
0.9512195121951219
 40
0.9512195121951219
 40
0.9512195121951219
 40
1.0
 40
1.0
 40
1.0
 40
1.0
 10
-15.1629
 20
6.7965
 30
0.0
 10
-15.1629
 20
6.7965
 30
0.0
 10
-12.7201
 20
6.7965
 30
0.0
 10
-12.7201
 20
6.7965
 30
0.0
 10
-12.7201
 20
6.7965
 30
0.0
 10
-12.7201
 20
6.7965
 30
0.0
 10
-12.7323
 20
5.7862
 30
0.0
 10
-12.7323
 20
5.7862
 30
0.0
 10
-12.7323
 20
5.7862
 30
0.0
 10
-12.7323
 20
5.7862
 30
0.0
 10
-12.6634
 20
5.636
 30
0.0
 10
-12.6634
 20
5.636
 30
0.0
 10
-12.6634
 20
5.636
 30
0.0
 10
-12.6634
 20
5.636
 30
0.0
 10
-12.5344
 20
5.5253
 30
0.0
 10
-12.5344
 20
5.5253
 30
0.0
 10
-12.5344
 20
5.5253
 30
0.0
 10
-12.5344
 20
5.5253
 30
0.0
 10
-12.4396
 20
5.5411
 30
0.0
 10
-12.4396
 20
5.5411
 30
0.0
 10
-12.4396
 20
5.5411
 30
0.0
 10
-12.4396
 20
5.5411
 30
0.0
 10
-12.3621
 20
5.6043
 30
0.0
 10
-12.3621
 20
5.6043
 30
0.0
 10
-12.3621
 20
5.6043
 30
0.0
 10
-12.3621
 20
5.6043
 30
0.0
 10
-12.3189
 20
5.7071
 30
0.0
 10
-12.3189
 20
5.7071
 30
0.0
 10
-12.3189
 20
5.7071
 30
0.0
 10
-12.3189
 20
5.7071
 30
0.0
 10
-12.276
 20
5.8496
 30
0.0
 10
-12.276
 20
5.8496
 30
0.0
 10
-12.276
 20
5.8496
 30
0.0
 10
-12.276
 20
5.8496
 30
0.0
 10
-12.276
 20
6.7905
 30
0.0
 10
-12.276
 20
6.7905
 30
0.0
 10
-12.276
 20
6.7905
 30
0.0
 10
-12.276
 20
6.7905
 30
0.0
 10
-11.3203
 20
6.7984
 30
0.0
 10
-11.3203
 20
6.7984
 30
0.0
 10
-11.3203
 20
6.7984
 30
0.0
 10
-11.3203
 20
6.7984
 30
0.0
 10
-11.3375
 20
5.0745
 30
0.0
 10
-11.3375
 20
5.0745
 30
0.0
 10
-11.3375
 20
5.0745
 30
0.0
 10
-11.3375
 20
5.0745
 30
0.0
 10
-11.3805
 20
4.9717
 30
0.0
 10
-11.3805
 20
4.9717
 30
0.0
 10
-11.3805
 20
4.9717
 30
0.0
 10
-11.3805
 20
4.9717
 30
0.0
 10
-11.4752
 20
4.8926
 30
0.0
 10
-11.4752
 20
4.8926
 30
0.0
 10
-11.4752
 20
4.8926
 30
0.0
 10
-11.4752
 20
4.8926
 30
0.0
 10
-11.5526
 20
4.853
 30
0.0
 10
-11.5526
 20
4.853
 30
0.0
 10
-11.5526
 20
4.853
 30
0.0
 10
-11.5526
 20
4.853
 30
0.0
 10
-11.6647
 20
4.8213
 30
0.0
 10
-11.6647
 20
4.8213
 30
0.0
 10
-11.6647
 20
4.8213
 30
0.0
 10
-11.6647
 20
4.8213
 30
0.0
 10
-19.2998
 20
4.8156
 30
0.0
 10
-19.2998
 20
4.8156
 30
0.0
 10
-19.2998
 20
4.8156
 30
0.0
 10
-19.2998
 20
4.8156
 30
0.0
 10
-19.4568
 20
4.8706
 30
0.0
 10
-19.4568
 20
4.8706
 30
0.0
 10
-19.4568
 20
4.8706
 30
0.0
 10
-19.4568
 20
4.8706
 30
0.0
 10
-19.563
 20
4.9541
 30
0.0
 10
-19.563
 20
4.9541
 30
0.0
 10
-19.563
 20
4.9541
 30
0.0
 10
-19.563
 20
4.9541
 30
0.0
 10
-19.5935
 20
5.1005
 30
0.0
 10
-19.5935
 20
5.1005
 30
0.0
 10
-19.5935
 20
5.1005
 30
0.0
 10
-19.5935
 20
5.1005
 30
0.0
 10
-19.5935
 20
6.8147
 30
0.0
 10
-19.5935
 20
6.8147
 30
0.0
 10
-19.5935
 20
6.8147
 30
0.0
 10
-19.5935
 20
6.8147
 30
0.0
 10
-18.6222
 20
6.8078
 30
0.0
 10
-18.6222
 20
6.8078
 30
0.0
 10
-18.6222
 20
6.8078
 30
0.0
 10
-18.6222
 20
6.8078
 30
0.0
 10
-18.645
 20
5.8112
 30
0.0
 10
-18.645
 20
5.8112
 30
0.0
 10
-18.645
 20
5.8112
 30
0.0
 10
-18.645
 20
5.8112
 30
0.0
 10
-18.5919
 20
5.6231
 30
0.0
 10
-18.5919
 20
5.6231
 30
0.0
 10
-18.5919
 20
5.6231
 30
0.0
 10
-18.5919
 20
5.6231
 30
0.0
 10
-18.5311
 20
5.5396
 30
0.0
 10
-18.5311
 20
5.5396
 30
0.0
 10
-18.5311
 20
5.5396
 30
0.0
 10
-18.5311
 20
5.5396
 30
0.0
 10
-18.4628
 20
5.5396
 30
0.0
 10
-18.4628
 20
5.5396
 30
0.0
 10
-18.4628
 20
5.5396
 30
0.0
 10
-18.4628
 20
5.5396
 30
0.0
 10
-18.387
 20
5.5396
 30
0.0
 10
-18.387
 20
5.5396
 30
0.0
 10
-18.387
 20
5.5396
 30
0.0
 10
-18.387
 20
5.5396
 30
0.0
 10
-18.2808
 20
5.6162
 30
0.0
 10
-18.2808
 20
5.6162
 30
0.0
 10
-18.2808
 20
5.6162
 30
0.0
 10
-18.2808
 20
5.6162
 30
0.0
 10
-18.2125
 20
5.7346
 30
0.0
 10
-18.2125
 20
5.7346
 30
0.0
 10
-18.2125
 20
5.7346
 30
0.0
 10
-18.2125
 20
5.7346
 30
0.0
 10
-18.2125
 20
5.8043
 30
0.0
 10
-18.2125
 20
5.8043
 30
0.0
 10
-18.2125
 20
5.8043
 30
0.0
 10
-18.2125
 20
5.8043
 30
0.0
 10
-18.2125
 20
6.7938
 30
0.0
 10
-18.2125
 20
6.7938
 30
0.0
 10
-18.2125
 20
6.7938
 30
0.0
 10
-18.2125
 20
6.7938
 30
0.0
 10
-15.7466
 20
6.7938
 30
0.0
 10
-15.7466
 20
6.7938
 30
0.0
 10
-15.7466
 20
6.7938
 30
0.0
 10
-15.7466
 20
6.7938
 30
0.0
 10
-15.7466
 20
5.8252
 30
0.0
 10
-15.7466
 20
5.8252
 30
0.0
 10
-15.7466
 20
5.8252
 30
0.0
 10
-15.7466
 20
5.8252
 30
0.0
 10
-15.7162
 20
5.6928
 30
0.0
 10
-15.7162
 20
5.6928
 30
0.0
 10
-15.7162
 20
5.6928
 30
0.0
 10
-15.7162
 20
5.6928
 30
0.0
 10
-15.6404
 20
5.5953
 30
0.0
 10
-15.6404
 20
5.5953
 30
0.0
 10
-15.6404
 20
5.5953
 30
0.0
 10
-15.6404
 20
5.5953
 30
0.0
 10
-15.4962
 20
5.5534
 30
0.0
 10
-15.4962
 20
5.5534
 30
0.0
 10
-15.4962
 20
5.5534
 30
0.0
 10
-15.4962
 20
5.5534
 30
0.0
 10
-15.352
 20
5.5743
 30
0.0
 10
-15.352
 20
5.5743
 30
0.0
 10
-15.352
 20
5.5743
 30
0.0
 10
-15.352
 20
5.5743
 30
0.0
 10
-15.2459
 20
5.6162
 30
0.0
 10
-15.2459
 20
5.6162
 30
0.0
 10
-15.2459
 20
5.6162
 30
0.0
 10
-15.2459
 20
5.6162
 30
0.0
 10
-15.185
 20
5.6789
 30
0.0
 10
-15.185
 20
5.6789
 30
0.0
 10
-15.185
 20
5.6789
 30
0.0
 10
-15.185
 20
5.6789
 30
0.0
 10
-15.1547
 20
5.7417
 30
0.0
 10
-15.1547
 20
5.7417
 30
0.0
 10
-15.1547
 20
5.7417
 30
0.0
 10
-15.1547
 20
5.7417
 30
0.0
 10
-15.1629
 20
6.7965
 30
0.0
 10
-15.1629
 20
6.7965
 30
0.0
  0
SPLINE
  5
A4
330
1F
100
AcDbEntity
  8
DEFAULT_1
 62
   250
100
AcDbSpline
210
0.0
220
0.0
230
1.0
 70
    11
 71
     3
 72
    28
 73
    24
 74
     0
 42
0.0000000001
 43
0.0000000001
 40
0.0
 40
0.0
 40
0.0
 40
0.0
 40
0.1428571428571428
 40
0.1428571428571428
 40
0.1428571428571428
 40
0.1428571428571428
 40
0.2857142857142857
 40
0.2857142857142857
 40
0.2857142857142857
 40
0.2857142857142857
 40
0.4285714285714285
 40
0.4285714285714285
 40
0.4285714285714285
 40
0.4285714285714285
 40
0.5714285714285714
 40
0.5714285714285714
 40
0.5714285714285714
 40
0.5714285714285714
 40
0.7142857142857143
 40
0.7142857142857143
 40
0.7142857142857143
 40
0.7142857142857143
 40
1.0
 40
1.0
 40
1.0
 40
1.0
 10
-11.2647
 20
5.5303
 30
0.0
 10
-11.2647
 20
5.5303
 30
0.0
 10
-11.2647
 20
7.2186
 30
0.0
 10
-11.2647
 20
7.2186
 30
0.0
 10
-11.2647
 20
7.2186
 30
0.0
 10
-11.2647
 20
7.2186
 30
0.0
 10
-19.6726
 20
7.2186
 30
0.0
 10
-19.6726
 20
7.2186
 30
0.0
 10
-19.6726
 20
7.2186
 30
0.0
 10
-19.6726
 20
7.2186
 30
0.0
 10
-19.6726
 20
5.5303
 30
0.0
 10
-19.6726
 20
5.5303
 30
0.0
 10
-19.6726
 20
5.5303
 30
0.0
 10
-19.6726
 20
5.5303
 30
0.0
 10
-19.6726
 20
7.2186
 30
0.0
 10
-19.6726
 20
7.2186
 30
0.0
 10
-19.6726
 20
7.2186
 30
0.0
 10
-19.6726
 20
7.2186
 30
0.0
 10
-11.2647
 20
7.2186
 30
0.0
 10
-11.2647
 20
7.2186
 30
0.0
 10
-11.2647
 20
7.2186
 30
0.0
 10
-11.2647
 20
7.2186
 30
0.0
 10
-11.2647
 20
5.5303
 30
0.0
 10
-11.2647
 20
5.5303
 30
0.0
  0
SPLINE
  5
A5
330
1F
100
AcDbEntity
  8
DEFAULT_1
 62
   250
100
AcDbSpline
210
0.0
220
0.0
230
1.0
 70
    11
 71
     3
 72
    20
 73
    16
 74
     0
 42
0.0000000001
 43
0.0000000001
 40
0.0
 40
0.0
 40
0.0
 40
0.0
 40
0.2
 40
0.2
 40
0.2
 40
0.2
 40
0.4
 40
0.4
 40
0.4
 40
0.4
 40
0.6
 40
0.6
 40
0.6
 40
0.6
 40
1.0
 40
1.0
 40
1.0
 40
1.0
 10
7.0346
 20
-24.8686
 30
0.0
 10
7.0346
 20
-24.8686
 30
0.0
 10
7.3875
 20
-22.3686
 30
0.0
 10
7.3875
 20
-22.3686
 30
0.0
 10
7.3875
 20
-22.3686
 30
0.0
 10
7.3875
 20
-22.3686
 30
0.0
 10
7.4658
 20
-22.3686
 30
0.0
 10
7.4658
 20
-22.3686
 30
0.0
 10
7.4658
 20
-22.3686
 30
0.0
 10
7.4658
 20
-22.3686
 30
0.0
 10
7.8421
 20
-24.8686
 30
0.0
 10
7.8421
 20
-24.8686
 30
0.0
 10
7.8421
 20
-24.8686
 30
0.0
 10
7.8421
 20
-24.8686
 30
0.0
 10
7.0346
 20
-24.8686
 30
0.0
 10
7.0346
 20
-24.8686
 30
0.0
  0
SPLINE
  5
A6
330
1F
100
AcDbEntity
  8
DEFAULT_1
 62
   250
100
AcDbSpline
210
0.0
220
0.0
230
1.0
 70
    11
 71
     3
 72
    20
 73
    16
 74
     0
 42
0.0000000001
 43
0.0000000001
 40
0.0
 40
0.0
 40
0.0
 40
0.0
 40
0.2
 40
0.2
 40
0.2
 40
0.2
 40
0.4
 40
0.4
 40
0.4
 40
0.4
 40
0.6
 40
0.6
 40
0.6
 40
0.6
 40
1.0
 40
1.0
 40
1.0
 40
1.0
 10
-24.9297
 20
-16.0729
 30
0.0
 10
-24.9297
 20
-16.0729
 30
0.0
 10
-25.2826
 20
-18.5729
 30
0.0
 10
-25.2826
 20
-18.5729
 30
0.0
 10
-25.2826
 20
-18.5729
 30
0.0
 10
-25.2826
 20
-18.5729
 30
0.0
 10
-25.3609
 20
-18.5729
 30
0.0
 10
-25.3609
 20
-18.5729
 30
0.0
 10
-25.3609
 20
-18.5729
 30
0.0
 10
-25.3609
 20
-18.5729
 30
0.0
 10
-25.7372
 20
-16.0729
 30
0.0
 10
-25.7372
 20
-16.0729
 30
0.0
 10
-25.7372
 20
-16.0729
 30
0.0
 10
-25.7372
 20
-16.0729
 30
0.0
 10
-24.9297
 20
-16.0729
 30
0.0
 10
-24.9297
 20
-16.0729
 30
0.0
  0
SPLINE
  5
A7
330
1F
100
AcDbEntity
  8
DEFAULT_1
 62
   250
100
AcDbSpline
210
0.0
220
0.0
230
1.0
 70
    11
 71
     3
 72
    20
 73
    16
 74
     0
 42
0.0000000001
 43
0.0000000001
 40
0.0
 40
0.0
 40
0.0
 40
0.0
 40
0.2
 40
0.2
 40
0.2
 40
0.2
 40
0.4
 40
0.4
 40
0.4
 40
0.4
 40
0.6
 40
0.6
 40
0.6
 40
0.6
 40
1.0
 40
1.0
 40
1.0
 40
1.0
 10
-25.7085
 20
9.1835
 30
0.0
 10
-25.7085
 20
9.1835
 30
0.0
 10
-25.3556
 20
11.6835
 30
0.0
 10
-25.3556
 20
11.6835
 30
0.0
 10
-25.3556
 20
11.6835
 30
0.0
 10
-25.3556
 20
11.6835
 30
0.0
 10
-25.2773
 20
11.6835
 30
0.0
 10
-25.2773
 20
11.6835
 30
0.0
 10
-25.2773
 20
11.6835
 30
0.0
 10
-25.2773
 20
11.6835
 30
0.0
 10
-24.901
 20
9.1835
 30
0.0
 10
-24.901
 20
9.1835
 30
0.0
 10
-24.901
 20
9.1835
 30
0.0
 10
-24.901
 20
9.1835
 30
0.0
 10
-25.7085
 20
9.1835
 30
0.0
 10
-25.7085
 20
9.1835
 30
0.0
  0
SPLINE
  5
A8
330
1F
100
AcDbEntity
  8
DEFAULT_1
 62
   250
100
AcDbSpline
210
0.0
220
0.0
230
1.0
 70
    11
 71
     3
 72
    20
 73
    16
 74
     0
 42
0.0000000001
 43
0.0000000001
 40
0.0
 40
0.0
 40
0.0
 40
0.0
 40
0.2
 40
0.2
 40
0.2
 40
0.2
 40
0.4
 40
0.4
 40
0.4
 40
0.4
 40
0.6
 40
0.6
 40
0.6
 40
0.6
 40
1.0
 40
1.0
 40
1.0
 40
1.0
 10
-20.8804
 20
-2.9238
 30
0.0
 10
-20.8804
 20
-2.9238
 30
0.0
 10
-18.3804
 20
-3.2767
 30
0.0
 10
-18.3804
 20
-3.2767
 30
0.0
 10
-18.3804
 20
-3.2767
 30
0.0
 10
-18.3804
 20
-3.2767
 30
0.0
 10
-18.3804
 20
-3.355
 30
0.0
 10
-18.3804
 20
-3.355
 30
0.0
 10
-18.3804
 20
-3.355
 30
0.0
 10
-18.3804
 20
-3.355
 30
0.0
 10
-20.8804
 20
-3.7313
 30
0.0
 10
-20.8804
 20
-3.7313
 30
0.0
 10
-20.8804
 20
-3.7313
 30
0.0
 10
-20.8804
 20
-3.7313
 30
0.0
 10
-20.8804
 20
-2.9238
 30
0.0
 10
-20.8804
 20
-2.9238
 30
0.0
  0
SPLINE
  5
A9
330
1F
100
AcDbEntity
  8
DEFAULT_1
 62
   250
100
AcDbSpline
210
0.0
220
0.0
230
1.0
 70
    11
 71
     3
 72
    20
 73
    16
 74
     0
 42
0.0000000001
 43
0.0000000001
 40
0.0
 40
0.0
 40
0.0
 40
0.0
 40
0.2
 40
0.2
 40
0.2
 40
0.2
 40
0.4
 40
0.4
 40
0.4
 40
0.4
 40
0.6
 40
0.6
 40
0.6
 40
0.6
 40
1.0
 40
1.0
 40
1.0
 40
1.0
 10
-10.0397
 20
-3.7009
 30
0.0
 10
-10.0397
 20
-3.7009
 30
0.0
 10
-12.5397
 20
-3.348
 30
0.0
 10
-12.5397
 20
-3.348
 30
0.0
 10
-12.5397
 20
-3.348
 30
0.0
 10
-12.5397
 20
-3.348
 30
0.0
 10
-12.5397
 20
-3.2697
 30
0.0
 10
-12.5397
 20
-3.2697
 30
0.0
 10
-12.5397
 20
-3.2697
 30
0.0
 10
-12.5397
 20
-3.2697
 30
0.0
 10
-10.0397
 20
-2.8934
 30
0.0
 10
-10.0397
 20
-2.8934
 30
0.0
 10
-10.0397
 20
-2.8934
 30
0.0
 10
-10.0397
 20
-2.8934
 30
0.0
 10
-10.0397
 20
-3.7009
 30
0.0
 10
-10.0397
 20
-3.7009
 30
0.0
  0
SPLINE
  5
AA
330
1F
100
AcDbEntity
  8
DEFAULT_1
 62
   250
100
AcDbSpline
210
0.0
220
0.0
230
1.0
 70
    11
 71
     3
 72
    20
 73
    16
 74
     0
 42
0.0000000001
 43
0.0000000001
 40
0.0
 40
0.0
 40
0.0
 40
0.0
 40
0.2
 40
0.2
 40
0.2
 40
0.2
 40
0.4
 40
0.4
 40
0.4
 40
0.4
 40
0.6
 40
0.6
 40
0.6
 40
0.6
 40
1.0
 40
1.0
 40
1.0
 40
1.0
 10
-24.9277
 20
21.8139
 30
0.0
 10
-24.9277
 20
21.8139
 30
0.0
 10
-25.2806
 20
19.3139
 30
0.0
 10
-25.2806
 20
19.3139
 30
0.0
 10
-25.2806
 20
19.3139
 30
0.0
 10
-25.2806
 20
19.3139
 30
0.0
 10
-25.3589
 20
19.3139
 30
0.0
 10
-25.3589
 20
19.3139
 30
0.0
 10
-25.3589
 20
19.3139
 30
0.0
 10
-25.3589
 20
19.3139
 30
0.0
 10
-25.7352
 20
21.8139
 30
0.0
 10
-25.7352
 20
21.8139
 30
0.0
 10
-25.7352
 20
21.8139
 30
0.0
 10
-25.7352
 20
21.8139
 30
0.0
 10
-24.9277
 20
21.8139
 30
0.0
 10
-24.9277
 20
21.8139
 30
0.0
  0
SPLINE
  5
AB
330
1F
100
AcDbEntity
  8
DEFAULT_1
 62
   250
100
AcDbSpline
210
0.0
220
0.0
230
1.0
 70
    11
 71
     3
 72
    20
 73
    16
 74
     0
 42
0.0000000001
 43
0.0000000001
 40
0.0
 40
0.0
 40
0.0
 40
0.0
 40
0.2
 40
0.2
 40
0.2
 40
0.2
 40
0.4
 40
0.4
 40
0.4
 40
0.4
 40
0.6
 40
0.6
 40
0.6
 40
0.6
 40
1.0
 40
1.0
 40
1.0
 40
1.0
 10
23.1017
 20
35.5476
 30
0.0
 10
23.1017
 20
35.5476
 30
0.0
 10
25.6017
 20
35.1947
 30
0.0
 10
25.6017
 20
35.1947
 30
0.0
 10
25.6017
 20
35.1947
 30
0.0
 10
25.6017
 20
35.1947
 30
0.0
 10
25.6017
 20
35.1164
 30
0.0
 10
25.6017
 20
35.1164
 30
0.0
 10
25.6017
 20
35.1164
 30
0.0
 10
25.6017
 20
35.1164
 30
0.0
 10
23.1017
 20
34.7401
 30
0.0
 10
23.1017
 20
34.7401
 30
0.0
 10
23.1017
 20
34.7401
 30
0.0
 10
23.1017
 20
34.7401
 30
0.0
 10
23.1017
 20
35.5476
 30
0.0
 10
23.1017
 20
35.5476
 30
0.0
  0
SPLINE
  5
AC
330
1F
100
AcDbEntity
  8
DEFAULT_1
 62
   250
100
AcDbSpline
210
0.0
220
0.0
230
1.0
 70
    11
 71
     3
 72
    20
 73
    16
 74
     0
 42
0.0000000001
 43
0.0000000001
 40
0.0
 40
0.0
 40
0.0
 40
0.0
 40
0.2
 40
0.2
 40
0.2
 40
0.2
 40
0.4
 40
0.4
 40
0.4
 40
0.4
 40
0.6
 40
0.6
 40
0.6
 40
0.6
 40
1.0
 40
1.0
 40
1.0
 40
1.0
 10
-23.4591
 20
29.6972
 30
0.0
 10
-23.4591
 20
29.6972
 30
0.0
 10
-20.9591
 20
29.3443
 30
0.0
 10
-20.9591
 20
29.3443
 30
0.0
 10
-20.9591
 20
29.3443
 30
0.0
 10
-20.9591
 20
29.3443
 30
0.0
 10
-20.9591
 20
29.266
 30
0.0
 10
-20.9591
 20
29.266
 30
0.0
 10
-20.9591
 20
29.266
 30
0.0
 10
-20.9591
 20
29.266
 30
0.0
 10
-23.4591
 20
28.8897
 30
0.0
 10
-23.4591
 20
28.8897
 30
0.0
 10
-23.4591
 20
28.8897
 30
0.0
 10
-23.4591
 20
28.8897
 30
0.0
 10
-23.4591
 20
29.6972
 30
0.0
 10
-23.4591
 20
29.6972
 30
0.0
  0
SPLINE
  5
AD
330
1F
100
AcDbEntity
  8
DEFAULT_1
 62
   250
100
AcDbSpline
210
0.0
220
0.0
230
1.0
 70
    11
 71
     3
 72
    20
 73
    16
 74
     0
 42
0.0000000001
 43
0.0000000001
 40
0.0
 40
0.0
 40
0.0
 40
0.0
 40
0.2
 40
0.2
 40
0.2
 40
0.2
 40
0.4
 40
0.4
 40
0.4
 40
0.4
 40
0.6
 40
0.6
 40
0.6
 40
0.6
 40
1.0
 40
1.0
 40
1.0
 40
1.0
 10
-7.5222
 20
28.8959
 30
0.0
 10
-7.5222
 20
28.8959
 30
0.0
 10
-10.0222
 20
29.2488
 30
0.0
 10
-10.0222
 20
29.2488
 30
0.0
 10
-10.0222
 20
29.2488
 30
0.0
 10
-10.0222
 20
29.2488
 30
0.0
 10
-10.0222
 20
29.3271
 30
0.0
 10
-10.0222
 20
29.3271
 30
0.0
 10
-10.0222
 20
29.3271
 30
0.0
 10
-10.0222
 20
29.3271
 30
0.0
 10
-7.5222
 20
29.7034
 30
0.0
 10
-7.5222
 20
29.7034
 30
0.0
 10
-7.5222
 20
29.7034
 30
0.0
 10
-7.5222
 20
29.7034
 30
0.0
 10
-7.5222
 20
28.8959
 30
0.0
 10
-7.5222
 20
28.8959
 30
0.0
  0
SPLINE
  5
AE
330
1F
100
AcDbEntity
  8
DEFAULT_1
 62
   250
100
AcDbSpline
210
0.0
220
0.0
230
1.0
 70
    11
 71
     3
 72
    20
 73
    16
 74
     0
 42
0.0000000001
 43
0.0000000001
 40
0.0
 40
0.0
 40
0.0
 40
0.0
 40
0.2
 40
0.2
 40
0.2
 40
0.2
 40
0.4
 40
0.4
 40
0.4
 40
0.4
 40
0.6
 40
0.6
 40
0.6
 40
0.6
 40
1.0
 40
1.0
 40
1.0
 40
1.0
 10
-12.8663
 20
34.7768
 30
0.0
 10
-12.8663
 20
34.7768
 30
0.0
 10
-15.3663
 20
35.1297
 30
0.0
 10
-15.3663
 20
35.1297
 30
0.0
 10
-15.3663
 20
35.1297
 30
0.0
 10
-15.3663
 20
35.1297
 30
0.0
 10
-15.3663
 20
35.208
 30
0.0
 10
-15.3663
 20
35.208
 30
0.0
 10
-15.3663
 20
35.208
 30
0.0
 10
-15.3663
 20
35.208
 30
0.0
 10
-12.8663
 20
35.5843
 30
0.0
 10
-12.8663
 20
35.5843
 30
0.0
 10
-12.8663
 20
35.5843
 30
0.0
 10
-12.8663
 20
35.5843
 30
0.0
 10
-12.8663
 20
34.7768
 30
0.0
 10
-12.8663
 20
34.7768
 30
0.0
  0
SPLINE
  5
AF
330
1F
100
AcDbEntity
  8
DEFAULT_1
 62
   250
100
AcDbSpline
210
0.0
220
0.0
230
1.0
 70
    11
 71
     3
 72
    84
 73
    80
 74
     0
 42
0.0000000001
 43
0.0000000001
 40
0.0
 40
0.0
 40
0.0
 40
0.0
 40
0.0476190476190476
 40
0.0476190476190476
 40
0.0476190476190476
 40
0.0476190476190476
 40
0.0952380952380952
 40
0.0952380952380952
 40
0.0952380952380952
 40
0.0952380952380952
 40
0.1428571428571428
 40
0.1428571428571428
 40
0.1428571428571428
 40
0.1428571428571428
 40
0.1904761904761905
 40
0.1904761904761905
 40
0.1904761904761905
 40
0.1904761904761905
 40
0.2380952380952381
 40
0.2380952380952381
 40
0.2380952380952381
 40
0.2380952380952381
 40
0.2857142857142857
 40
0.2857142857142857
 40
0.2857142857142857
 40
0.2857142857142857
 40
0.3333333333333333
 40
0.3333333333333333
 40
0.3333333333333333
 40
0.3333333333333333
 40
0.3809523809523809
 40
0.3809523809523809
 40
0.3809523809523809
 40
0.3809523809523809
 40
0.4285714285714285
 40
0.4285714285714285
 40
0.4285714285714285
 40
0.4285714285714285
 40
0.4761904761904762
 40
0.4761904761904762
 40
0.4761904761904762
 40
0.4761904761904762
 40
0.5238095238095238
 40
0.5238095238095238
 40
0.5238095238095238
 40
0.5238095238095238
 40
0.5714285714285714
 40
0.5714285714285714
 40
0.5714285714285714
 40
0.5714285714285714
 40
0.6190476190476191
 40
0.6190476190476191
 40
0.6190476190476191
 40
0.6190476190476191
 40
0.6666666666666666
 40
0.6666666666666666
 40
0.6666666666666666
 40
0.6666666666666666
 40
0.7142857142857143
 40
0.7142857142857143
 40
0.7142857142857143
 40
0.7142857142857143
 40
0.7619047619047619
 40
0.7619047619047619
 40
0.7619047619047619
 40
0.7619047619047619
 40
0.8095238095238095
 40
0.8095238095238095
 40
0.8095238095238095
 40
0.8095238095238095
 40
0.8571428571428571
 40
0.8571428571428571
 40
0.8571428571428571
 40
0.8571428571428571
 40
0.9047619047619048
 40
0.9047619047619048
 40
0.9047619047619048
 40
0.9047619047619048
 40
1.0
 40
1.0
 40
1.0
 40
1.0
 10
4.8711
 20
-9.8898
 30
0.0
 10
4.8711
 20
-9.8898
 30
0.0
 10
4.6119
 20
-9.6583
 30
0.0
 10
4.6119
 20
-9.6583
 30
0.0
 10
4.6119
 20
-9.6583
 30
0.0
 10
4.6119
 20
-9.6583
 30
0.0
 10
4.7276
 20
-9.522
 30
0.0
 10
4.7276
 20
-9.522
 30
0.0
 10
4.7276
 20
-9.522
 30
0.0
 10
4.7276
 20
-9.522
 30
0.0
 10
5.0005
 20
-9.7642
 30
0.0
 10
5.0005
 20
-9.7642
 30
0.0
 10
5.0005
 20
-9.7642
 30
0.0
 10
5.118
 20
-9.6852
 30
0.0
 10
5.221
 20
-9.632
 30
0.0
 10
5.3091
 20
-9.6043
 30
0.0
 10
5.3091
 20
-9.6043
 30
0.0
 10
5.4248
 20
-9.5675
 30
0.0
 10
5.5545
 20
-9.5492
 30
0.0
 10
5.6975
 20
-9.5492
 30
0.0
 10
5.6975
 20
-9.5492
 30
0.0
 10
5.9045
 20
-9.5492
 30
0.0
 10
6.0889
 20
-9.5911
 30
0.0
 10
6.2502
 20
-9.6749
 30
0.0
 10
6.2502
 20
-9.6749
 30
0.0
 10
6.4121
 20
-9.7586
 30
0.0
 10
6.5344
 20
-9.8756
 30
0.0
 10
6.6171
 20
-10.0267
 30
0.0
 10
6.6171
 20
-10.0267
 30
0.0
 10
6.6994
 20
-10.1781
 30
0.0
 10
6.7409
 20
-10.3385
 30
0.0
 10
6.7409
 20
-10.5083
 30
0.0
 10
6.7409
 20
-10.5083
 30
0.0
 10
6.7409
 20
-10.6353
 30
0.0
 10
6.7229
 20
-10.7501
 30
0.0
 10
6.6872
 20
-10.8531
 30
0.0
 10
6.6872
 20
-10.8531
 30
0.0
 10
6.6594
 20
-10.9321
 30
0.0
 10
6.6067
 20
-11.0244
 30
0.0
 10
6.5287
 20
-11.1302
 30
0.0
 10
6.5287
 20
-11.1302
 30
0.0
 10
6.5287
 20
-11.1302
 30
0.0
 10
6.7878
 20
-11.3616
 30
0.0
 10
6.7878
 20
-11.3616
 30
0.0
 10
6.7878
 20
-11.3616
 30
0.0
 10
6.7878
 20
-11.3616
 30
0.0
 10
6.6721
 20
-11.498
 30
0.0
 10
6.6721
 20
-11.498
 30
0.0
 10
6.6721
 20
-11.498
 30
0.0
 10
6.6721
 20
-11.498
 30
0.0
 10
6.4008
 20
-11.2553
 30
0.0
 10
6.4008
 20
-11.2553
 30
0.0
 10
6.4008
 20
-11.2553
 30
0.0
 10
6.2639
 20
-11.3455
 30
0.0
 10
6.1467
 20
-11.4058
 30
0.0
 10
6.0498
 20
-11.436
 30
0.0
 10
6.0498
 20
-11.436
 30
0.0
 10
5.9529
 20
-11.466
 30
0.0
 10
5.8364
 20
-11.4815
 30
0.0
 10
5.7004
 20
-11.4815
 30
0.0
 10
5.7004
 20
-11.4815
 30
0.0
 10
5.4929
 20
-11.4815
 30
0.0
 10
5.3081
 20
-11.4402
 30
0.0
 10
5.1458
 20
-11.3574
 30
0.0
 10
5.1458
 20
-11.3574
 30
0.0
 10
4.9835
 20
-11.2746
 30
0.0
 10
4.8607
 20
-11.1589
 30
0.0
 10
4.7771
 20
-11.0093
 30
0.0
 10
4.7771
 20
-11.0093
 30
0.0
 10
4.6937
 20
-10.8602
 30
0.0
 10
4.6519
 20
-10.6941
 30
0.0
 10
4.6519
 20
-10.5111
 30
0.0
 10
4.6519
 20
-10.5111
 30
0.0
 10
4.6519
 20
-10.3879
 30
0.0
 10
4.6678
 20
-10.2803
 30
0.0
 10
4.7008
 20
-10.188
 30
0.0
 10
4.7008
 20
-10.188
 30
0.0
 10
4.7332
 20
-10.0958
 30
0.0
 10
4.7903
 20
-9.9961
 30
0.0
 10
4.8711
 20
-9.8898
 30
0.0
  0
SPLINE
  5
B0
330
1F
100
AcDbEntity
  8
DEFAULT_1
 62
   250
100
AcDbSpline
210
0.0
220
0.0
230
1.0
 70
    11
 71
     3
 72
    32
 73
    28
 74
     0
 42
0.0000000001
 43
0.0000000001
 40
0.0
 40
0.0
 40
0.0
 40
0.0
 40
0.125
 40
0.125
 40
0.125
 40
0.125
 40
0.25
 40
0.25
 40
0.25
 40
0.25
 40
0.375
 40
0.375
 40
0.375
 40
0.375
 40
0.5
 40
0.5
 40
0.5
 40
0.5
 40
0.625
 40
0.625
 40
0.625
 40
0.625
 40
0.75
 40
0.75
 40
0.75
 40
0.75
 40
1.0
 40
1.0
 40
1.0
 40
1.0
 10
5.0569
 20
-10.0548
 30
0.0
 10
4.9891
 20
-10.1414
 30
0.0
 10
4.9426
 20
-10.2171
 30
0.0
 10
4.9177
 20
-10.2816
 30
0.0
 10
4.9177
 20
-10.2816
 30
0.0
 10
4.8932
 20
-10.3465
 30
0.0
 10
4.8805
 20
-10.4227
 30
0.0
 10
4.8805
 20
-10.5098
 30
0.0
 10
4.8805
 20
-10.5098
 30
0.0
 10
4.8805
 20
-10.711
 30
0.0
 10
4.9487
 20
-10.8772
 30
0.0
 10
5.0852
 20
-11.0088
 30
0.0
 10
5.0852
 20
-11.0088
 30
0.0
 10
5.2215
 20
-11.1401
 30
0.0
 10
5.4251
 20
-11.2059
 30
0.0
 10
5.6966
 20
-11.2059
 30
0.0
 10
5.6966
 20
-11.2059
 30
0.0
 10
5.8029
 20
-11.2059
 30
0.0
 10
5.8975
 20
-11.1956
 30
0.0
 10
5.9802
 20
-11.1753
 30
0.0
 10
5.9802
 20
-11.1753
 30
0.0
 10
6.0418
 20
-11.1607
 30
0.0
 10
6.1176
 20
-11.1302
 30
0.0
 10
6.2075
 20
-11.0831
 30
0.0
 10
6.2075
 20
-11.0831
 30
0.0
 10
6.2075
 20
-11.0831
 30
0.0
 10
5.0569
 20
-10.0548
 30
0.0
 10
5.0569
 20
-10.0548
 30
0.0
  0
SPLINE
  5
B1
330
1F
100
AcDbEntity
  8
DEFAULT_1
 62
   250
100
AcDbSpline
210
0.0
220
0.0
230
1.0
 70
    11
 71
     3
 72
    28
 73
    24
 74
     0
 42
0.0000000001
 43
0.0000000001
 40
0.0
 40
0.0
 40
0.0
 40
0.0
 40
0.1428571428571428
 40
0.1428571428571428
 40
0.1428571428571428
 40
0.1428571428571428
 40
0.2857142857142857
 40
0.2857142857142857
 40
0.2857142857142857
 40
0.2857142857142857
 40
0.4285714285714285
 40
0.4285714285714285
 40
0.4285714285714285
 40
0.4285714285714285
 40
0.5714285714285714
 40
0.5714285714285714
 40
0.5714285714285714
 40
0.5714285714285714
 40
0.7142857142857143
 40
0.7142857142857143
 40
0.7142857142857143
 40
0.7142857142857143
 40
1.0
 40
1.0
 40
1.0
 40
1.0
 10
5.199
 20
-9.942
 30
0.0
 10
5.199
 20
-9.942
 30
0.0
 10
6.3452
 20
-10.966
 30
0.0
 10
6.3452
 20
-10.966
 30
0.0
 10
6.3452
 20
-10.966
 30
0.0
 10
6.4031
 20
-10.8955
 30
0.0
 10
6.4436
 20
-10.8301
 30
0.0
 10
6.4666
 20
-10.7703
 30
0.0
 10
6.4666
 20
-10.7703
 30
0.0
 10
6.4972
 20
-10.6922
 30
0.0
 10
6.5122
 20
-10.6075
 30
0.0
 10
6.5122
 20
-10.5168
 30
0.0
 10
6.5122
 20
-10.5168
 30
0.0
 10
6.5122
 20
-10.3164
 30
0.0
 10
6.4417
 20
-10.1514
 30
0.0
 10
6.3001
 20
-10.0206
 30
0.0
 10
6.3001
 20
-10.0206
 30
0.0
 10
6.1585
 20
-9.8902
 30
0.0
 10
5.96
 20
-9.8248
 30
0.0
 10
5.7046
 20
-9.8248
 30
0.0
 10
5.7046
 20
-9.8248
 30
0.0
 10
5.5137
 20
-9.8248
 30
0.0
 10
5.3448
 20
-9.8639
 30
0.0
 10
5.199
 20
-9.942
 30
0.0
  0
SPLINE
  5
B2
330
1F
100
AcDbEntity
  8
DEFAULT_1
 62
   250
100
AcDbSpline
210
0.0
220
0.0
230
1.0
 70
    11
 71
     3
 72
   124
 73
   120
 74
     0
 42
0.0000000001
 43
0.0000000001
 40
0.0
 40
0.0
 40
0.0
 40
0.0
 40
0.032258064516129
 40
0.032258064516129
 40
0.032258064516129
 40
0.032258064516129
 40
0.0645161290322581
 40
0.0645161290322581
 40
0.0645161290322581
 40
0.0645161290322581
 40
0.0967741935483871
 40
0.0967741935483871
 40
0.0967741935483871
 40
0.0967741935483871
 40
0.1290322580645161
 40
0.1290322580645161
 40
0.1290322580645161
 40
0.1290322580645161
 40
0.1612903225806452
 40
0.1612903225806452
 40
0.1612903225806452
 40
0.1612903225806452
 40
0.1935483870967742
 40
0.1935483870967742
 40
0.1935483870967742
 40
0.1935483870967742
 40
0.2258064516129032
 40
0.2258064516129032
 40
0.2258064516129032
 40
0.2258064516129032
 40
0.2580645161290323
 40
0.2580645161290323
 40
0.2580645161290323
 40
0.2580645161290323
 40
0.2903225806451613
 40
0.2903225806451613
 40
0.2903225806451613
 40
0.2903225806451613
 40
0.3225806451612903
 40
0.3225806451612903
 40
0.3225806451612903
 40
0.3225806451612903
 40
0.3548387096774194
 40
0.3548387096774194
 40
0.3548387096774194
 40
0.3548387096774194
 40
0.3870967741935484
 40
0.3870967741935484
 40
0.3870967741935484
 40
0.3870967741935484
 40
0.4193548387096774
 40
0.4193548387096774
 40
0.4193548387096774
 40
0.4193548387096774
 40
0.4516129032258064
 40
0.4516129032258064
 40
0.4516129032258064
 40
0.4516129032258064
 40
0.4838709677419355
 40
0.4838709677419355
 40
0.4838709677419355
 40
0.4838709677419355
 40
0.5161290322580645
 40
0.5161290322580645
 40
0.5161290322580645
 40
0.5161290322580645
 40
0.5483870967741935
 40
0.5483870967741935
 40
0.5483870967741935
 40
0.5483870967741935
 40
0.5806451612903226
 40
0.5806451612903226
 40
0.5806451612903226
 40
0.5806451612903226
 40
0.6129032258064516
 40
0.6129032258064516
 40
0.6129032258064516
 40
0.6129032258064516
 40
0.6451612903225806
 40
0.6451612903225806
 40
0.6451612903225806
 40
0.6451612903225806
 40
0.6774193548387096
 40
0.6774193548387096
 40
0.6774193548387096
 40
0.6774193548387096
 40
0.7096774193548387
 40
0.7096774193548387
 40
0.7096774193548387
 40
0.7096774193548387
 40
0.7419354838709677
 40
0.7419354838709677
 40
0.7419354838709677
 40
0.7419354838709677
 40
0.7741935483870968
 40
0.7741935483870968
 40
0.7741935483870968
 40
0.7741935483870968
 40
0.8064516129032258
 40
0.8064516129032258
 40
0.8064516129032258
 40
0.8064516129032258
 40
0.8387096774193549
 40
0.8387096774193549
 40
0.8387096774193549
 40
0.8387096774193549
 40
0.8709677419354839
 40
0.8709677419354839
 40
0.8709677419354839
 40
0.8709677419354839
 40
0.9032258064516129
 40
0.9032258064516129
 40
0.9032258064516129
 40
0.9032258064516129
 40
0.9354838709677419
 40
0.9354838709677419
 40
0.9354838709677419
 40
0.9354838709677419
 40
1.0
 40
1.0
 40
1.0
 40
1.0
 10
6.1731
 20
-9.2985
 30
0.0
 10
6.1731
 20
-9.2985
 30
0.0
 10
6.1401
 20
-9.0507
 30
0.0
 10
6.1401
 20
-9.0507
 30
0.0
 10
6.1401
 20
-9.0507
 30
0.0
 10
6.2808
 20
-9.0219
 30
0.0
 10
6.382
 20
-8.9735
 30
0.0
 10
6.444
 20
-8.9054
 30
0.0
 10
6.444
 20
-8.9054
 30
0.0
 10
6.5061
 20
-8.8366
 30
0.0
 10
6.5371
 20
-8.7534
 30
0.0
 10
6.5371
 20
-8.655
 30
0.0
 10
6.5371
 20
-8.655
 30
0.0
 10
6.5371
 20
-8.5385
 30
0.0
 10
6.4967
 20
-8.4396
 30
0.0
 10
6.4158
 20
-8.3593
 30
0.0
 10
6.4158
 20
-8.3593
 30
0.0
 10
6.3349
 20
-8.2792
 30
0.0
 10
6.2348
 20
-8.2388
 30
0.0
 10
6.1152
 20
-8.2388
 30
0.0
 10
6.1152
 20
-8.2388
 30
0.0
 10
6.0014
 20
-8.2388
 30
0.0
 10
5.9073
 20
-8.276
 30
0.0
 10
5.8335
 20
-8.3503
 30
0.0
 10
5.8335
 20
-8.3503
 30
0.0
 10
5.7596
 20
-8.425
 30
0.0
 10
5.7225
 20
-8.5196
 30
0.0
 10
5.7225
 20
-8.6344
 30
0.0
 10
5.7225
 20
-8.6344
 30
0.0
 10
5.7225
 20
-8.6815
 30
0.0
 10
5.7319
 20
-8.7397
 30
0.0
 10
5.7502
 20
-8.8094
 30
0.0
 10
5.7502
 20
-8.8094
 30
0.0
 10
5.7502
 20
-8.8094
 30
0.0
 10
5.5325
 20
-8.7816
 30
0.0
 10
5.5325
 20
-8.7816
 30
0.0
 10
5.5325
 20
-8.7816
 30
0.0
 10
5.5344
 20
-8.7651
 30
0.0
 10
5.5352
 20
-8.7519
 30
0.0
 10
5.5352
 20
-8.7416
 30
0.0
 10
5.5352
 20
-8.7416
 30
0.0
 10
5.5352
 20
-8.6362
 30
0.0
 10
5.5075
 20
-8.5412
 30
0.0
 10
5.4525
 20
-8.4565
 30
0.0
 10
5.4525
 20
-8.4565
 30
0.0
 10
5.3975
 20
-8.372
 30
0.0
 10
5.3123
 20
-8.3296
 30
0.0
 10
5.1975
 20
-8.3296
 30
0.0
 10
5.1975
 20
-8.3296
 30
0.0
 10
5.1067
 20
-8.3296
 30
0.0
 10
5.031
 20
-8.3606
 30
0.0
 10
4.9717
 20
-8.4223
 30
0.0
 10
4.9717
 20
-8.4223
 30
0.0
 10
4.912
 20
-8.4838
 30
0.0
 10
4.8819
 20
-8.5634
 30
0.0
 10
4.8819
 20
-8.6608
 30
0.0
 10
4.8819
 20
-8.6608
 30
0.0
 10
4.8819
 20
-8.7572
 30
0.0
 10
4.9125
 20
-8.8376
 30
0.0
 10
4.9727
 20
-8.9015
 30
0.0
 10
4.9727
 20
-8.9015
 30
0.0
 10
5.0333
 20
-8.966
 30
0.0
 10
5.1246
 20
-9.0074
 30
0.0
 10
5.2459
 20
-9.0258
 30
0.0
 10
5.2459
 20
-9.0258
 30
0.0
 10
5.2459
 20
-9.0258
 30
0.0
 10
5.2017
 20
-9.2736
 30
0.0
 10
5.2017
 20
-9.2736
 30
0.0
 10
5.2017
 20
-9.2736
 30
0.0
 10
5.0352
 20
-9.2435
 30
0.0
 10
4.9063
 20
-9.1744
 30
0.0
 10
4.8152
 20
-9.0671
 30
0.0
 10
4.8152
 20
-9.0671
 30
0.0
 10
4.7239
 20
-8.9594
 30
0.0
 10
4.6778
 20
-8.8258
 30
0.0
 10
4.6778
 20
-8.6659
 30
0.0
 10
4.6778
 20
-8.6659
 30
0.0
 10
4.6778
 20
-8.5558
 30
0.0
 10
4.7017
 20
-8.4542
 30
0.0
 10
4.7488
 20
-8.3615
 30
0.0
 10
4.7488
 20
-8.3615
 30
0.0
 10
4.7964
 20
-8.2689
 30
0.0
 10
4.8607
 20
-8.1979
 30
0.0
 10
4.9426
 20
-8.1484
 30
0.0
 10
4.9426
 20
-8.1484
 30
0.0
 10
5.0244
 20
-8.0996
 30
0.0
 10
5.1109
 20
-8.0746
 30
0.0
 10
5.2032
 20
-8.0746
 30
0.0
 10
5.2032
 20
-8.0746
 30
0.0
 10
5.2901
 20
-8.0746
 30
0.0
 10
5.3697
 20
-8.0981
 30
0.0
 10
5.4417
 20
-8.1452
 30
0.0
 10
5.4417
 20
-8.1452
 30
0.0
 10
5.5132
 20
-8.1923
 30
0.0
 10
5.5701
 20
-8.2614
 30
0.0
 10
5.6124
 20
-8.353
 30
0.0
 10
5.6124
 20
-8.353
 30
0.0
 10
5.6397
 20
-8.2336
 30
0.0
 10
5.6971
 20
-8.141
 30
0.0
 10
5.7841
 20
-8.0746
 30
0.0
 10
5.7841
 20
-8.0746
 30
0.0
 10
5.8706
 20
-8.0088
 30
0.0
 10
5.9793
 20
-7.9758
 30
0.0
 10
6.1096
 20
-7.9758
 30
0.0
 10
6.1096
 20
-7.9758
 30
0.0
 10
6.2859
 20
-7.9758
 30
0.0
 10
6.4355
 20
-8.0398
 30
0.0
 10
6.5583
 20
-8.1687
 30
0.0
 10
6.5583
 20
-8.1687
 30
0.0
 10
6.6811
 20
-8.2971
 30
0.0
 10
6.7422
 20
-8.4599
 30
0.0
 10
6.7422
 20
-8.6565
 30
0.0
 10
6.7422
 20
-8.6565
 30
0.0
 10
6.7422
 20
-8.8339
 30
0.0
 10
6.6896
 20
-8.9811
 30
0.0
 10
6.5837
 20
-9.0982
 30
0.0
 10
6.5837
 20
-9.0982
 30
0.0
 10
6.4783
 20
-9.2153
 30
0.0
 10
6.3415
 20
-9.2821
 30
0.0
 10
6.1731
 20
-9.2985
 30
0.0
  0
SPLINE
  5
B3
330
1F
100
AcDbEntity
  8
DEFAULT_1
 62
   250
100
AcDbSpline
210
0.0
220
0.0
230
1.0
 70
    11
 71
     3
 72
    92
 73
    88
 74
     0
 42
0.0000000001
 43
0.0000000001
 40
0.0
 40
0.0
 40
0.0
 40
0.0
 40
0.0434782608695652
 40
0.0434782608695652
 40
0.0434782608695652
 40
0.0434782608695652
 40
0.0869565217391304
 40
0.0869565217391304
 40
0.0869565217391304
 40
0.0869565217391304
 40
0.1304347826086956
 40
0.1304347826086956
 40
0.1304347826086956
 40
0.1304347826086956
 40
0.1739130434782609
 40
0.1739130434782609
 40
0.1739130434782609
 40
0.1739130434782609
 40
0.2173913043478261
 40
0.2173913043478261
 40
0.2173913043478261
 40
0.2173913043478261
 40
0.2608695652173913
 40
0.2608695652173913
 40
0.2608695652173913
 40
0.2608695652173913
 40
0.3043478260869565
 40
0.3043478260869565
 40
0.3043478260869565
 40
0.3043478260869565
 40
0.3478260869565217
 40
0.3478260869565217
 40
0.3478260869565217
 40
0.3478260869565217
 40
0.391304347826087
 40
0.391304347826087
 40
0.391304347826087
 40
0.391304347826087
 40
0.4347826086956522
 40
0.4347826086956522
 40
0.4347826086956522
 40
0.4347826086956522
 40
0.4782608695652174
 40
0.4782608695652174
 40
0.4782608695652174
 40
0.4782608695652174
 40
0.5217391304347826
 40
0.5217391304347826
 40
0.5217391304347826
 40
0.5217391304347826
 40
0.5652173913043478
 40
0.5652173913043478
 40
0.5652173913043478
 40
0.5652173913043478
 40
0.6086956521739131
 40
0.6086956521739131
 40
0.6086956521739131
 40
0.6086956521739131
 40
0.6521739130434783
 40
0.6521739130434783
 40
0.6521739130434783
 40
0.6521739130434783
 40
0.6956521739130435
 40
0.6956521739130435
 40
0.6956521739130435
 40
0.6956521739130435
 40
0.7391304347826086
 40
0.7391304347826086
 40
0.7391304347826086
 40
0.7391304347826086
 40
0.782608695652174
 40
0.782608695652174
 40
0.782608695652174
 40
0.782608695652174
 40
0.8260869565217391
 40
0.8260869565217391
 40
0.8260869565217391
 40
0.8260869565217391
 40
0.8695652173913043
 40
0.8695652173913043
 40
0.8695652173913043
 40
0.8695652173913043
 40
0.9130434782608695
 40
0.9130434782608695
 40
0.9130434782608695
 40
0.9130434782608695
 40
1.0
 40
1.0
 40
1.0
 40
1.0
 10
6.468
 20
-6.4265
 30
0.0
 10
6.468
 20
-6.4265
 30
0.0
 10
6.7065
 20
-6.4265
 30
0.0
 10
6.7065
 20
-6.4265
 30
0.0
 10
6.7065
 20
-6.4265
 30
0.0
 10
6.7065
 20
-6.4265
 30
0.0
 10
6.7065
 20
-7.7619
 30
0.0
 10
6.7065
 20
-7.7619
 30
0.0
 10
6.7065
 20
-7.7619
 30
0.0
 10
6.6467
 20
-7.7637
 30
0.0
 10
6.5894
 20
-7.7543
 30
0.0
 10
6.5344
 20
-7.7331
 30
0.0
 10
6.5344
 20
-7.7331
 30
0.0
 10
6.4431
 20
-7.6992
 30
0.0
 10
6.3537
 20
-7.6447
 30
0.0
 10
6.2653
 20
-7.57
 30
0.0
 10
6.2653
 20
-7.57
 30
0.0
 10
6.1773
 20
-7.4946
 30
0.0
 10
6.0752
 20
-7.3865
 30
0.0
 10
5.9595
 20
-7.2453
 30
0.0
 10
5.9595
 20
-7.2453
 30
0.0
 10
5.7794
 20
-7.0257
 30
0.0
 10
5.6369
 20
-6.877
 30
0.0
 10
5.5315
 20
-6.8
 30
0.0
 10
5.5315
 20
-6.8
 30
0.0
 10
5.4266
 20
-6.7227
 30
0.0
 10
5.3269
 20
-6.6841
 30
0.0
 10
5.2332
 20
-6.6841
 30
0.0
 10
5.2332
 20
-6.6841
 30
0.0
 10
5.135
 20
-6.6841
 30
0.0
 10
5.0522
 20
-6.7195
 30
0.0
 10
4.9844
 20
-6.7896
 30
0.0
 10
4.9844
 20
-6.7896
 30
0.0
 10
4.9172
 20
-6.8601
 30
0.0
 10
4.8833
 20
-6.9519
 30
0.0
 10
4.8833
 20
-7.0647
 30
0.0
 10
4.8833
 20
-7.0647
 30
0.0
 10
4.8833
 20
-7.1841
 30
0.0
 10
4.919
 20
-7.2797
 30
0.0
 10
4.991
 20
-7.3512
 30
0.0
 10
4.991
 20
-7.3512
 30
0.0
 10
5.0625
 20
-7.4231
 30
0.0
 10
5.1617
 20
-7.4594
 30
0.0
 10
5.2883
 20
-7.4604
 30
0.0
 10
5.2883
 20
-7.4604
 30
0.0
 10
5.2883
 20
-7.4604
 30
0.0
 10
5.2625
 20
-7.7153
 30
0.0
 10
5.2625
 20
-7.7153
 30
0.0
 10
5.2625
 20
-7.7153
 30
0.0
 10
5.072
 20
-7.6979
 30
0.0
 10
4.9271
 20
-7.632
 30
0.0
 10
4.8274
 20
-7.5182
 30
0.0
 10
4.8274
 20
-7.5182
 30
0.0
 10
4.7276
 20
-7.4043
 30
0.0
 10
4.6778
 20
-7.251
 30
0.0
 10
4.6778
 20
-7.0591
 30
0.0
 10
4.6778
 20
-7.0591
 30
0.0
 10
4.6778
 20
-6.8653
 30
0.0
 10
4.7318
 20
-6.7119
 30
0.0
 10
4.8391
 20
-6.5991
 30
0.0
 10
4.8391
 20
-6.5991
 30
0.0
 10
4.9468
 20
-6.4857
 30
0.0
 10
5.0799
 20
-6.4292
 30
0.0
 10
5.239
 20
-6.4292
 30
0.0
 10
5.239
 20
-6.4292
 30
0.0
 10
5.3198
 20
-6.4292
 30
0.0
 10
5.3994
 20
-6.4458
 30
0.0
 10
5.4774
 20
-6.4791
 30
0.0
 10
5.4774
 20
-6.4791
 30
0.0
 10
5.5555
 20
-6.512
 30
0.0
 10
5.6379
 20
-6.5671
 30
0.0
 10
5.7239
 20
-6.6438
 30
0.0
 10
5.7239
 20
-6.6438
 30
0.0
 10
5.8105
 20
-6.7204
 30
0.0
 10
5.929
 20
-6.8479
 30
0.0
 10
6.0795
 20
-7.0261
 30
0.0
 10
6.0795
 20
-7.0261
 30
0.0
 10
6.2046
 20
-7.1748
 30
0.0
 10
6.2893
 20
-7.2703
 30
0.0
 10
6.334
 20
-7.3127
 30
0.0
 10
6.334
 20
-7.3127
 30
0.0
 10
6.3782
 20
-7.3549
 30
0.0
 10
6.4228
 20
-7.3898
 30
0.0
 10
6.468
 20
-7.4175
 30
0.0
 10
6.468
 20
-7.4175
 30
0.0
 10
6.468
 20
-7.4175
 30
0.0
 10
6.468
 20
-6.4265
 30
0.0
 10
6.468
 20
-6.4265
 30
0.0
  0
SPLINE
  5
B4
330
1F
100
AcDbEntity
  8
DEFAULT_1
 62
   250
100
AcDbSpline
210
0.0
220
0.0
230
1.0
 70
    27
 71
     3
 72
    12
 73
     8
 74
     0
 42
0.0000000001
 43
0.0000000001
 40
0.0
 40
0.0
 40
0.0
 40
0.0
 40
0.3333333333333333
 40
0.3333333333333333
 40
0.3333333333333333
 40
0.3333333333333333
 40
1.0
 40
1.0
 40
1.0
 40
1.0
 10
-4.3917
 20
-21.4125
 30
0.0
 10
-4.3917
 20
-21.4125
 30
0.0
 10
13.6777
 20
-21.4125
 30
0.0
 10
13.6777
 20
-21.4125
 30
0.0
 10
13.6777
 20
-21.4125
 30
0.0
 10
13.6777
 20
-21.4125
 30
0.0
 10
-4.3917
 20
-21.4125
 30
0.0
 10
-4.3917
 20
-21.4125
 30
0.0
  0
SPLINE
  5
B5
330
1F
100
AcDbEntity
  8
DEFAULT_1
 62
   250
100
AcDbSpline
210
0.0
220
0.0
230
1.0
 70
    27
 71
     3
 72
    12
 73
     8
 74
     0
 42
0.0000000001
 43
0.0000000001
 40
0.0
 40
0.0
 40
0.0
 40
0.0
 40
0.3333333333333333
 40
0.3333333333333333
 40
0.3333333333333333
 40
0.3333333333333333
 40
1.0
 40
1.0
 40
1.0
 40
1.0
 10
-4.3385
 20
-15.9974
 30
0.0
 10
-4.3385
 20
-15.9974
 30
0.0
 10
13.6777
 20
-15.9974
 30
0.0
 10
13.6777
 20
-15.9974
 30
0.0
 10
13.6777
 20
-15.9974
 30
0.0
 10
13.6777
 20
-15.9974
 30
0.0
 10
-4.3385
 20
-15.9974
 30
0.0
 10
-4.3385
 20
-15.9974
 30
0.0
  0
SPLINE
  5
B6
330
1F
100
AcDbEntity
  8
DEFAULT_1
 62
   250
100
AcDbSpline
210
0.0
220
0.0
230
1.0
 70
     8
 71
     3
 72
    16
 73
    12
 74
     0
 42
0.0000000001
 43
0.0000000001
 40
0.0
 40
0.0
 40
0.0
 40
0.0
 40
0.25
 40
0.25
 40
0.25
 40
0.25
 40
0.5
 40
0.5
 40
0.5
 40
0.5
 40
1.0
 40
1.0
 40
1.0
 40
1.0
 10
18.0775
 20
-15.9974
 30
0.0
 10
18.0775
 20
-15.9974
 30
0.0
 10
25.8114
 20
-15.9974
 30
0.0
 10
25.8114
 20
-15.9974
 30
0.0
 10
25.8114
 20
-15.9974
 30
0.0
 10
25.8114
 20
-15.9974
 30
0.0
 10
25.802
 20
-21.4091
 30
0.0
 10
25.802
 20
-21.4091
 30
0.0
 10
25.802
 20
-21.4091
 30
0.0
 10
25.802
 20
-21.4091
 30
0.0
 10
18.0404
 20
-21.4091
 30
0.0
 10
18.0404
 20
-21.4091
 30
0.0
  0
SPLINE
  5
B7
330
1F
100
AcDbEntity
  8
DEFAULT_1
 62
   250
100
AcDbSpline
210
0.0
220
0.0
230
1.0
 70
     8
 71
     3
 72
    64
 73
    60
 74
     0
 42
0.0000000001
 43
0.0000000001
 40
0.0
 40
0.0
 40
0.0
 40
0.0
 40
0.0625
 40
0.0625
 40
0.0625
 40
0.0625
 40
0.125
 40
0.125
 40
0.125
 40
0.125
 40
0.1875
 40
0.1875
 40
0.1875
 40
0.1875
 40
0.25
 40
0.25
 40
0.25
 40
0.25
 40
0.3125
 40
0.3125
 40
0.3125
 40
0.3125
 40
0.375
 40
0.375
 40
0.375
 40
0.375
 40
0.4375
 40
0.4375
 40
0.4375
 40
0.4375
 40
0.5
 40
0.5
 40
0.5
 40
0.5
 40
0.5625
 40
0.5625
 40
0.5625
 40
0.5625
 40
0.625
 40
0.625
 40
0.625
 40
0.625
 40
0.6875
 40
0.6875
 40
0.6875
 40
0.6875
 40
0.75
 40
0.75
 40
0.75
 40
0.75
 40
0.8125
 40
0.8125
 40
0.8125
 40
0.8125
 40
0.875
 40
0.875
 40
0.875
 40
0.875
 40
1.0
 40
1.0
 40
1.0
 40
1.0
 10
-15.559
 20
20.6835
 30
0.0
 10
-15.8502
 20
20.6653
 30
0.0
 10
-16.1503
 20
20.6206
 30
0.0
 10
-16.4082
 20
20.4838
 30
0.0
 10
-16.4082
 20
20.4838
 30
0.0
 10
-16.4082
 20
20.4838
 30
0.0
 10
-16.5127
 20
20.4388
 30
0.0
 10
-16.5127
 20
20.4388
 30
0.0
 10
-16.5127
 20
20.4388
 30
0.0
 10
-16.5127
 20
20.4388
 30
0.0
 10
-16.3707
 20
20.305
 30
0.0
 10
-16.3707
 20
20.305
 30
0.0
 10
-16.3707
 20
20.305
 30
0.0
 10
-16.3707
 20
20.305
 30
0.0
 10
-15.9434
 20
19.8686
 30
0.0
 10
-15.9434
 20
19.8686
 30
0.0
 10
-15.9434
 20
19.8686
 30
0.0
 10
-15.9434
 20
19.8686
 30
0.0
 10
-15.9365
 20
19.8616
 30
0.0
 10
-15.9365
 20
19.8616
 30
0.0
 10
-15.9365
 20
19.8616
 30
0.0
 10
-15.9365
 20
19.8616
 30
0.0
 10
-14.9182
 20
19.8694
 30
0.0
 10
-14.9182
 20
19.8694
 30
0.0
 10
-14.9182
 20
19.8694
 30
0.0
 10
-14.9182
 20
19.8694
 30
0.0
 10
-14.8679
 20
19.8699
 30
0.0
 10
-14.8679
 20
19.8699
 30
0.0
 10
-14.8679
 20
19.8699
 30
0.0
 10
-14.8679
 20
19.8699
 30
0.0
 10
-14.367
 20
20.4472
 30
0.0
 10
-14.367
 20
20.4472
 30
0.0
 10
-14.367
 20
20.4472
 30
0.0
 10
-14.367
 20
20.4472
 30
0.0
 10
-14.417
 20
20.4974
 30
0.0
 10
-14.417
 20
20.4974
 30
0.0
 10
-14.417
 20
20.4974
 30
0.0
 10
-14.417
 20
20.4974
 30
0.0
 10
-14.751
 20
20.5978
 30
0.0
 10
-14.751
 20
20.5978
 30
0.0
 10
-14.751
 20
20.5978
 30
0.0
 10
-14.751
 20
20.5978
 30
0.0
 10
-15.0682
 20
20.6731
 30
0.0
 10
-15.0682
 20
20.6731
 30
0.0
 10
-15.0682
 20
20.6731
 30
0.0
 10
-15.0682
 20
20.6731
 30
0.0
 10
-15.2686
 20
20.715
 30
0.0
 10
-15.2686
 20
20.715
 30
0.0
 10
-15.2686
 20
20.715
 30
0.0
 10
-15.2686
 20
20.715
 30
0.0
 10
-15.2603
 20
20.2547
 30
0.0
 10
-15.2603
 20
20.2547
 30
0.0
 10
-15.2603
 20
20.2547
 30
0.0
 10
-15.2603
 20
20.2547
 30
0.0
 10
-15.6109
 20
20.2799
 30
0.0
 10
-15.6109
 20
20.2799
 30
0.0
 10
-15.6109
 20
20.2799
 30
0.0
 10
-15.6109
 20
20.2799
 30
0.0
 10
-15.6026
 20
20.7066
 30
0.0
 10
-15.6026
 20
20.7066
 30
0.0
  0
SPLINE
  5
B8
330
1F
100
AcDbEntity
  8
DEFAULT_1
 62
   250
100
AcDbSpline
210
0.0
220
0.0
230
1.0
 70
    11
 71
     3
 72
    20
 73
    16
 74
     0
 42
0.0000000001
 43
0.0000000001
 40
0.0
 40
0.0
 40
0.0
 40
0.0
 40
0.2
 40
0.2
 40
0.2
 40
0.2
 40
0.4
 40
0.4
 40
0.4
 40
0.4
 40
0.6
 40
0.6
 40
0.6
 40
0.6
 40
1.0
 40
1.0
 40
1.0
 40
1.0
 10
-14.9317
 20
19.4452
 30
0.0
 10
-14.9317
 20
19.4452
 30
0.0
 10
-14.9182
 20
19.8694
 30
0.0
 10
-14.9182
 20
19.8694
 30
0.0
 10
-14.9182
 20
19.8694
 30
0.0
 10
-14.9182
 20
19.8694
 30
0.0
 10
-14.9182
 20
19.8845
 30
0.0
 10
-14.9182
 20
19.8845
 30
0.0
 10
-14.9182
 20
19.8845
 30
0.0
 10
-14.9182
 20
19.8845
 30
0.0
 10
-14.9182
 20
19.8694
 30
0.0
 10
-14.9182
 20
19.8694
 30
0.0
 10
-14.9182
 20
19.8694
 30
0.0
 10
-14.9182
 20
19.8694
 30
0.0
 10
-14.9317
 20
19.4452
 30
0.0
 10
-14.9317
 20
19.4452
 30
0.0
  0
SPLINE
  5
B9
330
1F
100
AcDbEntity
  8
DEFAULT_1
 62
   250
100
AcDbSpline
210
0.0
220
0.0
230
1.0
 70
    27
 71
     3
 72
    20
 73
    16
 74
     0
 42
0.0000000001
 43
0.0000000001
 40
0.0
 40
0.0
 40
0.0
 40
0.0
 40
0.2
 40
0.2
 40
0.2
 40
0.2
 40
0.4
 40
0.4
 40
0.4
 40
0.4
 40
0.6
 40
0.6
 40
0.6
 40
0.6
 40
1.0
 40
1.0
 40
1.0
 40
1.0
 10
-15.9434
 20
19.4692
 30
0.0
 10
-15.9434
 20
19.4692
 30
0.0
 10
-15.9434
 20
19.8686
 30
0.0
 10
-15.9434
 20
19.8686
 30
0.0
 10
-15.9434
 20
19.8686
 30
0.0
 10
-15.9434
 20
19.8686
 30
0.0
 10
-15.9434
 20
19.8845
 30
0.0
 10
-15.9434
 20
19.8845
 30
0.0
 10
-15.9434
 20
19.8845
 30
0.0
 10
-15.9434
 20
19.8845
 30
0.0
 10
-15.9434
 20
19.8686
 30
0.0
 10
-15.9434
 20
19.8686
 30
0.0
 10
-15.9434
 20
19.8686
 30
0.0
 10
-15.9434
 20
19.8686
 30
0.0
 10
-15.9434
 20
19.4692
 30
0.0
 10
-15.9434
 20
19.4692
 30
0.0
  0
SPLINE
  5
BA
330
1F
100
AcDbEntity
  8
DEFAULT_1
 62
   250
100
AcDbSpline
210
0.0
220
0.0
230
1.0
 70
    11
 71
     3
 72
    20
 73
    16
 74
     0
 42
0.0000000001
 43
0.0000000001
 40
0.0
 40
0.0
 40
0.0
 40
0.0
 40
0.2
 40
0.2
 40
0.2
 40
0.2
 40
0.4
 40
0.4
 40
0.4
 40
0.4
 40
0.6
 40
0.6
 40
0.6
 40
0.6
 40
1.0
 40
1.0
 40
1.0
 40
1.0
 10
-20.5731
 20
16.9169
 30
0.0
 10
-20.5731
 20
16.9169
 30
0.0
 10
-10.2303
 20
16.9169
 30
0.0
 10
-10.2303
 20
16.9169
 30
0.0
 10
-10.2303
 20
16.9169
 30
0.0
 10
-10.2303
 20
16.9169
 30
0.0
 10
-10.2303
 20
16.3644
 30
0.0
 10
-10.2303
 20
16.3644
 30
0.0
 10
-10.2303
 20
16.3644
 30
0.0
 10
-10.2303
 20
16.3644
 30
0.0
 10
-20.5731
 20
16.3644
 30
0.0
 10
-20.5731
 20
16.3644
 30
0.0
 10
-20.5731
 20
16.3644
 30
0.0
 10
-20.5731
 20
16.3644
 30
0.0
 10
-20.5731
 20
16.9169
 30
0.0
 10
-20.5731
 20
16.9169
 30
0.0
  0
SPLINE
  5
BB
330
1F
100
AcDbEntity
  8
DEFAULT_1
 62
   250
100
AcDbSpline
210
0.0
220
0.0
230
1.0
 70
     8
 71
     3
 72
    16
 73
    12
 74
     0
 42
0.0000000001
 43
0.0000000001
 40
0.0
 40
0.0
 40
0.0
 40
0.0
 40
0.25
 40
0.25
 40
0.25
 40
0.25
 40
0.5
 40
0.5
 40
0.5
 40
0.5
 40
1.0
 40
1.0
 40
1.0
 40
1.0
 10
-18.9023
 20
16.3694
 30
0.0
 10
-18.9023
 20
16.3694
 30
0.0
 10
-18.908
 20
14.8475
 30
0.0
 10
-18.908
 20
14.8475
 30
0.0
 10
-18.908
 20
14.8475
 30
0.0
 10
-18.908
 20
14.8475
 30
0.0
 10
-11.8698
 20
14.8475
 30
0.0
 10
-11.8698
 20
14.8475
 30
0.0
 10
-11.8698
 20
14.8475
 30
0.0
 10
-11.8698
 20
14.8475
 30
0.0
 10
-11.87
 20
16.3694
 30
0.0
 10
-11.87
 20
16.3694
 30
0.0
  0
SPLINE
  5
BC
330
1F
100
AcDbEntity
  8
DEFAULT_1
 62
   250
100
AcDbSpline
210
0.0
220
0.0
230
1.0
 70
     8
 71
     3
 72
    12
 73
     8
 74
     0
 42
0.0000000001
 43
0.0000000001
 40
0.0
 40
0.0
 40
0.0
 40
0.0
 40
0.3333333333333333
 40
0.3333333333333333
 40
0.3333333333333333
 40
0.3333333333333333
 40
1.0
 40
1.0
 40
1.0
 40
1.0
 10
-19.423
 20
18.9674
 30
0.0
 10
-19.1386
 20
18.9674
 30
0.0
 10
-18.908
 20
18.7369
 30
0.0
 10
-18.908
 20
18.4524
 30
0.0
 10
-18.908
 20
18.4524
 30
0.0
 10
-18.908
 20
18.4524
 30
0.0
 10
-18.9135
 20
16.946
 30
0.0
 10
-18.9135
 20
16.946
 30
0.0
  0
SPLINE
  5
BD
330
1F
100
AcDbEntity
  8
DEFAULT_1
 62
   250
100
AcDbSpline
210
0.0
220
0.0
230
1.0
 70
     8
 71
     3
 72
    12
 73
     8
 74
     0
 42
0.0000000001
 43
0.0000000001
 40
0.0
 40
0.0
 40
0.0
 40
0.0
 40
0.3333333333333333
 40
0.3333333333333333
 40
0.3333333333333333
 40
0.3333333333333333
 40
1.0
 40
1.0
 40
1.0
 40
1.0
 10
-11.3548
 20
18.9674
 30
0.0
 10
-11.6392
 20
18.9674
 30
0.0
 10
-11.8698
 20
18.7369
 30
0.0
 10
-11.8698
 20
18.4524
 30
0.0
 10
-11.8698
 20
18.4524
 30
0.0
 10
-11.8698
 20
18.4524
 30
0.0
 10
-11.8656
 20
16.8968
 30
0.0
 10
-11.8656
 20
16.8968
 30
0.0
  0
SPLINE
  5
BE
330
1F
100
AcDbEntity
  8
DEFAULT_1
 62
   250
100
AcDbSpline
210
0.0
220
0.0
230
1.0
 70
     8
 71
     3
 72
    28
 73
    24
 74
     0
 42
0.0000000001
 43
0.0000000001
 40
0.0
 40
0.0
 40
0.0
 40
0.0
 40
0.1428571428571428
 40
0.1428571428571428
 40
0.1428571428571428
 40
0.1428571428571428
 40
0.2857142857142857
 40
0.2857142857142857
 40
0.2857142857142857
 40
0.2857142857142857
 40
0.4285714285714285
 40
0.4285714285714285
 40
0.4285714285714285
 40
0.4285714285714285
 40
0.5714285714285714
 40
0.5714285714285714
 40
0.5714285714285714
 40
0.5714285714285714
 40
0.7142857142857143
 40
0.7142857142857143
 40
0.7142857142857143
 40
0.7142857142857143
 40
1.0
 40
1.0
 40
1.0
 40
1.0
 10
-10.0575
 20
19.2292
 30
0.0
 10
-10.0575
 20
19.2292
 30
0.0
 10
-10.0572
 20
19.4722
 30
0.0
 10
-10.0572
 20
19.4722
 30
0.0
 10
-10.0572
 20
19.4722
 30
0.0
 10
-10.0572
 20
19.4722
 30
0.0
 10
-20.7105
 20
19.4824
 30
0.0
 10
-20.7105
 20
19.4824
 30
0.0
 10
-20.7105
 20
19.4824
 30
0.0
 10
-20.7105
 20
19.4824
 30
0.0
 10
-20.7216
 20
19.3076
 30
0.0
 10
-20.7216
 20
19.3076
 30
0.0
 10
-20.7216
 20
19.3076
 30
0.0
 10
-20.7216
 20
19.3076
 30
0.0
 10
-19.9344
 20
18.9776
 30
0.0
 10
-19.9344
 20
18.9776
 30
0.0
 10
-19.9344
 20
18.9776
 30
0.0
 10
-19.9344
 20
18.9776
 30
0.0
 10
-10.7559
 20
18.981
 30
0.0
 10
-10.7559
 20
18.981
 30
0.0
 10
-10.7559
 20
18.981
 30
0.0
 10
-10.7559
 20
18.981
 30
0.0
 10
-10.0575
 20
19.2953
 30
0.0
 10
-10.0575
 20
19.2953
 30
0.0
  0
SPLINE
  5
BF
330
1F
100
AcDbEntity
  8
DEFAULT_1
 62
   250
100
AcDbSpline
210
0.0
220
0.0
230
1.0
 70
    27
 71
     3
 72
    12
 73
     8
 74
     0
 42
0.0000000001
 43
0.0000000001
 40
0.0
 40
0.0
 40
0.0
 40
0.0
 40
0.3333333333333333
 40
0.3333333333333333
 40
0.3333333333333333
 40
0.3333333333333333
 40
1.0
 40
1.0
 40
1.0
 40
1.0
 10
-15.8858
 20
14.0105
 30
0.0
 10
-15.8858
 20
14.0105
 30
0.0
 10
-15.8858
 20
14.9267
 30
0.0
 10
-15.8858
 20
14.9267
 30
0.0
 10
-15.8858
 20
14.9267
 30
0.0
 10
-15.8858
 20
14.9267
 30
0.0
 10
-15.8858
 20
14.0105
 30
0.0
 10
-15.8858
 20
14.0105
 30
0.0
  0
SPLINE
  5
C0
330
1F
100
AcDbEntity
  8
DEFAULT_1
 62
   250
100
AcDbSpline
210
0.0
220
0.0
230
1.0
 70
    27
 71
     3
 72
    12
 73
     8
 74
     0
 42
0.0000000001
 43
0.0000000001
 40
0.0
 40
0.0
 40
0.0
 40
0.0
 40
0.3333333333333333
 40
0.3333333333333333
 40
0.3333333333333333
 40
0.3333333333333333
 40
1.0
 40
1.0
 40
1.0
 40
1.0
 10
-14.8606
 20
13.9803
 30
0.0
 10
-14.8606
 20
13.9803
 30
0.0
 10
-14.8606
 20
14.9267
 30
0.0
 10
-14.8606
 20
14.9267
 30
0.0
 10
-14.8606
 20
14.9267
 30
0.0
 10
-14.8606
 20
14.9267
 30
0.0
 10
-14.8606
 20
13.9803
 30
0.0
 10
-14.8606
 20
13.9803
 30
0.0
  0
SPLINE
  5
C1
330
1F
100
AcDbEntity
  8
DEFAULT_1
 62
   250
100
AcDbSpline
210
0.0
220
0.0
230
1.0
 70
    27
 71
     3
 72
    12
 73
     8
 74
     0
 42
0.0000000001
 43
0.0000000001
 40
0.0
 40
0.0
 40
0.0
 40
0.0
 40
0.3333333333333333
 40
0.3333333333333333
 40
0.3333333333333333
 40
0.3333333333333333
 40
1.0
 40
1.0
 40
1.0
 40
1.0
 10
-14.8606
 20
11.9375
 30
0.0
 10
-14.8606
 20
11.9375
 30
0.0
 10
-14.8606
 20
13.1748
 30
0.0
 10
-14.8606
 20
13.1748
 30
0.0
 10
-14.8606
 20
13.1748
 30
0.0
 10
-14.8606
 20
13.1748
 30
0.0
 10
-14.8606
 20
11.9375
 30
0.0
 10
-14.8606
 20
11.9375
 30
0.0
  0
SPLINE
  5
C2
330
1F
100
AcDbEntity
  8
DEFAULT_1
 62
   250
100
AcDbSpline
210
0.0
220
0.0
230
1.0
 70
    27
 71
     3
 72
    12
 73
     8
 74
     0
 42
0.0000000001
 43
0.0000000001
 40
0.0
 40
0.0
 40
0.0
 40
0.0
 40
0.3333333333333333
 40
0.3333333333333333
 40
0.3333333333333333
 40
0.3333333333333333
 40
1.0
 40
1.0
 40
1.0
 40
1.0
 10
-15.8853
 20
11.9375
 30
0.0
 10
-15.8853
 20
11.9375
 30
0.0
 10
-15.8853
 20
13.1546
 30
0.0
 10
-15.8853
 20
13.1546
 30
0.0
 10
-15.8853
 20
13.1546
 30
0.0
 10
-15.8853
 20
13.1546
 30
0.0
 10
-15.8853
 20
11.9375
 30
0.0
 10
-15.8853
 20
11.9375
 30
0.0
  0
ENDSEC
  0
SECTION
  2
OBJECTS
  0
DICTIONARY
  5
C
330
0
100
AcDbDictionary
  3
ACAD_GROUP
350
D
  3
ACAD_LAYOUT
350
1A
  3
ACAD_MATERIAL
350
3B
  3
ACAD_MLEADERSTYLE
350
E5
  3
ACAD_MLINESTYLE
350
17
  3
ACAD_PLOTSETTINGS
350
19
  3
ACAD_VISUALSTYLE
350
2A
  3
ACDBHEADERROUNDTRIPXREC
350
C3
  3
ACDBVARIABLEDICTIONARY
350
E3
  0
DICTIONARY
  5
D
102
{ACAD_REACTORS
330
C
102
}
330
C
100
AcDbDictionary
  0
DICTIONARY
  5
1A
102
{ACAD_REACTORS
330
C
102
}
330
C
100
AcDbDictionary
  0
DICTIONARY
  5
3B
102
{ACAD_REACTORS
330
C
102
}
330
C
100
AcDbDictionary
  3
BYBLOCK
350
3D
  3
BYLAYER
350
3C
  3
GLOBAL
350
3E
  0
DICTIONARY
  5
E5
102
{ACAD_REACTORS
330
C
102
}
330
C
100
AcDbDictionary
  0
DICTIONARY
  5
17
102
{ACAD_REACTORS
330
C
102
}
330
C
100
AcDbDictionary
  3
STANDARD
350
18
  0
DICTIONARY
  5
19
102
{ACAD_REACTORS
330
C
102
}
330
C
100
AcDbDictionary
  0
DICTIONARY
  5
2A
102
{ACAD_REACTORS
330
C
102
}
330
C
100
AcDbDictionary
  3
2DWIREFRAME
350
2F
  3
3D_HIDDEN
350
31
  3
3DWIREFRAME
350
30
  3
BASIC
350
32
  3
BRIGHTEN
350
36
  3
COLORCHANGE
350
3A
  3
CONCEPTUAL
350
34
  3
DIM
350
35
  3
FACEPATTERN
350
39
  3
FLAT
350
2B
  3
FLATWITHEDGES
350
2C
  3
GOURAUD
350
2D
  3
GOURAUDWITHEDGES
350
2E
  3
LINEPATTERN
350
38
  3
REALISTIC
350
33
  3
THICKEN
350
37
  0
DICTIONARY
  5
C3
102
{ACAD_REACTORS
330
C
102
}
330
C
100
AcDbDictionary
  3
CEPSNTYPE
350
CC
  3
DIMSTYLEDATA
350
E2
  3
FINGERPRINTGUID
350
CD
  3
HYPERLINKBASE
350
C6
  3
INSUNITS
350
CB
  3
LAYOUTDICT
350
C8
  3
LWETCUNION
350
CA
  3
PLOTSETDICT
350
C9
  3
PSVPSCALE
350
CF
  3
PUCSBASE
350
D2
  3
PUCSORGBACK
350
D8
  3
PUCSORGBOTTOM
350
D4
  3
PUCSORGFRONT
350
D7
  3
PUCSORGLEFT
350
D5
  3
PUCSORGRIGHT
350
D6
  3
PUCSORGTOP
350
D3
  3
PUCSORTHOREF
350
D0
  3
PUCSORTHOVIEW
350
D1
  3
STYLESHEET
350
C7
  3
TSTACKALIGN
350
C4
  3
TSTACKSIZE
350
C5
  3
UCSBASE
350
DB
  3
UCSORGBACK
350
E1
  3
UCSORGBOTTOM
350
DD
  3
UCSORGFRONT
350
E0
  3
UCSORGLEFT
350
DE
  3
UCSORGRIGHT
350
DF
  3
UCSORGTOP
350
DC
  3
UCSORTHOREF
350
D9
  3
UCSORTHOVIEW
350
DA
  3
VERSIONGUID
350
CE
  0
DICTIONARY
  5
E3
102
{ACAD_REACTORS
330
C
102
}
330
C
100
AcDbDictionary
  3
DIMASSOC
350
E6
  3
HIDETEXT
350
E7
  0
MATERIAL
  5
3D
102
{ACAD_REACTORS
330
3B
102
}
102
{ACAD_XDICTIONARY
360
EA
102
}
330
3B
100
AcDbMaterial
  1
ByBlock
  0
MATERIAL
  5
3C
102
{ACAD_REACTORS
330
3B
102
}
102
{ACAD_XDICTIONARY
360
E8
102
}
330
3B
100
AcDbMaterial
  1
ByLayer
  0
MATERIAL
  5
3E
102
{ACAD_REACTORS
330
3B
102
}
102
{ACAD_XDICTIONARY
360
EC
102
}
330
3B
100
AcDbMaterial
  1
Global
  0
MLINESTYLE
  5
18
102
{ACAD_REACTORS
330
17
102
}
330
17
100
AcDbMlineStyle
  2
Standard
 70
     0
  3

 62
   256
 51
90.0
 52
90.0
 71
     2
 49
0.5
 62
   256
  6
BYLAYER
 49
-0.5
 62
   256
  6
BYLAYER
  0
ACAD_PROXY_OBJECT
  5
2F
102
{ACAD_REACTORS
330
2A
102
}
330
2A
100
AcDbProxyObject
 90
      499
 91
      501
 93
      436
310
42CC9915DA5C99599C985B595049028333333333333E3BF0000000000000FB0107901411070040501600405405064090741402480A0340
1001
ACAD
1000
AcDbSavedByObjectVersion
1070
     0
  0
ACAD_PROXY_OBJECT
  5
31
102
{ACAD_REACTORS
330
2A
102
}
330
2A
100
AcDbProxyObject
 90
      499
 91
      501
 93
      500
310
424CD108121A5919195B90640502408333333333333E3BF0000000000000FB01079024090700405020000000000001110200405405064090740C02480A0340
1001
ACAD
1000
AcDbSavedByObjectVersion
1070
     0
  0
ACAD_PROXY_OBJECT
  5
30
102
{ACAD_REACTORS
330
2A
102
}
330
2A
100
AcDbProxyObject
 90
      499
 91
      501
 93
      436
310
42CCD915DA5C99599C985B595059028333333333333E3BF0000000000000FB0107901411070040501600405405064090741402480A0340
1001
ACAD
1000
AcDbSavedByObjectVersion
1070
     0
  0
ACAD_PROXY_OBJECT
  5
32
102
{ACAD_REACTORS
330
2A
102
}
330
2A
100
AcDbProxyObject
 90
      499
 91
      501
 93
      388
310
4150985CDA58D07406404333333333333E3BF0000000000000FB0107A41107004050150841D405064090741402480A0350
1001
ACAD
1000
AcDbSavedByObjectVersion
1070
     0
  0
ACAD_PROXY_OBJECT
  5
36
102
{ACAD_REACTORS
330
2A
102
}
330
2A
100
AcDbProxyObject
 90
      499
 91
      501
 93
      428
310
42109C9A59DA1D195B90C409028333333333333E3BF0000000000000FB010790141107004050150841D405064090741402480A029950
1001
ACAD
1000
AcDbSavedByObjectVersion
1070
     0
  0
ACAD_PROXY_OBJECT
  5
3A
102
{ACAD_REACTORS
330
2A
102
}
330
2A
100
AcDbProxyObject
 90
      499
 91
      501
 93
      452
310
42D0DBDB1BDC90DA185B99D95104090240C333333333333E3BF0000000000000FB0108901411070040501508421405064090741402480A0350
1001
ACAD
1000
AcDbSavedByObjectVersion
1070
     0
  0
ACAD_PROXY_OBJECT
  5
34
102
{ACAD_REACTORS
330
2A
102
}
330
2A
100
AcDbProxyObject
 90
      499
 91
      501
 93
      500
310
4290DBDB98D95C1D1D585B10940D028333333333333E3BF0000000000000FB0107902409070040501000000000000111010841D405064090740C02480A0340
1001
ACAD
1000
AcDbSavedByObjectVersion
1070
     0
  0
ACAD_PROXY_OBJECT
  5
35
102
{ACAD_REACTORS
330
2A
102
}
330
2A
100
AcDbProxyObject
 90
      499
 91
      501
 93
      412
310
40D11A5B50B409028333333333333E3BF0000000000000FB010790141107004050150841D405064090741402480A02677FFFFFD0
1001
ACAD
1000
AcDbSavedByObjectVersion
1070
     0
  0
ACAD_PROXY_OBJECT
  5
39
102
{ACAD_REACTORS
330
2A
102
}
330
2A
100
AcDbProxyObject
 90
      499
 91
      501
 93
      444
310
42D19858D95C185D1D195C9B90F409028333333333333E3BF0000000000000FB010790141107004050150841D405064090741402480A0350
1001
ACAD
1000
AcDbSavedByObjectVersion
1070
     0
  0
ACAD_PROXY_OBJECT
  5
2B
102
{ACAD_REACTORS
330
2A
102
}
330
2A
100
AcDbProxyObject
 90
      499
 91
      501
 93
      388
310
41119B185D240901404333333333333E3BF0000000000000F9010740A41107004050150841D405064090741402480A1B50
1001
ACAD
1000
AcDbSavedByObjectVersion
1070
     0
  0
ACAD_PROXY_OBJECT
  5
2C
102
{ACAD_REACTORS
330
2A
102
}
330
2A
100
AcDbProxyObject
 90
      499
 91
      501
 93
      476
310
43519B185D15DA5D1A115919D95CD0140901404333333333333E3BF0000000000000F9010740901411070040501600405405064090741402480A1B50
1001
ACAD
1000
AcDbSavedByObjectVersion
1070
     0
  0
ACAD_PROXY_OBJECT
  5
2D
102
{ACAD_REACTORS
330
2A
102
}
330
2A
100
AcDbProxyObject
 90
      499
 91
      501
 93
      412
310
41D1DBDD5C985D5910240902404333333333333E3BF0000000000000F9010740A411070040501641D405064090741402480A1B50
1001
ACAD
1000
AcDbSavedByObjectVersion
1070
     0
  0
ACAD_PROXY_OBJECT
  5
2E
102
{ACAD_REACTORS
330
2A
102
}
330
2A
100
AcDbProxyObject
 90
      499
 91
      501
 93
      500
310
4411DBDD5C985D5915DA5D1A115919D95CD0340902404333333333333E3BF0000000000000F9010740901411070040501600405405064090741402480A1B50
1001
ACAD
1000
AcDbSavedByObjectVersion
1070
     0
  0
ACAD_PROXY_OBJECT
  5
38
102
{ACAD_REACTORS
330
2A
102
}
330
2A
100
AcDbProxyObject
 90
      499
 91
      501
 93
      444
310
42D31A5B995C185D1D195C9B90E409028333333333333E3BF0000000000000FB010790141107004050750841D405064090741402483A0350
1001
ACAD
1000
AcDbSavedByObjectVersion
1070
     0
  0
ACAD_PROXY_OBJECT
  5
33
102
{ACAD_REACTORS
330
2A
102
}
330
2A
100
AcDbProxyObject
 90
      499
 91
      501
 93
      420
310
425499585B1A5CDD1A58D08409028333333333333E3BF0000000000000FB01079019070040501508421405064090741402480A1B40
1001
ACAD
1000
AcDbSavedByObjectVersion
1070
     0
  0
ACAD_PROXY_OBJECT
  5
37
102
{ACAD_REACTORS
330
2A
102
}
330
2A
100
AcDbProxyObject
 90
      499
 91
      501
 93
      412
310
41D51A1A58DAD95B90D409028333333333333E3BF0000000000000FB010790141107004050150C41D405064090741402480A0350
1001
ACAD
1000
AcDbSavedByObjectVersion
1070
     0
  0
XRECORD
  5
CC
102
{ACAD_REACTORS
330
C3
102
}
330
C3
100
AcDbXrecord
 90
        0
  0
XRECORD
  5
E2
102
{ACAD_REACTORS
330
C3
102
}
330
C3
100
AcDbXrecord
1000
DSTYLE
1002
{
1070
   340
340
11
1002
}
  0
XRECORD
  5
CD
102
{ACAD_REACTORS
330
C3
102
}
330
C3
100
AcDbXrecord
  1
{A996E4E8-ED3C-468D-870B-39AE4D369FA7}
  0
XRECORD
  5
C6
102
{ACAD_REACTORS
330
C3
102
}
330
C3
100
AcDbXrecord
  1

  0
XRECORD
  5
CB
102
{ACAD_REACTORS
330
C3
102
}
330
C3
100
AcDbXrecord
 90
        4
  0
XRECORD
  5
C8
102
{ACAD_REACTORS
330
C3
102
}
330
C3
100
AcDbXrecord
340
1A
  0
XRECORD
  5
CA
102
{ACAD_REACTORS
330
C3
102
}
330
C3
100
AcDbXrecord
 90
    10781
  0
XRECORD
  5
C9
102
{ACAD_REACTORS
330
C3
102
}
330
C3
100
AcDbXrecord
340
19
  0
XRECORD
  5
CF
102
{ACAD_REACTORS
330
C3
102
}
330
C3
100
AcDbXrecord
 40
0.0
  0
XRECORD
  5
D2
102
{ACAD_REACTORS
330
C3
102
}
330
C3
100
AcDbXrecord
340
0
  0
XRECORD
  5
D8
102
{ACAD_REACTORS
330
C3
102
}
330
C3
100
AcDbXrecord
 10
0.0
 20
0.0
 30
0.0
  0
XRECORD
  5
D4
102
{ACAD_REACTORS
330
C3
102
}
330
C3
100
AcDbXrecord
 10
0.0
 20
0.0
 30
0.0
  0
XRECORD
  5
D7
102
{ACAD_REACTORS
330
C3
102
}
330
C3
100
AcDbXrecord
 10
0.0
 20
0.0
 30
0.0
  0
XRECORD
  5
D5
102
{ACAD_REACTORS
330
C3
102
}
330
C3
100
AcDbXrecord
 10
0.0
 20
0.0
 30
0.0
  0
XRECORD
  5
D6
102
{ACAD_REACTORS
330
C3
102
}
330
C3
100
AcDbXrecord
 10
0.0
 20
0.0
 30
0.0
  0
XRECORD
  5
D3
102
{ACAD_REACTORS
330
C3
102
}
330
C3
100
AcDbXrecord
 10
0.0
 20
0.0
 30
0.0
  0
XRECORD
  5
D0
102
{ACAD_REACTORS
330
C3
102
}
330
C3
100
AcDbXrecord
340
0
  0
XRECORD
  5
D1
102
{ACAD_REACTORS
330
C3
102
}
330
C3
100
AcDbXrecord
 70
     0
  0
XRECORD
  5
C7
102
{ACAD_REACTORS
330
C3
102
}
330
C3
100
AcDbXrecord
  1

  0
XRECORD
  5
C4
102
{ACAD_REACTORS
330
C3
102
}
330
C3
100
AcDbXrecord
 90
        1
  0
XRECORD
  5
C5
102
{ACAD_REACTORS
330
C3
102
}
330
C3
100
AcDbXrecord
 90
       70
  0
XRECORD
  5
DB
102
{ACAD_REACTORS
330
C3
102
}
330
C3
100
AcDbXrecord
340
0
  0
XRECORD
  5
E1
102
{ACAD_REACTORS
330
C3
102
}
330
C3
100
AcDbXrecord
 10
0.0
 20
0.0
 30
0.0
  0
XRECORD
  5
DD
102
{ACAD_REACTORS
330
C3
102
}
330
C3
100
AcDbXrecord
 10
0.0
 20
0.0
 30
0.0
  0
XRECORD
  5
E0
102
{ACAD_REACTORS
330
C3
102
}
330
C3
100
AcDbXrecord
 10
0.0
 20
0.0
 30
0.0
  0
XRECORD
  5
DE
102
{ACAD_REACTORS
330
C3
102
}
330
C3
100
AcDbXrecord
 10
0.0
 20
0.0
 30
0.0
  0
XRECORD
  5
DF
102
{ACAD_REACTORS
330
C3
102
}
330
C3
100
AcDbXrecord
 10
0.0
 20
0.0
 30
0.0
  0
XRECORD
  5
DC
102
{ACAD_REACTORS
330
C3
102
}
330
C3
100
AcDbXrecord
 10
0.0
 20
0.0
 30
0.0
  0
XRECORD
  5
D9
102
{ACAD_REACTORS
330
C3
102
}
330
C3
100
AcDbXrecord
340
0
  0
XRECORD
  5
DA
102
{ACAD_REACTORS
330
C3
102
}
330
C3
100
AcDbXrecord
 70
     0
  0
XRECORD
  5
CE
102
{ACAD_REACTORS
330
C3
102
}
330
C3
100
AcDbXrecord
  1
{FAEB1C32-E019-11D5-929B-00C0DF256EC4}
  0
DICTIONARYVAR
  5
E6
102
{ACAD_REACTORS
330
E3
102
}
330
E3
100
DictionaryVariables
280
     0
  1
2
  0
DICTIONARYVAR
  5
E7
102
{ACAD_REACTORS
330
E3
102
}
330
E3
100
DictionaryVariables
280
     0
  1
1
  0
DICTIONARY
  5
EA
330
3D
100
AcDbDictionary
280
     1
  3
ACAD_XREC_ROUNDTRIP
360
EB
  0
DICTIONARY
  5
E8
330
3C
100
AcDbDictionary
280
     1
  3
ACAD_XREC_ROUNDTRIP
360
E9
  0
DICTIONARY
  5
EC
330
3E
100
AcDbDictionary
280
     1
  3
ACAD_XREC_ROUNDTRIP
360
ED
  0
XRECORD
  5
EB
102
{ACAD_REACTORS
330
EA
102
}
330
EA
100
AcDbXrecord
102
MATERIAL
148
0.0
149
0.0
149
0.0
 93
        0
 94
      127
282
     0
 72
     1
 77
     1
171
     1
175
     1
179
     1
273
     0
  0
XRECORD
  5
E9
102
{ACAD_REACTORS
330
E8
102
}
330
E8
100
AcDbXrecord
102
MATERIAL
148
0.0
149
0.0
149
0.0
 93
        0
 94
      127
282
     0
 72
     1
 77
     1
171
     1
175
     1
179
     1
273
     0
  0
XRECORD
  5
ED
102
{ACAD_REACTORS
330
EC
102
}
330
EC
100
AcDbXrecord
102
MATERIAL
148
0.0
149
0.0
149
0.0
 93
        0
 94
      127
282
     0
 72
     1
 77
     1
171
     1
175
     1
179
     1
273
     0
  0
ENDSEC
  0
EOF
