  0
SECTION
  2
HEADER
  9
$ACADVER
  1
AC1014
  9
$ACADMAINTVER
 70
     9
  9
$DWGCODEPAGE
  3
ANSI_1250
  9
$INSBASE
 10
0.0
 20
0.0
 30
0.0
  9
$EXTMIN
 10
-27.8157
 20
-28.7859
 30
0.0
  9
$EXTMAX
 10
27.5566
 20
29.1592
 30
0.0
  9
$LIMMIN
 10
0.0
 20
0.0
  9
$LIMMAX
 10
12.0
 20
9.0
  9
$ORTHOMODE
 70
     0
  9
$REGENMODE
 70
     1
  9
$FILLMODE
 70
     1
  9
$QTEXTMODE
 70
     0
  9
$MIRRTEXT
 70
     1
  9
$DRAGMODE
 70
     2
  9
$LTSCALE
 40
1.0
  9
$OSMODE
 70
    37
  9
$ATTMODE
 70
     1
  9
$TEXTSIZE
 40
0.2
  9
$TRACEWID
 40
0.05
  9
$TEXTSTYLE
  7
STANDARD
  9
$CLAYER
  8
0
  9
$CELTYPE
  6
BYLAYER
  9
$CECOLOR
 62
   256
  9
$CELTSCALE
 40
1.0
  9
$DELOBJ
 70
     1
  9
$DISPSILH
 70
     0
  9
$DIMSCALE
 40
1.0
  9
$DIMASZ
 40
0.18
  9
$DIMEXO
 40
0.0625
  9
$DIMDLI
 40
0.38
  9
$DIMRND
 40
0.0
  9
$DIMDLE
 40
0.0
  9
$DIMEXE
 40
0.18
  9
$DIMTP
 40
0.0
  9
$DIMTM
 40
0.0
  9
$DIMTXT
 40
0.18
  9
$DIMCEN
 40
0.09
  9
$DIMTSZ
 40
0.0
  9
$DIMTOL
 70
     0
  9
$DIMLIM
 70
     0
  9
$DIMTIH
 70
     1
  9
$DIMTOH
 70
     1
  9
$DIMSE1
 70
     0
  9
$DIMSE2
 70
     0
  9
$DIMTAD
 70
     0
  9
$DIMZIN
 70
     0
  9
$DIMBLK
  1

  9
$DIMASO
 70
     1
  9
$DIMSHO
 70
     1
  9
$DIMPOST
  1

  9
$DIMAPOST
  1

  9
$DIMALT
 70
     0
  9
$DIMALTD
 70
     2
  9
$DIMALTF
 40
25.4
  9
$DIMLFAC
 40
1.0
  9
$DIMTOFL
 70
     0
  9
$DIMTVP
 40
0.0
  9
$DIMTIX
 70
     0
  9
$DIMSOXD
 70
     0
  9
$DIMSAH
 70
     0
  9
$DIMBLK1
  1

  9
$DIMBLK2
  1

  9
$DIMSTYLE
  2
STANDARD
  9
$DIMCLRD
 70
     0
  9
$DIMCLRE
 70
     0
  9
$DIMCLRT
 70
     0
  9
$DIMTFAC
 40
1.0
  9
$DIMGAP
 40
0.09
  9
$DIMJUST
 70
     0
  9
$DIMSD1
 70
     0
  9
$DIMSD2
 70
     0
  9
$DIMTOLJ
 70
     1
  9
$DIMTZIN
 70
     0
  9
$DIMALTZ
 70
     0
  9
$DIMALTTZ
 70
     0
  9
$DIMFIT
 70
     3
  9
$DIMUPT
 70
     0
  9
$DIMUNIT
 70
     2
  9
$DIMDEC
 70
     4
  9
$DIMTDEC
 70
     4
  9
$DIMALTU
 70
     2
  9
$DIMALTTD
 70
     2
  9
$DIMTXSTY
  7
STANDARD
  9
$DIMAUNIT
 70
     0
  9
$LUNITS
 70
     2
  9
$LUPREC
 70
     4
  9
$SKETCHINC
 40
0.1
  9
$FILLETRAD
 40
0.5
  9
$AUNITS
 70
     0
  9
$AUPREC
 70
     0
  9
$MENU
  1
.
  9
$ELEVATION
 40
0.0
  9
$PELEVATION
 40
0.0
  9
$THICKNESS
 40
0.0
  9
$LIMCHECK
 70
     0
  9
$CHAMFERA
 40
0.5
  9
$CHAMFERB
 40
0.5
  9
$CHAMFERC
 40
1.0
  9
$CHAMFERD
 40
0.0
  9
$SKPOLY
 70
     0
  9
$TDCREATE
 40
2456247.404870926
  9
$TDUPDATE
 40
2456247.404870938
  9
$TDINDWG
 40
0.0000000116
  9
$TDUSRTIMER
 40
0.0000000116
  9
$USRTIMER
 70
     1
  9
$ANGBASE
 50
0.0
  9
$ANGDIR
 70
     0
  9
$PDMODE
 70
     0
  9
$PDSIZE
 40
0.0
  9
$PLINEWID
 40
0.0
  9
$COORDS
 70
     1
  9
$SPLFRAME
 70
     0
  9
$SPLINETYPE
 70
     6
  9
$SPLINESEGS
 70
     8
  9
$ATTDIA
 70
     0
  9
$ATTREQ
 70
     1
  9
$HANDLING
 70
     1
  9
$HANDSEED
  5
136
  9
$SURFTAB1
 70
     6
  9
$SURFTAB2
 70
     6
  9
$SURFTYPE
 70
     6
  9
$SURFU
 70
     6
  9
$SURFV
 70
     6
  9
$UCSNAME
  2

  9
$UCSORG
 10
0.0
 20
0.0
 30
0.0
  9
$UCSXDIR
 10
1.0
 20
0.0
 30
0.0
  9
$UCSYDIR
 10
0.0
 20
1.0
 30
0.0
  9
$PUCSNAME
  2

  9
$PUCSORG
 10
0.0
 20
0.0
 30
0.0
  9
$PUCSXDIR
 10
1.0
 20
0.0
 30
0.0
  9
$PUCSYDIR
 10
0.0
 20
1.0
 30
0.0
  9
$USERI1
 70
     0
  9
$USERI2
 70
     0
  9
$USERI3
 70
     0
  9
$USERI4
 70
     0
  9
$USERI5
 70
     0
  9
$USERR1
 40
0.0
  9
$USERR2
 40
0.0
  9
$USERR3
 40
0.0
  9
$USERR4
 40
0.0
  9
$USERR5
 40
0.0
  9
$WORLDVIEW
 70
     1
  9
$SHADEDGE
 70
     3
  9
$SHADEDIF
 70
    70
  9
$TILEMODE
 70
     1
  9
$MAXACTVP
 70
    64
  9
$PINSBASE
 10
0.0
 20
0.0
 30
0.0
  9
$PLIMCHECK
 70
     0
  9
$PEXTMIN
 10
1.000000000000000E+20
 20
1.000000000000000E+20
 30
1.000000000000000E+20
  9
$PEXTMAX
 10
-1.000000000000000E+20
 20
-1.000000000000000E+20
 30
-1.000000000000000E+20
  9
$PLIMMIN
 10
0.0
 20
0.0
  9
$PLIMMAX
 10
12.0
 20
9.0
  9
$UNITMODE
 70
     0
  9
$VISRETAIN
 70
     1
  9
$PLINEGEN
 70
     0
  9
$PSLTSCALE
 70
     1
  9
$TREEDEPTH
 70
  3020
  9
$PICKSTYLE
 70
     1
  9
$CMLSTYLE
  2
STANDARD
  9
$CMLJUST
 70
     0
  9
$CMLSCALE
 40
1.0
  9
$PROXYGRAPHICS
 70
     1
  9
$MEASUREMENT
 70
     0
  0
ENDSEC
  0
SECTION
  2
CLASSES
  0
CLASS
  1
ACDBDICTIONARYWDFLT
  2
AcDbDictionaryWithDefault
  3
ObjectDBX Classes
 90
        0
280
     0
281
     0
  0
CLASS
  1
VISUALSTYLE
  2
AcDbVisualStyle
  3
ObjectDBX Classes
 90
     4095
280
     0
281
     0
  0
CLASS
  1
MATERIAL
  2
AcDbMaterial
  3
ObjectDBX Classes
 90
     1153
280
     0
281
     0
  0
CLASS
  1
DICTIONARYVAR
  2
AcDbDictionaryVar
  3
ObjectDBX Classes
 90
        0
280
     0
281
     0
  0
CLASS
  1
XRECORD
  2
AcDbXrecord
  3
AutoCAD 2000
 90
        0
280
     0
281
     0
  0
CLASS
  1
LWPOLYLINE
  2
AcDbPolyline
  3
AutoCAD 2000
 90
        0
280
     0
281
     1
  0
CLASS
  1
HATCH
  2
AcDbHatch
  3
AutoCAD 2000
 90
        0
280
     0
281
     1
  0
CLASS
  1
ACDBPLACEHOLDER
  2
AcDbPlaceHolder
  3
ObjectDBX Classes
 90
        0
280
     0
281
     0
  0
CLASS
  1
LAYOUT
  2
AcDbLayout
  3
ObjectDBX Classes
 90
        0
280
     0
281
     0
  0
ENDSEC
  0
SECTION
  2
TABLES
  0
TABLE
  2
VPORT
  5
8
330
0
100
AcDbSymbolTable
 70
     1
  0
VPORT
  5
29
330
8
100
AcDbSymbolTableRecord
100
AcDbViewportTableRecord
  2
*ACTIVE
 70
     0
 10
0.0
 20
0.0
 11
1.0
 21
1.0
 12
10.42990654205607
 22
4.5
 13
0.0
 23
0.0
 14
0.5
 24
0.5
 15
0.5
 25
0.5
 16
0.0
 26
0.0
 36
1.0
 17
0.0
 27
0.0
 37
0.0
 40
9.0
 41
1.972972972850329
 42
50.0
 43
0.0
 44
0.0
 50
0.0
 51
0.0
 71
     0
 72
   100
 73
     1
 74
     3
 75
     0
 76
     0
 77
     0
 78
     0
  0
ENDTAB
  0
TABLE
  2
LTYPE
  5
5
330
0
100
AcDbSymbolTable
 70
     5
  0
LTYPE
  5
14
330
5
100
AcDbSymbolTableRecord
100
AcDbLinetypeTableRecord
  2
BYBLOCK
 70
     0
  3

 72
    65
 73
     0
 40
0.0
  0
LTYPE
  5
15
330
5
100
AcDbSymbolTableRecord
100
AcDbLinetypeTableRecord
  2
BYLAYER
 70
     0
  3

 72
    65
 73
     0
 40
0.0
  0
LTYPE
  5
16
330
5
100
AcDbSymbolTableRecord
100
AcDbLinetypeTableRecord
  2
CONTINUOUS
 70
     0
  3
Solid line
 72
    65
 73
     0
 40
0.0
  0
LTYPE
  5
4B
330
5
100
AcDbSymbolTableRecord
100
AcDbLinetypeTableRecord
  2
NEW_LINE1
 70
     0
  3

 72
    65
 73
     4
 40
1.2
 49
0.5
 74
     4
 75
     0
340
0
 46
1.0
 50
0.0
 44
0.0
 45
0.0
 49
-0.3
 74
     4
 75
     0
340
0
 46
1.0
 50
0.0
 44
0.0
 45
0.0
 49
0.1
 74
     4
 75
     0
340
0
 46
1.0
 50
0.0
 44
0.0
 45
0.0
 49
-0.3
 74
     4
 75
     0
340
0
 46
1.0
 50
0.0
 44
0.0
 45
0.0
  0
LTYPE
  5
74
330
5
100
AcDbSymbolTableRecord
100
AcDbLinetypeTableRecord
  2
NEW_LINE2
 70
     0
  3

 72
    65
 73
     4
 40
1.2
 49
0.5
 74
     4
 75
     0
340
0
 46
1.0
 50
0.0
 44
0.0
 45
0.0
 49
-0.3
 74
     4
 75
     0
340
0
 46
1.0
 50
0.0
 44
0.0
 45
0.0
 49
0.1
 74
     4
 75
     0
340
0
 46
1.0
 50
0.0
 44
0.0
 45
0.0
 49
-0.3
 74
     4
 75
     0
340
0
 46
1.0
 50
0.0
 44
0.0
 45
0.0
  0
LTYPE
  5
F4
330
5
100
AcDbSymbolTableRecord
100
AcDbLinetypeTableRecord
  2
NEW_LINE3
 70
     0
  3

 72
    65
 73
     4
 40
1.2
 49
0.5
 74
     4
 75
     0
340
0
 46
1.0
 50
0.0
 44
0.0
 45
0.0
 49
-0.3
 74
     4
 75
     0
340
0
 46
1.0
 50
0.0
 44
0.0
 45
0.0
 49
0.1
 74
     4
 75
     0
340
0
 46
1.0
 50
0.0
 44
0.0
 45
0.0
 49
-0.3
 74
     4
 75
     0
340
0
 46
1.0
 50
0.0
 44
0.0
 45
0.0
  0
LTYPE
  5
FF
330
5
100
AcDbSymbolTableRecord
100
AcDbLinetypeTableRecord
  2
NEW_LINE4
 70
     0
  3

 72
    65
 73
     4
 40
1.2
 49
0.5
 74
     4
 75
     0
340
0
 46
1.0
 50
0.0
 44
0.0
 45
0.0
 49
-0.3
 74
     4
 75
     0
340
0
 46
1.0
 50
0.0
 44
0.0
 45
0.0
 49
0.1
 74
     4
 75
     0
340
0
 46
1.0
 50
0.0
 44
0.0
 45
0.0
 49
-0.3
 74
     4
 75
     0
340
0
 46
1.0
 50
0.0
 44
0.0
 45
0.0
  0
ENDTAB
  0
TABLE
  2
LAYER
  5
2
330
0
100
AcDbSymbolTable
 70
     2
  0
LAYER
  5
10
330
2
100
AcDbSymbolTableRecord
100
AcDbLayerTableRecord
  2
0
 70
     0
 62
     7
  6
CONTINUOUS
  0
LAYER
  5
40
330
2
100
AcDbSymbolTableRecord
100
AcDbLayerTableRecord
  2
DEFAULT_1
 70
     0
 62
     7
  6
CONTINUOUS
  0
ENDTAB
  0
TABLE
  2
STYLE
  5
3
330
0
100
AcDbSymbolTable
 70
     1
  0
STYLE
  5
11
330
3
100
AcDbSymbolTableRecord
100
AcDbTextStyleTableRecord
  2
STANDARD
 70
     0
 40
0.0
 41
1.0
 50
0.0
 71
     0
 42
0.2
  3
txt
  4

  0
ENDTAB
  0
TABLE
  2
VIEW
  5
6
330
0
100
AcDbSymbolTable
 70
     0
  0
ENDTAB
  0
TABLE
  2
UCS
  5
7
330
0
100
AcDbSymbolTable
 70
     0
  0
ENDTAB
  0
TABLE
  2
APPID
  5
9
330
0
100
AcDbSymbolTable
 70
     2
  0
APPID
  5
12
330
9
100
AcDbSymbolTableRecord
100
AcDbRegAppTableRecord
  2
ACAD
 70
     0
  0
APPID
  5
3F
330
9
100
AcDbSymbolTableRecord
100
AcDbRegAppTableRecord
  2
ODA
 70
     0
  0
ENDTAB
  0
TABLE
  2
DIMSTYLE
  5
A
330
0
100
AcDbSymbolTable
 70
     1
  0
DIMSTYLE
105
27
330
A
100
AcDbSymbolTableRecord
100
AcDbDimStyleTableRecord
  2
STANDARD
 70
     0
  3

  4

  5

  6

  7

 40
1.0
 41
0.18
 42
0.0625
 43
0.38
 44
0.18
 45
0.0
 46
0.0
 47
0.0
 48
0.0
140
0.18
141
0.09
142
0.0
143
25.4
144
1.0
145
0.0
146
1.0
147
0.09
 71
     0
 72
     0
 73
     1
 74
     1
 75
     0
 76
     0
 77
     0
 78
     0
170
     0
171
     2
172
     0
173
     0
174
     0
175
     0
176
     0
177
     0
178
     0
270
     2
271
     4
272
     4
273
     2
274
     2
340
11
275
     0
280
     0
281
     0
282
     0
283
     1
284
     0
285
     0
286
     0
287
     3
288
     0
  0
ENDTAB
  0
TABLE
  2
BLOCK_RECORD
  5
1
330
0
100
AcDbSymbolTable
 70
     1
  0
BLOCK_RECORD
  5
1F
330
1
100
AcDbSymbolTableRecord
100
AcDbBlockTableRecord
  2
*MODEL_SPACE
  0
BLOCK_RECORD
  5
1B
330
1
100
AcDbSymbolTableRecord
100
AcDbBlockTableRecord
  2
*PAPER_SPACE
  0
ENDTAB
  0
ENDSEC
  0
SECTION
  2
BLOCKS
  0
BLOCK
  5
20
330
1F
100
AcDbEntity
  8
0
100
AcDbBlockBegin
  2
*MODEL_SPACE
 70
     0
 10
0.0
 20
0.0
 30
0.0
  3
*MODEL_SPACE
  1

  0
ENDBLK
  5
21
330
1F
100
AcDbEntity
  8
0
100
AcDbBlockEnd
  0
BLOCK
  5
1C
330
1B
100
AcDbEntity
 67
     1
  8
0
100
AcDbBlockBegin
  2
*PAPER_SPACE
 70
     0
 10
0.0
 20
0.0
 30
0.0
  3
*PAPER_SPACE
  1

  0
ENDBLK
  5
1D
330
1B
100
AcDbEntity
 67
     1
  8
0
100
AcDbBlockEnd
  0
ENDSEC
  0
SECTION
  2
ENTITIES
  0
SPLINE
  5
41
330
1F
100
AcDbEntity
  8
DEFAULT_1
 62
   250
100
AcDbSpline
210
0.0
220
0.0
230
1.0
 70
    24
 71
     3
 72
     8
 73
     4
 74
     0
 42
0.0000000001
 43
0.0000000001
 40
0.0
 40
0.0
 40
0.0
 40
0.0
 40
1.0
 40
1.0
 40
1.0
 40
1.0
 10
-21.7699
 20
0.8662
 30
0.0
 10
-21.7699
 20
0.8662
 30
0.0
 10
-5.2355
 20
0.8662
 30
0.0
 10
-5.2355
 20
0.8662
 30
0.0
  0
SPLINE
  5
42
330
1F
100
AcDbEntity
  8
DEFAULT_1
 62
   250
100
AcDbSpline
210
0.0
220
0.0
230
1.0
 70
    24
 71
     3
 72
     8
 73
     4
 74
     0
 42
0.0000000001
 43
0.0000000001
 40
0.0
 40
0.0
 40
0.0
 40
0.0
 40
1.0
 40
1.0
 40
1.0
 40
1.0
 10
26.3754
 20
-6.3876
 30
0.0
 10
26.3754
 20
-6.3876
 30
0.0
 10
26.3754
 20
21.7968
 30
0.0
 10
26.3754
 20
21.7968
 30
0.0
  0
SPLINE
  5
43
330
1F
100
AcDbEntity
  8
DEFAULT_1
 62
   250
100
AcDbSpline
210
0.0
220
0.0
230
1.0
 70
    24
 71
     3
 72
     8
 73
     4
 74
     0
 42
0.0000000001
 43
0.0000000001
 40
0.0
 40
0.0
 40
0.0
 40
0.0
 40
1.0
 40
1.0
 40
1.0
 40
1.0
 10
26.1687
 20
20.998
 30
0.0
 10
26.1687
 20
20.998
 30
0.0
 10
-15.2066
 20
20.998
 30
0.0
 10
-15.2066
 20
20.998
 30
0.0
  0
SPLINE
  5
44
330
1F
100
AcDbEntity
  8
DEFAULT_1
 62
   250
100
AcDbSpline
210
0.0
220
0.0
230
1.0
 70
    24
 71
     3
 72
     8
 73
     4
 74
     0
 42
0.0000000001
 43
0.0000000001
 40
0.0
 40
0.0
 40
0.0
 40
0.0
 40
1.0
 40
1.0
 40
1.0
 40
1.0
 10
-19.0125
 20
16.8247
 30
0.0
 10
-19.0125
 20
16.8247
 30
0.0
 10
-19.0125
 20
26.5736
 30
0.0
 10
-19.0125
 20
26.5736
 30
0.0
  0
SPLINE
  5
45
330
1F
100
AcDbEntity
  8
DEFAULT_1
 62
   250
100
AcDbSpline
210
0.0
220
0.0
230
1.0
 70
    24
 71
     3
 72
     8
 73
     4
 74
     0
 42
0.0000000001
 43
0.0000000001
 40
0.0
 40
0.0
 40
0.0
 40
0.0
 40
1.0
 40
1.0
 40
1.0
 40
1.0
 10
-11.7465
 20
21.8299
 30
0.0
 10
-11.7465
 20
21.8299
 30
0.0
 10
-11.7465
 20
26.6298
 30
0.0
 10
-11.7465
 20
26.6298
 30
0.0
  0
SPLINE
  5
46
330
1F
100
AcDbEntity
  8
DEFAULT_1
 62
   250
100
AcDbSpline
210
0.0
220
0.0
230
1.0
 70
    24
 71
     3
 72
     8
 73
     4
 74
     0
 42
0.0000000001
 43
0.0000000001
 40
0.0
 40
0.0
 40
0.0
 40
0.0
 40
1.0
 40
1.0
 40
1.0
 40
1.0
 10
-6.2954
 20
25.845
 30
0.0
 10
-6.2954
 20
25.845
 30
0.0
 10
-24.9394
 20
25.845
 30
0.0
 10
-24.9394
 20
25.845
 30
0.0
  0
SPLINE
  5
47
330
1F
100
AcDbEntity
  8
DEFAULT_1
 62
   250
100
AcDbSpline
210
0.0
220
0.0
230
1.0
 70
    24
 71
     3
 72
     8
 73
     4
 74
     0
 42
0.0000000001
 43
0.0000000001
 40
0.0
 40
0.0
 40
0.0
 40
0.0
 40
1.0
 40
1.0
 40
1.0
 40
1.0
 10
-20.4775
 20
16.4153
 30
0.0
 10
-20.4775
 20
16.4153
 30
0.0
 10
-25.9613
 20
16.4153
 30
0.0
 10
-25.9613
 20
16.4153
 30
0.0
  0
SPLINE
  5
48
330
1F
100
AcDbEntity
  8
DEFAULT_1
 62
   250
100
AcDbSpline
210
0.0
220
0.0
230
1.0
 70
    24
 71
     3
 72
     8
 73
     4
 74
     0
 42
0.0000000001
 43
0.0000000001
 40
0.0
 40
0.0
 40
0.0
 40
0.0
 40
1.0
 40
1.0
 40
1.0
 40
1.0
 10
-15.9646
 20
-9.2836
 30
0.0
 10
-15.9646
 20
-9.2836
 30
0.0
 10
-25.6401
 20
-9.2836
 30
0.0
 10
-25.6401
 20
-9.2836
 30
0.0
  0
SPLINE
  5
49
330
1F
100
AcDbEntity
  8
DEFAULT_1
 62
   250
100
AcDbSpline
210
0.0
220
0.0
230
1.0
 70
    24
 71
     3
 72
     8
 73
     4
 74
     0
 42
0.0000000001
 43
0.0000000001
 40
0.0
 40
0.0
 40
0.0
 40
0.0
 40
1.0
 40
1.0
 40
1.0
 40
1.0
 10
-25.194
 20
15.243
 30
0.0
 10
-25.194
 20
15.243
 30
0.0
 10
-25.194
 20
-9.1347
 30
0.0
 10
-25.194
 20
-9.1347
 30
0.0
  0
SPLINE
  5
4A
330
1F
100
AcDbEntity
  8
DEFAULT_1
  6
NEW_LINE1
 62
   250
100
AcDbSpline
210
0.0
220
0.0
230
1.0
 70
    24
 71
     3
 72
     8
 73
     4
 74
     0
 42
0.0000000001
 43
0.0000000001
 40
0.0
 40
0.0
 40
0.0
 40
0.0
 40
1.0
 40
1.0
 40
1.0
 40
1.0
 10
-15.3298
 20
21.7185
 30
0.0
 10
-15.3298
 20
21.7185
 30
0.0
 10
-15.3298
 20
-10.7638
 30
0.0
 10
-15.3298
 20
-10.7638
 30
0.0
  0
SPLINE
  5
4C
330
1F
100
AcDbEntity
  8
DEFAULT_1
 62
   250
100
AcDbSpline
210
0.0
220
0.0
230
1.0
 70
    11
 71
     3
 72
    84
 73
    80
 74
     0
 42
0.0000000001
 43
0.0000000001
 40
0.0
 40
0.0
 40
0.0
 40
0.0
 40
0.0476190476190476
 40
0.0476190476190476
 40
0.0476190476190476
 40
0.0476190476190476
 40
0.0952380952380952
 40
0.0952380952380952
 40
0.0952380952380952
 40
0.0952380952380952
 40
0.1428571428571428
 40
0.1428571428571428
 40
0.1428571428571428
 40
0.1428571428571428
 40
0.1904761904761905
 40
0.1904761904761905
 40
0.1904761904761905
 40
0.1904761904761905
 40
0.2380952380952381
 40
0.2380952380952381
 40
0.2380952380952381
 40
0.2380952380952381
 40
0.2857142857142857
 40
0.2857142857142857
 40
0.2857142857142857
 40
0.2857142857142857
 40
0.3333333333333333
 40
0.3333333333333333
 40
0.3333333333333333
 40
0.3333333333333333
 40
0.3809523809523809
 40
0.3809523809523809
 40
0.3809523809523809
 40
0.3809523809523809
 40
0.4285714285714285
 40
0.4285714285714285
 40
0.4285714285714285
 40
0.4285714285714285
 40
0.4761904761904762
 40
0.4761904761904762
 40
0.4761904761904762
 40
0.4761904761904762
 40
0.5238095238095238
 40
0.5238095238095238
 40
0.5238095238095238
 40
0.5238095238095238
 40
0.5714285714285714
 40
0.5714285714285714
 40
0.5714285714285714
 40
0.5714285714285714
 40
0.6190476190476191
 40
0.6190476190476191
 40
0.6190476190476191
 40
0.6190476190476191
 40
0.6666666666666666
 40
0.6666666666666666
 40
0.6666666666666666
 40
0.6666666666666666
 40
0.7142857142857143
 40
0.7142857142857143
 40
0.7142857142857143
 40
0.7142857142857143
 40
0.7619047619047619
 40
0.7619047619047619
 40
0.7619047619047619
 40
0.7619047619047619
 40
0.8095238095238095
 40
0.8095238095238095
 40
0.8095238095238095
 40
0.8095238095238095
 40
0.8571428571428571
 40
0.8571428571428571
 40
0.8571428571428571
 40
0.8571428571428571
 40
0.9047619047619048
 40
0.9047619047619048
 40
0.9047619047619048
 40
0.9047619047619048
 40
1.0
 40
1.0
 40
1.0
 40
1.0
 10
-9.5238
 20
3.6423
 30
0.0
 10
-9.5238
 20
3.6423
 30
0.0
 10
-9.2924
 20
3.9014
 30
0.0
 10
-9.2924
 20
3.9014
 30
0.0
 10
-9.2924
 20
3.9014
 30
0.0
 10
-9.2924
 20
3.9014
 30
0.0
 10
-9.156
 20
3.7857
 30
0.0
 10
-9.156
 20
3.7857
 30
0.0
 10
-9.156
 20
3.7857
 30
0.0
 10
-9.156
 20
3.7857
 30
0.0
 10
-9.3982
 20
3.5129
 30
0.0
 10
-9.3982
 20
3.5129
 30
0.0
 10
-9.3982
 20
3.5129
 30
0.0
 10
-9.3192
 20
3.3953
 30
0.0
 10
-9.2661
 20
3.2923
 30
0.0
 10
-9.2383
 20
3.2044
 30
0.0
 10
-9.2383
 20
3.2044
 30
0.0
 10
-9.2016
 20
3.0886
 30
0.0
 10
-9.1833
 20
2.9588
 30
0.0
 10
-9.1833
 20
2.8158
 30
0.0
 10
-9.1833
 20
2.8158
 30
0.0
 10
-9.1833
 20
2.6089
 30
0.0
 10
-9.2251
 20
2.4245
 30
0.0
 10
-9.3089
 20
2.2632
 30
0.0
 10
-9.3089
 20
2.2632
 30
0.0
 10
-9.3926
 20
2.1013
 30
0.0
 10
-9.5097
 20
1.9791
 30
0.0
 10
-9.6607
 20
1.8963
 30
0.0
 10
-9.6607
 20
1.8963
 30
0.0
 10
-9.8122
 20
1.814
 30
0.0
 10
-9.9725
 20
1.7726
 30
0.0
 10
-10.1423
 20
1.7726
 30
0.0
 10
-10.1423
 20
1.7726
 30
0.0
 10
-10.2693
 20
1.7726
 30
0.0
 10
-10.3841
 20
1.7904
 30
0.0
 10
-10.4871
 20
1.8262
 30
0.0
 10
-10.4871
 20
1.8262
 30
0.0
 10
-10.5661
 20
1.8539
 30
0.0
 10
-10.6583
 20
1.9066
 30
0.0
 10
-10.7642
 20
1.9847
 30
0.0
 10
-10.7642
 20
1.9847
 30
0.0
 10
-10.7642
 20
1.9847
 30
0.0
 10
-10.9956
 20
1.7255
 30
0.0
 10
-10.9956
 20
1.7255
 30
0.0
 10
-10.9956
 20
1.7255
 30
0.0
 10
-10.9956
 20
1.7255
 30
0.0
 10
-11.132
 20
1.8412
 30
0.0
 10
-11.132
 20
1.8412
 30
0.0
 10
-11.132
 20
1.8412
 30
0.0
 10
-11.132
 20
1.8412
 30
0.0
 10
-10.8893
 20
2.1126
 30
0.0
 10
-10.8893
 20
2.1126
 30
0.0
 10
-10.8893
 20
2.1126
 30
0.0
 10
-10.9796
 20
2.2495
 30
0.0
 10
-11.0398
 20
2.3666
 30
0.0
 10
-11.0699
 20
2.4635
 30
0.0
 10
-11.0699
 20
2.4635
 30
0.0
 10
-11.1
 20
2.5604
 30
0.0
 10
-11.1155
 20
2.6771
 30
0.0
 10
-11.1155
 20
2.813
 30
0.0
 10
-11.1155
 20
2.813
 30
0.0
 10
-11.1155
 20
3.0204
 30
0.0
 10
-11.0741
 20
3.2053
 30
0.0
 10
-10.9914
 20
3.3676
 30
0.0
 10
-10.9914
 20
3.3676
 30
0.0
 10
-10.9086
 20
3.5299
 30
0.0
 10
-10.7929
 20
3.6526
 30
0.0
 10
-10.6433
 20
3.7363
 30
0.0
 10
-10.6433
 20
3.7363
 30
0.0
 10
-10.4942
 20
3.8196
 30
0.0
 10
-10.3281
 20
3.8615
 30
0.0
 10
-10.1452
 20
3.8615
 30
0.0
 10
-10.1452
 20
3.8615
 30
0.0
 10
-10.0219
 20
3.8615
 30
0.0
 10
-9.9142
 20
3.8455
 30
0.0
 10
-9.822
 20
3.8125
 30
0.0
 10
-9.822
 20
3.8125
 30
0.0
 10
-9.7298
 20
3.7801
 30
0.0
 10
-9.6301
 20
3.7232
 30
0.0
 10
-9.5238
 20
3.6423
 30
0.0
  0
SPLINE
  5
4D
330
1F
100
AcDbEntity
  8
DEFAULT_1
 62
   250
100
AcDbSpline
210
0.0
220
0.0
230
1.0
 70
    11
 71
     3
 72
    32
 73
    28
 74
     0
 42
0.0000000001
 43
0.0000000001
 40
0.0
 40
0.0
 40
0.0
 40
0.0
 40
0.125
 40
0.125
 40
0.125
 40
0.125
 40
0.25
 40
0.25
 40
0.25
 40
0.25
 40
0.375
 40
0.375
 40
0.375
 40
0.375
 40
0.5
 40
0.5
 40
0.5
 40
0.5
 40
0.625
 40
0.625
 40
0.625
 40
0.625
 40
0.75
 40
0.75
 40
0.75
 40
0.75
 40
1.0
 40
1.0
 40
1.0
 40
1.0
 10
-9.6889
 20
3.4565
 30
0.0
 10
-9.7755
 20
3.5242
 30
0.0
 10
-9.8512
 20
3.5708
 30
0.0
 10
-9.9156
 20
3.5957
 30
0.0
 10
-9.9156
 20
3.5957
 30
0.0
 10
-9.9805
 20
3.6202
 30
0.0
 10
-10.0567
 20
3.6329
 30
0.0
 10
-10.1438
 20
3.6329
 30
0.0
 10
-10.1438
 20
3.6329
 30
0.0
 10
-10.3451
 20
3.6329
 30
0.0
 10
-10.5111
 20
3.5647
 30
0.0
 10
-10.6428
 20
3.4283
 30
0.0
 10
-10.6428
 20
3.4283
 30
0.0
 10
-10.7741
 20
3.2918
 30
0.0
 10
-10.8399
 20
3.0882
 30
0.0
 10
-10.8399
 20
2.8168
 30
0.0
 10
-10.8399
 20
2.8168
 30
0.0
 10
-10.8399
 20
2.7105
 30
0.0
 10
-10.8296
 20
2.6159
 30
0.0
 10
-10.8093
 20
2.5331
 30
0.0
 10
-10.8093
 20
2.5331
 30
0.0
 10
-10.7947
 20
2.4715
 30
0.0
 10
-10.7642
 20
2.3958
 30
0.0
 10
-10.7171
 20
2.306
 30
0.0
 10
-10.7171
 20
2.306
 30
0.0
 10
-10.7171
 20
2.306
 30
0.0
 10
-9.6889
 20
3.4565
 30
0.0
 10
-9.6889
 20
3.4565
 30
0.0
  0
SPLINE
  5
4E
330
1F
100
AcDbEntity
  8
DEFAULT_1
 62
   250
100
AcDbSpline
210
0.0
220
0.0
230
1.0
 70
    11
 71
     3
 72
    28
 73
    24
 74
     0
 42
0.0000000001
 43
0.0000000001
 40
0.0
 40
0.0
 40
0.0
 40
0.0
 40
0.1428571428571428
 40
0.1428571428571428
 40
0.1428571428571428
 40
0.1428571428571428
 40
0.2857142857142857
 40
0.2857142857142857
 40
0.2857142857142857
 40
0.2857142857142857
 40
0.4285714285714285
 40
0.4285714285714285
 40
0.4285714285714285
 40
0.4285714285714285
 40
0.5714285714285714
 40
0.5714285714285714
 40
0.5714285714285714
 40
0.5714285714285714
 40
0.7142857142857143
 40
0.7142857142857143
 40
0.7142857142857143
 40
0.7142857142857143
 40
1.0
 40
1.0
 40
1.0
 40
1.0
 10
-9.576
 20
3.3144
 30
0.0
 10
-9.576
 20
3.3144
 30
0.0
 10
-10.6
 20
2.1681
 30
0.0
 10
-10.6
 20
2.1681
 30
0.0
 10
-10.6
 20
2.1681
 30
0.0
 10
-10.5295
 20
2.1103
 30
0.0
 10
-10.4641
 20
2.0698
 30
0.0
 10
-10.4043
 20
2.0468
 30
0.0
 10
-10.4043
 20
2.0468
 30
0.0
 10
-10.3263
 20
2.0162
 30
0.0
 10
-10.2416
 20
2.0012
 30
0.0
 10
-10.1508
 20
2.0012
 30
0.0
 10
-10.1508
 20
2.0012
 30
0.0
 10
-9.9504
 20
2.0012
 30
0.0
 10
-9.7853
 20
2.0717
 30
0.0
 10
-9.6546
 20
2.2133
 30
0.0
 10
-9.6546
 20
2.2133
 30
0.0
 10
-9.5243
 20
2.3549
 30
0.0
 10
-9.4589
 20
2.5534
 30
0.0
 10
-9.4589
 20
2.8088
 30
0.0
 10
-9.4589
 20
2.8088
 30
0.0
 10
-9.4589
 20
2.9997
 30
0.0
 10
-9.4979
 20
3.1686
 30
0.0
 10
-9.576
 20
3.3144
 30
0.0
  0
SPLINE
  5
4F
330
1F
100
AcDbEntity
  8
DEFAULT_1
 62
   250
100
AcDbSpline
210
0.0
220
0.0
230
1.0
 70
    11
 71
     3
 72
   124
 73
   120
 74
     0
 42
0.0000000001
 43
0.0000000001
 40
0.0
 40
0.0
 40
0.0
 40
0.0
 40
0.032258064516129
 40
0.032258064516129
 40
0.032258064516129
 40
0.032258064516129
 40
0.0645161290322581
 40
0.0645161290322581
 40
0.0645161290322581
 40
0.0645161290322581
 40
0.0967741935483871
 40
0.0967741935483871
 40
0.0967741935483871
 40
0.0967741935483871
 40
0.1290322580645161
 40
0.1290322580645161
 40
0.1290322580645161
 40
0.1290322580645161
 40
0.1612903225806452
 40
0.1612903225806452
 40
0.1612903225806452
 40
0.1612903225806452
 40
0.1935483870967742
 40
0.1935483870967742
 40
0.1935483870967742
 40
0.1935483870967742
 40
0.2258064516129032
 40
0.2258064516129032
 40
0.2258064516129032
 40
0.2258064516129032
 40
0.2580645161290323
 40
0.2580645161290323
 40
0.2580645161290323
 40
0.2580645161290323
 40
0.2903225806451613
 40
0.2903225806451613
 40
0.2903225806451613
 40
0.2903225806451613
 40
0.3225806451612903
 40
0.3225806451612903
 40
0.3225806451612903
 40
0.3225806451612903
 40
0.3548387096774194
 40
0.3548387096774194
 40
0.3548387096774194
 40
0.3548387096774194
 40
0.3870967741935484
 40
0.3870967741935484
 40
0.3870967741935484
 40
0.3870967741935484
 40
0.4193548387096774
 40
0.4193548387096774
 40
0.4193548387096774
 40
0.4193548387096774
 40
0.4516129032258064
 40
0.4516129032258064
 40
0.4516129032258064
 40
0.4516129032258064
 40
0.4838709677419355
 40
0.4838709677419355
 40
0.4838709677419355
 40
0.4838709677419355
 40
0.5161290322580645
 40
0.5161290322580645
 40
0.5161290322580645
 40
0.5161290322580645
 40
0.5483870967741935
 40
0.5483870967741935
 40
0.5483870967741935
 40
0.5483870967741935
 40
0.5806451612903226
 40
0.5806451612903226
 40
0.5806451612903226
 40
0.5806451612903226
 40
0.6129032258064516
 40
0.6129032258064516
 40
0.6129032258064516
 40
0.6129032258064516
 40
0.6451612903225806
 40
0.6451612903225806
 40
0.6451612903225806
 40
0.6451612903225806
 40
0.6774193548387096
 40
0.6774193548387096
 40
0.6774193548387096
 40
0.6774193548387096
 40
0.7096774193548387
 40
0.7096774193548387
 40
0.7096774193548387
 40
0.7096774193548387
 40
0.7419354838709677
 40
0.7419354838709677
 40
0.7419354838709677
 40
0.7419354838709677
 40
0.7741935483870968
 40
0.7741935483870968
 40
0.7741935483870968
 40
0.7741935483870968
 40
0.8064516129032258
 40
0.8064516129032258
 40
0.8064516129032258
 40
0.8064516129032258
 40
0.8387096774193549
 40
0.8387096774193549
 40
0.8387096774193549
 40
0.8387096774193549
 40
0.8709677419354839
 40
0.8709677419354839
 40
0.8709677419354839
 40
0.8709677419354839
 40
0.9032258064516129
 40
0.9032258064516129
 40
0.9032258064516129
 40
0.9032258064516129
 40
0.9354838709677419
 40
0.9354838709677419
 40
0.9354838709677419
 40
0.9354838709677419
 40
1.0
 40
1.0
 40
1.0
 40
1.0
 10
-8.9326
 20
2.3403
 30
0.0
 10
-8.9326
 20
2.3403
 30
0.0
 10
-8.6847
 20
2.3732
 30
0.0
 10
-8.6847
 20
2.3732
 30
0.0
 10
-8.6847
 20
2.3732
 30
0.0
 10
-8.656
 20
2.2326
 30
0.0
 10
-8.6075
 20
2.1315
 30
0.0
 10
-8.5393
 20
2.0694
 30
0.0
 10
-8.5393
 20
2.0694
 30
0.0
 10
-8.4707
 20
2.0073
 30
0.0
 10
-8.3874
 20
1.9762
 30
0.0
 10
-8.2891
 20
1.9762
 30
0.0
 10
-8.2891
 20
1.9762
 30
0.0
 10
-8.1725
 20
1.9762
 30
0.0
 10
-8.0737
 20
2.0167
 30
0.0
 10
-7.9932
 20
2.0976
 30
0.0
 10
-7.9932
 20
2.0976
 30
0.0
 10
-7.9133
 20
2.1785
 30
0.0
 10
-7.8728
 20
2.2787
 30
0.0
 10
-7.8728
 20
2.3982
 30
0.0
 10
-7.8728
 20
2.3982
 30
0.0
 10
-7.8728
 20
2.512
 30
0.0
 10
-7.91
 20
2.6061
 30
0.0
 10
-7.9843
 20
2.6799
 30
0.0
 10
-7.9843
 20
2.6799
 30
0.0
 10
-8.0591
 20
2.7537
 30
0.0
 10
-8.1536
 20
2.7909
 30
0.0
 10
-8.2684
 20
2.7909
 30
0.0
 10
-8.2684
 20
2.7909
 30
0.0
 10
-8.3154
 20
2.7909
 30
0.0
 10
-8.3738
 20
2.7815
 30
0.0
 10
-8.4434
 20
2.7632
 30
0.0
 10
-8.4434
 20
2.7632
 30
0.0
 10
-8.4434
 20
2.7632
 30
0.0
 10
-8.4156
 20
2.9809
 30
0.0
 10
-8.4156
 20
2.9809
 30
0.0
 10
-8.4156
 20
2.9809
 30
0.0
 10
-8.3992
 20
2.9791
 30
0.0
 10
-8.386
 20
2.9781
 30
0.0
 10
-8.3757
 20
2.9781
 30
0.0
 10
-8.3757
 20
2.9781
 30
0.0
 10
-8.2703
 20
2.9781
 30
0.0
 10
-8.1753
 20
3.0059
 30
0.0
 10
-8.0906
 20
3.0609
 30
0.0
 10
-8.0906
 20
3.0609
 30
0.0
 10
-8.0059
 20
3.1159
 30
0.0
 10
-7.9636
 20
3.2011
 30
0.0
 10
-7.9636
 20
3.3158
 30
0.0
 10
-7.9636
 20
3.3158
 30
0.0
 10
-7.9636
 20
3.4066
 30
0.0
 10
-7.9947
 20
3.4823
 30
0.0
 10
-8.0563
 20
3.5416
 30
0.0
 10
-8.0563
 20
3.5416
 30
0.0
 10
-8.1179
 20
3.6013
 30
0.0
 10
-8.1974
 20
3.6315
 30
0.0
 10
-8.2948
 20
3.6315
 30
0.0
 10
-8.2948
 20
3.6315
 30
0.0
 10
-8.3912
 20
3.6315
 30
0.0
 10
-8.4716
 20
3.6009
 30
0.0
 10
-8.5356
 20
3.5407
 30
0.0
 10
-8.5356
 20
3.5407
 30
0.0
 10
-8.6
 20
3.48
 30
0.0
 10
-8.6414
 20
3.3887
 30
0.0
 10
-8.6598
 20
3.2674
 30
0.0
 10
-8.6598
 20
3.2674
 30
0.0
 10
-8.6598
 20
3.2674
 30
0.0
 10
-8.9076
 20
3.3116
 30
0.0
 10
-8.9076
 20
3.3116
 30
0.0
 10
-8.9076
 20
3.3116
 30
0.0
 10
-8.8775
 20
3.4781
 30
0.0
 10
-8.8084
 20
3.607
 30
0.0
 10
-8.7011
 20
3.6982
 30
0.0
 10
-8.7011
 20
3.6982
 30
0.0
 10
-8.5934
 20
3.7895
 30
0.0
 10
-8.4598
 20
3.8356
 30
0.0
 10
-8.2999
 20
3.8356
 30
0.0
 10
-8.2999
 20
3.8356
 30
0.0
 10
-8.1899
 20
3.8356
 30
0.0
 10
-8.0883
 20
3.8116
 30
0.0
 10
-7.9956
 20
3.7646
 30
0.0
 10
-7.9956
 20
3.7646
 30
0.0
 10
-7.9029
 20
3.7171
 30
0.0
 10
-7.8319
 20
3.6526
 30
0.0
 10
-7.7825
 20
3.5708
 30
0.0
 10
-7.7825
 20
3.5708
 30
0.0
 10
-7.7336
 20
3.4889
 30
0.0
 10
-7.7087
 20
3.4024
 30
0.0
 10
-7.7087
 20
3.3102
 30
0.0
 10
-7.7087
 20
3.3102
 30
0.0
 10
-7.7087
 20
3.2232
 30
0.0
 10
-7.7322
 20
3.1437
 30
0.0
 10
-7.7792
 20
3.0717
 30
0.0
 10
-7.7792
 20
3.0717
 30
0.0
 10
-7.8263
 20
3.0002
 30
0.0
 10
-7.8954
 20
2.9433
 30
0.0
 10
-7.9871
 20
2.901
 30
0.0
 10
-7.9871
 20
2.901
 30
0.0
 10
-7.8677
 20
2.8737
 30
0.0
 10
-7.775
 20
2.8163
 30
0.0
 10
-7.7087
 20
2.7293
 30
0.0
 10
-7.7087
 20
2.7293
 30
0.0
 10
-7.6428
 20
2.6427
 30
0.0
 10
-7.6099
 20
2.5341
 30
0.0
 10
-7.6099
 20
2.4038
 30
0.0
 10
-7.6099
 20
2.4038
 30
0.0
 10
-7.6099
 20
2.2274
 30
0.0
 10
-7.6739
 20
2.0778
 30
0.0
 10
-7.8027
 20
1.9551
 30
0.0
 10
-7.8027
 20
1.9551
 30
0.0
 10
-7.9312
 20
1.8323
 30
0.0
 10
-8.0939
 20
1.7712
 30
0.0
 10
-8.2905
 20
1.7712
 30
0.0
 10
-8.2905
 20
1.7712
 30
0.0
 10
-8.4678
 20
1.7712
 30
0.0
 10
-8.6151
 20
1.8238
 30
0.0
 10
-8.7322
 20
1.9297
 30
0.0
 10
-8.7322
 20
1.9297
 30
0.0
 10
-8.8493
 20
2.035
 30
0.0
 10
-8.9161
 20
2.1719
 30
0.0
 10
-8.9326
 20
2.3403
 30
0.0
  0
SPLINE
  5
50
330
1F
100
AcDbEntity
  8
DEFAULT_1
 62
   250
100
AcDbSpline
210
0.0
220
0.0
230
1.0
 70
    11
 71
     3
 72
    92
 73
    88
 74
     0
 42
0.0000000001
 43
0.0000000001
 40
0.0
 40
0.0
 40
0.0
 40
0.0
 40
0.0434782608695652
 40
0.0434782608695652
 40
0.0434782608695652
 40
0.0434782608695652
 40
0.0869565217391304
 40
0.0869565217391304
 40
0.0869565217391304
 40
0.0869565217391304
 40
0.1304347826086956
 40
0.1304347826086956
 40
0.1304347826086956
 40
0.1304347826086956
 40
0.1739130434782609
 40
0.1739130434782609
 40
0.1739130434782609
 40
0.1739130434782609
 40
0.2173913043478261
 40
0.2173913043478261
 40
0.2173913043478261
 40
0.2173913043478261
 40
0.2608695652173913
 40
0.2608695652173913
 40
0.2608695652173913
 40
0.2608695652173913
 40
0.3043478260869565
 40
0.3043478260869565
 40
0.3043478260869565
 40
0.3043478260869565
 40
0.3478260869565217
 40
0.3478260869565217
 40
0.3478260869565217
 40
0.3478260869565217
 40
0.391304347826087
 40
0.391304347826087
 40
0.391304347826087
 40
0.391304347826087
 40
0.4347826086956522
 40
0.4347826086956522
 40
0.4347826086956522
 40
0.4347826086956522
 40
0.4782608695652174
 40
0.4782608695652174
 40
0.4782608695652174
 40
0.4782608695652174
 40
0.5217391304347826
 40
0.5217391304347826
 40
0.5217391304347826
 40
0.5217391304347826
 40
0.5652173913043478
 40
0.5652173913043478
 40
0.5652173913043478
 40
0.5652173913043478
 40
0.6086956521739131
 40
0.6086956521739131
 40
0.6086956521739131
 40
0.6086956521739131
 40
0.6521739130434783
 40
0.6521739130434783
 40
0.6521739130434783
 40
0.6521739130434783
 40
0.6956521739130435
 40
0.6956521739130435
 40
0.6956521739130435
 40
0.6956521739130435
 40
0.7391304347826086
 40
0.7391304347826086
 40
0.7391304347826086
 40
0.7391304347826086
 40
0.782608695652174
 40
0.782608695652174
 40
0.782608695652174
 40
0.782608695652174
 40
0.8260869565217391
 40
0.8260869565217391
 40
0.8260869565217391
 40
0.8260869565217391
 40
0.8695652173913043
 40
0.8695652173913043
 40
0.8695652173913043
 40
0.8695652173913043
 40
0.9130434782608695
 40
0.9130434782608695
 40
0.9130434782608695
 40
0.9130434782608695
 40
1.0
 40
1.0
 40
1.0
 40
1.0
 10
-6.0605
 20
2.0454
 30
0.0
 10
-6.0605
 20
2.0454
 30
0.0
 10
-6.0605
 20
1.8069
 30
0.0
 10
-6.0605
 20
1.8069
 30
0.0
 10
-6.0605
 20
1.8069
 30
0.0
 10
-6.0605
 20
1.8069
 30
0.0
 10
-7.3959
 20
1.8069
 30
0.0
 10
-7.3959
 20
1.8069
 30
0.0
 10
-7.3959
 20
1.8069
 30
0.0
 10
-7.3978
 20
1.8666
 30
0.0
 10
-7.3884
 20
1.924
 30
0.0
 10
-7.3672
 20
1.9791
 30
0.0
 10
-7.3672
 20
1.9791
 30
0.0
 10
-7.3333
 20
2.0703
 30
0.0
 10
-7.2788
 20
2.1597
 30
0.0
 10
-7.204
 20
2.2481
 30
0.0
 10
-7.204
 20
2.2481
 30
0.0
 10
-7.1287
 20
2.3361
 30
0.0
 10
-7.0205
 20
2.4381
 30
0.0
 10
-6.8794
 20
2.5538
 30
0.0
 10
-6.8794
 20
2.5538
 30
0.0
 10
-6.6598
 20
2.734
 30
0.0
 10
-6.5111
 20
2.8765
 30
0.0
 10
-6.434
 20
2.9819
 30
0.0
 10
-6.434
 20
2.9819
 30
0.0
 10
-6.3569
 20
3.0868
 30
0.0
 10
-6.3183
 20
3.1865
 30
0.0
 10
-6.3183
 20
3.2801
 30
0.0
 10
-6.3183
 20
3.2801
 30
0.0
 10
-6.3183
 20
3.3784
 30
0.0
 10
-6.3536
 20
3.4612
 30
0.0
 10
-6.4236
 20
3.5289
 30
0.0
 10
-6.4236
 20
3.5289
 30
0.0
 10
-6.4942
 20
3.5962
 30
0.0
 10
-6.5859
 20
3.63
 30
0.0
 10
-6.6988
 20
3.63
 30
0.0
 10
-6.6988
 20
3.63
 30
0.0
 10
-6.8183
 20
3.63
 30
0.0
 10
-6.9138
 20
3.5943
 30
0.0
 10
-6.9853
 20
3.5223
 30
0.0
 10
-6.9853
 20
3.5223
 30
0.0
 10
-7.0572
 20
3.4508
 30
0.0
 10
-7.0934
 20
3.3516
 30
0.0
 10
-7.0944
 20
3.2251
 30
0.0
 10
-7.0944
 20
3.2251
 30
0.0
 10
-7.0944
 20
3.2251
 30
0.0
 10
-7.3493
 20
3.2509
 30
0.0
 10
-7.3493
 20
3.2509
 30
0.0
 10
-7.3493
 20
3.2509
 30
0.0
 10
-7.3319
 20
3.4414
 30
0.0
 10
-7.2661
 20
3.5863
 30
0.0
 10
-7.1522
 20
3.686
 30
0.0
 10
-7.1522
 20
3.686
 30
0.0
 10
-7.0384
 20
3.7857
 30
0.0
 10
-6.8851
 20
3.8356
 30
0.0
 10
-6.6932
 20
3.8356
 30
0.0
 10
-6.6932
 20
3.8356
 30
0.0
 10
-6.4994
 20
3.8356
 30
0.0
 10
-6.346
 20
3.7815
 30
0.0
 10
-6.2331
 20
3.6743
 30
0.0
 10
-6.2331
 20
3.6743
 30
0.0
 10
-6.1198
 20
3.5665
 30
0.0
 10
-6.0633
 20
3.4334
 30
0.0
 10
-6.0633
 20
3.2744
 30
0.0
 10
-6.0633
 20
3.2744
 30
0.0
 10
-6.0633
 20
3.1935
 30
0.0
 10
-6.0798
 20
3.114
 30
0.0
 10
-6.1132
 20
3.036
 30
0.0
 10
-6.1132
 20
3.036
 30
0.0
 10
-6.1461
 20
2.9579
 30
0.0
 10
-6.2012
 20
2.8756
 30
0.0
 10
-6.2778
 20
2.7895
 30
0.0
 10
-6.2778
 20
2.7895
 30
0.0
 10
-6.3545
 20
2.7029
 30
0.0
 10
-6.482
 20
2.5844
 30
0.0
 10
-6.6602
 20
2.4339
 30
0.0
 10
-6.6602
 20
2.4339
 30
0.0
 10
-6.8089
 20
2.3088
 30
0.0
 10
-6.9044
 20
2.2241
 30
0.0
 10
-6.9467
 20
2.1794
 30
0.0
 10
-6.9467
 20
2.1794
 30
0.0
 10
-6.989
 20
2.1352
 30
0.0
 10
-7.0238
 20
2.0905
 30
0.0
 10
-7.0516
 20
2.0454
 30
0.0
 10
-7.0516
 20
2.0454
 30
0.0
 10
-7.0516
 20
2.0454
 30
0.0
 10
-6.0605
 20
2.0454
 30
0.0
 10
-6.0605
 20
2.0454
 30
0.0
  0
SPLINE
  5
51
330
1F
100
AcDbEntity
  8
DEFAULT_1
 62
   250
100
AcDbSpline
210
0.0
220
0.0
230
1.0
 70
    11
 71
     3
 72
   116
 73
   112
 74
     0
 42
0.0000000001
 43
0.0000000001
 40
0.0
 40
0.0
 40
0.0
 40
0.0
 40
0.0344827586206897
 40
0.0344827586206897
 40
0.0344827586206897
 40
0.0344827586206897
 40
0.0689655172413793
 40
0.0689655172413793
 40
0.0689655172413793
 40
0.0689655172413793
 40
0.103448275862069
 40
0.103448275862069
 40
0.103448275862069
 40
0.103448275862069
 40
0.1379310344827586
 40
0.1379310344827586
 40
0.1379310344827586
 40
0.1379310344827586
 40
0.1724137931034483
 40
0.1724137931034483
 40
0.1724137931034483
 40
0.1724137931034483
 40
0.2068965517241379
 40
0.2068965517241379
 40
0.2068965517241379
 40
0.2068965517241379
 40
0.2413793103448276
 40
0.2413793103448276
 40
0.2413793103448276
 40
0.2413793103448276
 40
0.2758620689655172
 40
0.2758620689655172
 40
0.2758620689655172
 40
0.2758620689655172
 40
0.3103448275862069
 40
0.3103448275862069
 40
0.3103448275862069
 40
0.3103448275862069
 40
0.3448275862068966
 40
0.3448275862068966
 40
0.3448275862068966
 40
0.3448275862068966
 40
0.3793103448275862
 40
0.3793103448275862
 40
0.3793103448275862
 40
0.3793103448275862
 40
0.4137931034482759
 40
0.4137931034482759
 40
0.4137931034482759
 40
0.4137931034482759
 40
0.4482758620689655
 40
0.4482758620689655
 40
0.4482758620689655
 40
0.4482758620689655
 40
0.4827586206896552
 40
0.4827586206896552
 40
0.4827586206896552
 40
0.4827586206896552
 40
0.5172413793103449
 40
0.5172413793103449
 40
0.5172413793103449
 40
0.5172413793103449
 40
0.5517241379310345
 40
0.5517241379310345
 40
0.5517241379310345
 40
0.5517241379310345
 40
0.5862068965517241
 40
0.5862068965517241
 40
0.5862068965517241
 40
0.5862068965517241
 40
0.6206896551724138
 40
0.6206896551724138
 40
0.6206896551724138
 40
0.6206896551724138
 40
0.6551724137931034
 40
0.6551724137931034
 40
0.6551724137931034
 40
0.6551724137931034
 40
0.6896551724137931
 40
0.6896551724137931
 40
0.6896551724137931
 40
0.6896551724137931
 40
0.7241379310344828
 40
0.7241379310344828
 40
0.7241379310344828
 40
0.7241379310344828
 40
0.7586206896551724
 40
0.7586206896551724
 40
0.7586206896551724
 40
0.7586206896551724
 40
0.7931034482758621
 40
0.7931034482758621
 40
0.7931034482758621
 40
0.7931034482758621
 40
0.8275862068965517
 40
0.8275862068965517
 40
0.8275862068965517
 40
0.8275862068965517
 40
0.8620689655172413
 40
0.8620689655172413
 40
0.8620689655172413
 40
0.8620689655172413
 40
0.896551724137931
 40
0.896551724137931
 40
0.896551724137931
 40
0.896551724137931
 40
0.9310344827586207
 40
0.9310344827586207
 40
0.9310344827586207
 40
0.9310344827586207
 40
1.0
 40
1.0
 40
1.0
 40
1.0
 10
-0.3239
 20
21.7257
 30
0.0
 10
-0.3239
 20
21.7257
 30
0.0
 10
-0.3239
 20
23.189
 30
0.0
 10
-0.3239
 20
23.189
 30
0.0
 10
-0.3239
 20
23.189
 30
0.0
 10
-0.3239
 20
23.189
 30
0.0
 10
-0.1024
 20
23.189
 30
0.0
 10
-0.1024
 20
23.189
 30
0.0
 10
-0.1024
 20
23.189
 30
0.0
 10
-0.1024
 20
23.189
 30
0.0
 10
-0.1024
 20
22.9839
 30
0.0
 10
-0.1024
 20
22.9839
 30
0.0
 10
-0.1024
 20
22.9839
 30
0.0
 10
-0.0563
 20
23.0554
 30
0.0
 10
0.0049
 20
23.1133
 30
0.0
 10
0.0811
 20
23.1566
 30
0.0
 10
0.0811
 20
23.1566
 30
0.0
 10
0.1573
 20
23.2003
 30
0.0
 10
0.2443
 20
23.2224
 30
0.0
 10
0.3416
 20
23.2224
 30
0.0
 10
0.3416
 20
23.2224
 30
0.0
 10
0.4498
 20
23.2224
 30
0.0
 10
0.5387
 20
23.1998
 30
0.0
 10
0.6079
 20
23.1547
 30
0.0
 10
0.6079
 20
23.1547
 30
0.0
 10
0.6775
 20
23.1095
 30
0.0
 10
0.7264
 20
23.047
 30
0.0
 10
0.7546
 20
22.9661
 30
0.0
 10
0.7546
 20
22.9661
 30
0.0
 10
0.8708
 20
23.1368
 30
0.0
 10
1.0213
 20
23.2224
 30
0.0
 10
1.2066
 20
23.2224
 30
0.0
 10
1.2066
 20
23.2224
 30
0.0
 10
1.352
 20
23.2224
 30
0.0
 10
1.4635
 20
23.182
 30
0.0
 10
1.5415
 20
23.1015
 30
0.0
 10
1.5415
 20
23.1015
 30
0.0
 10
1.6196
 20
23.0211
 30
0.0
 10
1.6587
 20
22.8974
 30
0.0
 10
1.6587
 20
22.7304
 30
0.0
 10
1.6587
 20
22.7304
 30
0.0
 10
1.6587
 20
22.7304
 30
0.0
 10
1.6587
 20
21.7257
 30
0.0
 10
1.6587
 20
21.7257
 30
0.0
 10
1.6587
 20
21.7257
 30
0.0
 10
1.6587
 20
21.7257
 30
0.0
 10
1.4122
 20
21.7257
 30
0.0
 10
1.4122
 20
21.7257
 30
0.0
 10
1.4122
 20
21.7257
 30
0.0
 10
1.4122
 20
21.7257
 30
0.0
 10
1.4122
 20
22.6476
 30
0.0
 10
1.4122
 20
22.6476
 30
0.0
 10
1.4122
 20
22.6476
 30
0.0
 10
1.4122
 20
22.7469
 30
0.0
 10
1.4042
 20
22.8184
 30
0.0
 10
1.3882
 20
22.8621
 30
0.0
 10
1.3882
 20
22.8621
 30
0.0
 10
1.3717
 20
22.9054
 30
0.0
 10
1.3426
 20
22.9407
 30
0.0
 10
1.3007
 20
22.9675
 30
0.0
 10
1.3007
 20
22.9675
 30
0.0
 10
1.2584
 20
22.9938
 30
0.0
 10
1.2085
 20
23.0074
 30
0.0
 10
1.1516
 20
23.0074
 30
0.0
 10
1.1516
 20
23.0074
 30
0.0
 10
1.0486
 20
23.0074
 30
0.0
 10
0.9635
 20
22.9731
 30
0.0
 10
0.8953
 20
22.9044
 30
0.0
 10
0.8953
 20
22.9044
 30
0.0
 10
0.8275
 20
22.8362
 30
0.0
 10
0.7932
 20
22.7266
 30
0.0
 10
0.7932
 20
22.5761
 30
0.0
 10
0.7932
 20
22.5761
 30
0.0
 10
0.7932
 20
22.5761
 30
0.0
 10
0.7932
 20
21.7257
 30
0.0
 10
0.7932
 20
21.7257
 30
0.0
 10
0.7932
 20
21.7257
 30
0.0
 10
0.7932
 20
21.7257
 30
0.0
 10
0.5453
 20
21.7257
 30
0.0
 10
0.5453
 20
21.7257
 30
0.0
 10
0.5453
 20
21.7257
 30
0.0
 10
0.5453
 20
21.7257
 30
0.0
 10
0.5453
 20
22.6763
 30
0.0
 10
0.5453
 20
22.6763
 30
0.0
 10
0.5453
 20
22.6763
 30
0.0
 10
0.5453
 20
22.7868
 30
0.0
 10
0.5251
 20
22.8696
 30
0.0
 10
0.4846
 20
22.9247
 30
0.0
 10
0.4846
 20
22.9247
 30
0.0
 10
0.4442
 20
22.9797
 30
0.0
 10
0.3783
 20
23.0074
 30
0.0
 10
0.2861
 20
23.0074
 30
0.0
 10
0.2861
 20
23.0074
 30
0.0
 10
0.2165
 20
23.0074
 30
0.0
 10
0.1521
 20
22.9891
 30
0.0
 10
0.0928
 20
22.9519
 30
0.0
 10
0.0928
 20
22.9519
 30
0.0
 10
0.0335
 20
22.9153
 30
0.0
 10
-0.0097
 20
22.8616
 30
0.0
 10
-0.0361
 20
22.7911
 30
0.0
 10
-0.0361
 20
22.7911
 30
0.0
 10
-0.0629
 20
22.7201
 30
0.0
 10
-0.0761
 20
22.618
 30
0.0
 10
-0.0761
 20
22.4849
 30
0.0
 10
-0.0761
 20
22.4849
 30
0.0
 10
-0.0761
 20
22.4849
 30
0.0
 10
-0.0761
 20
21.7257
 30
0.0
 10
-0.0761
 20
21.7257
 30
0.0
 10
-0.0761
 20
21.7257
 30
0.0
 10
-0.0761
 20
21.7257
 30
0.0
 10
-0.3239
 20
21.7257
 30
0.0
 10
-0.3239
 20
21.7257
 30
0.0
  0
SPLINE
  5
52
330
1F
100
AcDbEntity
  8
DEFAULT_1
 62
   250
100
AcDbSpline
210
0.0
220
0.0
230
1.0
 70
    11
 71
     3
 72
   112
 73
   108
 74
     0
 42
0.0000000001
 43
0.0000000001
 40
0.0
 40
0.0
 40
0.0
 40
0.0
 40
0.0357142857142857
 40
0.0357142857142857
 40
0.0357142857142857
 40
0.0357142857142857
 40
0.0714285714285714
 40
0.0714285714285714
 40
0.0714285714285714
 40
0.0714285714285714
 40
0.1071428571428571
 40
0.1071428571428571
 40
0.1071428571428571
 40
0.1071428571428571
 40
0.1428571428571428
 40
0.1428571428571428
 40
0.1428571428571428
 40
0.1428571428571428
 40
0.1785714285714286
 40
0.1785714285714286
 40
0.1785714285714286
 40
0.1785714285714286
 40
0.2142857142857143
 40
0.2142857142857143
 40
0.2142857142857143
 40
0.2142857142857143
 40
0.25
 40
0.25
 40
0.25
 40
0.25
 40
0.2857142857142857
 40
0.2857142857142857
 40
0.2857142857142857
 40
0.2857142857142857
 40
0.3214285714285715
 40
0.3214285714285715
 40
0.3214285714285715
 40
0.3214285714285715
 40
0.3571428571428572
 40
0.3571428571428572
 40
0.3571428571428572
 40
0.3571428571428572
 40
0.3928571428571428
 40
0.3928571428571428
 40
0.3928571428571428
 40
0.3928571428571428
 40
0.4285714285714285
 40
0.4285714285714285
 40
0.4285714285714285
 40
0.4285714285714285
 40
0.4642857142857143
 40
0.4642857142857143
 40
0.4642857142857143
 40
0.4642857142857143
 40
0.5
 40
0.5
 40
0.5
 40
0.5
 40
0.5357142857142857
 40
0.5357142857142857
 40
0.5357142857142857
 40
0.5357142857142857
 40
0.5714285714285714
 40
0.5714285714285714
 40
0.5714285714285714
 40
0.5714285714285714
 40
0.6071428571428571
 40
0.6071428571428571
 40
0.6071428571428571
 40
0.6071428571428571
 40
0.6428571428571429
 40
0.6428571428571429
 40
0.6428571428571429
 40
0.6428571428571429
 40
0.6785714285714286
 40
0.6785714285714286
 40
0.6785714285714286
 40
0.6785714285714286
 40
0.7142857142857143
 40
0.7142857142857143
 40
0.7142857142857143
 40
0.7142857142857143
 40
0.75
 40
0.75
 40
0.75
 40
0.75
 40
0.7857142857142857
 40
0.7857142857142857
 40
0.7857142857142857
 40
0.7857142857142857
 40
0.8214285714285714
 40
0.8214285714285714
 40
0.8214285714285714
 40
0.8214285714285714
 40
0.8571428571428571
 40
0.8571428571428571
 40
0.8571428571428571
 40
0.8571428571428571
 40
0.8928571428571429
 40
0.8928571428571429
 40
0.8928571428571429
 40
0.8928571428571429
 40
0.9285714285714286
 40
0.9285714285714286
 40
0.9285714285714286
 40
0.9285714285714286
 40
1.0
 40
1.0
 40
1.0
 40
1.0
 10
2.9818
 20
21.9063
 30
0.0
 10
2.8896
 20
21.8282
 30
0.0
 10
2.8012
 20
21.7732
 30
0.0
 10
2.7165
 20
21.7408
 30
0.0
 10
2.7165
 20
21.7408
 30
0.0
 10
2.6314
 20
21.7088
 30
0.0
 10
2.5401
 20
21.6928
 30
0.0
 10
2.4428
 20
21.6928
 30
0.0
 10
2.4428
 20
21.6928
 30
0.0
 10
2.2819
 20
21.6928
 30
0.0
 10
2.1587
 20
21.7318
 30
0.0
 10
2.0721
 20
21.8104
 30
0.0
 10
2.0721
 20
21.8104
 30
0.0
 10
1.986
 20
21.8889
 30
0.0
 10
1.9428
 20
21.9896
 30
0.0
 10
1.9428
 20
22.1114
 30
0.0
 10
1.9428
 20
22.1114
 30
0.0
 10
1.9428
 20
22.1834
 30
0.0
 10
1.9588
 20
22.2487
 30
0.0
 10
1.9917
 20
22.308
 30
0.0
 10
1.9917
 20
22.308
 30
0.0
 10
2.0241
 20
22.3673
 30
0.0
 10
2.0669
 20
22.4148
 30
0.0
 10
2.1196
 20
22.4505
 30
0.0
 10
2.1196
 20
22.4505
 30
0.0
 10
2.1728
 20
22.4863
 30
0.0
 10
2.232
 20
22.5136
 30
0.0
 10
2.2984
 20
22.5319
 30
0.0
 10
2.2984
 20
22.5319
 30
0.0
 10
2.3468
 20
22.5446
 30
0.0
 10
2.4202
 20
22.5573
 30
0.0
 10
2.5185
 20
22.5691
 30
0.0
 10
2.5185
 20
22.5691
 30
0.0
 10
2.7189
 20
22.5931
 30
0.0
 10
2.8666
 20
22.6213
 30
0.0
 10
2.9611
 20
22.6547
 30
0.0
 10
2.9611
 20
22.6547
 30
0.0
 10
2.9621
 20
22.6885
 30
0.0
 10
2.9625
 20
22.7102
 30
0.0
 10
2.9625
 20
22.7191
 30
0.0
 10
2.9625
 20
22.7191
 30
0.0
 10
2.9625
 20
22.8202
 30
0.0
 10
2.939
 20
22.8917
 30
0.0
 10
2.892
 20
22.9327
 30
0.0
 10
2.892
 20
22.9327
 30
0.0
 10
2.8289
 20
22.9891
 30
0.0
 10
2.7344
 20
23.0169
 30
0.0
 10
2.6097
 20
23.0169
 30
0.0
 10
2.6097
 20
23.0169
 30
0.0
 10
2.4931
 20
23.0169
 30
0.0
 10
2.407
 20
22.9966
 30
0.0
 10
2.351
 20
22.9557
 30
0.0
 10
2.351
 20
22.9557
 30
0.0
 10
2.2955
 20
22.9148
 30
0.0
 10
2.2546
 20
22.8424
 30
0.0
 10
2.2278
 20
22.7384
 30
0.0
 10
2.2278
 20
22.7384
 30
0.0
 10
2.2278
 20
22.7384
 30
0.0
 10
1.9856
 20
22.7718
 30
0.0
 10
1.9856
 20
22.7718
 30
0.0
 10
1.9856
 20
22.7718
 30
0.0
 10
2.0077
 20
22.8753
 30
0.0
 10
2.0439
 20
22.9595
 30
0.0
 10
2.0942
 20
23.023
 30
0.0
 10
2.0942
 20
23.023
 30
0.0
 10
2.1446
 20
23.0869
 30
0.0
 10
2.2179
 20
23.1363
 30
0.0
 10
2.3134
 20
23.1707
 30
0.0
 10
2.3134
 20
23.1707
 30
0.0
 10
2.4089
 20
23.205
 30
0.0
 10
2.5194
 20
23.2224
 30
0.0
 10
2.6455
 20
23.2224
 30
0.0
 10
2.6455
 20
23.2224
 30
0.0
 10
2.7706
 20
23.2224
 30
0.0
 10
2.8717
 20
23.2074
 30
0.0
 10
2.9498
 20
23.1782
 30
0.0
 10
2.9498
 20
23.1782
 30
0.0
 10
3.0279
 20
23.1486
 30
0.0
 10
3.0853
 20
23.1119
 30
0.0
 10
3.1224
 20
23.0672
 30
0.0
 10
3.1224
 20
23.0672
 30
0.0
 10
3.1591
 20
23.0225
 30
0.0
 10
3.1845
 20
22.9665
 30
0.0
 10
3.1996
 20
22.8983
 30
0.0
 10
3.1996
 20
22.8983
 30
0.0
 10
3.2076
 20
22.856
 30
0.0
 10
3.2118
 20
22.7798
 30
0.0
 10
3.2118
 20
22.6697
 30
0.0
 10
3.2118
 20
22.6697
 30
0.0
 10
3.2118
 20
22.6697
 30
0.0
 10
3.2118
 20
22.3391
 30
0.0
 10
3.2118
 20
22.3391
 30
0.0
 10
3.2118
 20
22.3391
 30
0.0
 10
3.2118
 20
22.1081
 30
0.0
 10
3.217
 20
21.9623
 30
0.0
 10
3.2278
 20
21.9016
 30
0.0
 10
3.2278
 20
21.9016
 30
0.0
 10
3.2382
 20
21.8405
 30
0.0
 10
3.2593
 20
21.7817
 30
0.0
 10
3.2904
 20
21.7257
 30
0.0
 10
3.2904
 20
21.7257
 30
0.0
 10
3.2904
 20
21.7257
 30
0.0
 10
3.0312
 20
21.7257
 30
0.0
 10
3.0312
 20
21.7257
 30
0.0
 10
3.0312
 20
21.7257
 30
0.0
 10
3.0058
 20
21.777
 30
0.0
 10
2.9889
 20
21.8372
 30
0.0
 10
2.9818
 20
21.9063
 30
0.0
  0
SPLINE
  5
53
330
1F
100
AcDbEntity
  8
DEFAULT_1
 62
   250
100
AcDbSpline
210
0.0
220
0.0
230
1.0
 70
    11
 71
     3
 72
    44
 73
    40
 74
     0
 42
0.0000000001
 43
0.0000000001
 40
0.0
 40
0.0
 40
0.0
 40
0.0
 40
0.0909090909090909
 40
0.0909090909090909
 40
0.0909090909090909
 40
0.0909090909090909
 40
0.1818181818181818
 40
0.1818181818181818
 40
0.1818181818181818
 40
0.1818181818181818
 40
0.2727272727272727
 40
0.2727272727272727
 40
0.2727272727272727
 40
0.2727272727272727
 40
0.3636363636363636
 40
0.3636363636363636
 40
0.3636363636363636
 40
0.3636363636363636
 40
0.4545454545454545
 40
0.4545454545454545
 40
0.4545454545454545
 40
0.4545454545454545
 40
0.5454545454545454
 40
0.5454545454545454
 40
0.5454545454545454
 40
0.5454545454545454
 40
0.6363636363636364
 40
0.6363636363636364
 40
0.6363636363636364
 40
0.6363636363636364
 40
0.7272727272727273
 40
0.7272727272727273
 40
0.7272727272727273
 40
0.7272727272727273
 40
0.8181818181818182
 40
0.8181818181818182
 40
0.8181818181818182
 40
0.8181818181818182
 40
1.0
 40
1.0
 40
1.0
 40
1.0
 10
2.9611
 20
22.4604
 30
0.0
 10
2.8708
 20
22.4233
 30
0.0
 10
2.7358
 20
22.3922
 30
0.0
 10
2.5561
 20
22.3663
 30
0.0
 10
2.5561
 20
22.3663
 30
0.0
 10
2.4541
 20
22.3518
 30
0.0
 10
2.3816
 20
22.3353
 30
0.0
 10
2.3398
 20
22.317
 30
0.0
 10
2.3398
 20
22.317
 30
0.0
 10
2.2974
 20
22.2986
 30
0.0
 10
2.2645
 20
22.2718
 30
0.0
 10
2.2419
 20
22.236
 30
0.0
 10
2.2419
 20
22.236
 30
0.0
 10
2.2189
 20
22.2008
 30
0.0
 10
2.2071
 20
22.1617
 30
0.0
 10
2.2071
 20
22.1185
 30
0.0
 10
2.2071
 20
22.1185
 30
0.0
 10
2.2071
 20
22.0521
 30
0.0
 10
2.2325
 20
21.9971
 30
0.0
 10
2.2824
 20
21.9529
 30
0.0
 10
2.2824
 20
21.9529
 30
0.0
 10
2.3322
 20
21.9091
 30
0.0
 10
2.4056
 20
21.887
 30
0.0
 10
2.502
 20
21.887
 30
0.0
 10
2.502
 20
21.887
 30
0.0
 10
2.5975
 20
21.887
 30
0.0
 10
2.6827
 20
21.9077
 30
0.0
 10
2.757
 20
21.9496
 30
0.0
 10
2.757
 20
21.9496
 30
0.0
 10
2.8313
 20
21.9915
 30
0.0
 10
2.8863
 20
22.0488
 30
0.0
 10
2.9211
 20
22.1213
 30
0.0
 10
2.9211
 20
22.1213
 30
0.0
 10
2.9479
 20
22.1773
 30
0.0
 10
2.9611
 20
22.26
 30
0.0
 10
2.9611
 20
22.3692
 30
0.0
 10
2.9611
 20
22.3692
 30
0.0
 10
2.9611
 20
22.3692
 30
0.0
 10
2.9611
 20
22.4604
 30
0.0
 10
2.9611
 20
22.4604
 30
0.0
  0
SPLINE
  5
54
330
1F
100
AcDbEntity
  8
DEFAULT_1
 62
   250
100
AcDbSpline
210
0.0
220
0.0
230
1.0
 70
    11
 71
     3
 72
    64
 73
    60
 74
     0
 42
0.0000000001
 43
0.0000000001
 40
0.0
 40
0.0
 40
0.0
 40
0.0
 40
0.0625
 40
0.0625
 40
0.0625
 40
0.0625
 40
0.125
 40
0.125
 40
0.125
 40
0.125
 40
0.1875
 40
0.1875
 40
0.1875
 40
0.1875
 40
0.25
 40
0.25
 40
0.25
 40
0.25
 40
0.3125
 40
0.3125
 40
0.3125
 40
0.3125
 40
0.375
 40
0.375
 40
0.375
 40
0.375
 40
0.4375
 40
0.4375
 40
0.4375
 40
0.4375
 40
0.5
 40
0.5
 40
0.5
 40
0.5
 40
0.5625
 40
0.5625
 40
0.5625
 40
0.5625
 40
0.625
 40
0.625
 40
0.625
 40
0.625
 40
0.6875
 40
0.6875
 40
0.6875
 40
0.6875
 40
0.75
 40
0.75
 40
0.75
 40
0.75
 40
0.8125
 40
0.8125
 40
0.8125
 40
0.8125
 40
0.875
 40
0.875
 40
0.875
 40
0.875
 40
1.0
 40
1.0
 40
1.0
 40
1.0
 10
3.431
 20
21.7257
 30
0.0
 10
3.431
 20
21.7257
 30
0.0
 10
3.9658
 20
22.4863
 30
0.0
 10
3.9658
 20
22.4863
 30
0.0
 10
3.9658
 20
22.4863
 30
0.0
 10
3.9658
 20
22.4863
 30
0.0
 10
3.471
 20
23.189
 30
0.0
 10
3.471
 20
23.189
 30
0.0
 10
3.471
 20
23.189
 30
0.0
 10
3.471
 20
23.189
 30
0.0
 10
3.7809
 20
23.189
 30
0.0
 10
3.7809
 20
23.189
 30
0.0
 10
3.7809
 20
23.189
 30
0.0
 10
3.7809
 20
23.189
 30
0.0
 10
4.0058
 20
22.8461
 30
0.0
 10
4.0058
 20
22.8461
 30
0.0
 10
4.0058
 20
22.8461
 30
0.0
 10
4.0476
 20
22.7807
 30
0.0
 10
4.082
 20
22.7262
 30
0.0
 10
4.1074
 20
22.682
 30
0.0
 10
4.1074
 20
22.682
 30
0.0
 10
4.1478
 20
22.7426
 30
0.0
 10
4.185
 20
22.7963
 30
0.0
 10
4.2193
 20
22.8433
 30
0.0
 10
4.2193
 20
22.8433
 30
0.0
 10
4.2193
 20
22.8433
 30
0.0
 10
4.4658
 20
23.189
 30
0.0
 10
4.4658
 20
23.189
 30
0.0
 10
4.4658
 20
23.189
 30
0.0
 10
4.4658
 20
23.189
 30
0.0
 10
4.7621
 20
23.189
 30
0.0
 10
4.7621
 20
23.189
 30
0.0
 10
4.7621
 20
23.189
 30
0.0
 10
4.7621
 20
23.189
 30
0.0
 10
4.2565
 20
22.4999
 30
0.0
 10
4.2565
 20
22.4999
 30
0.0
 10
4.2565
 20
22.4999
 30
0.0
 10
4.2565
 20
22.4999
 30
0.0
 10
4.8007
 20
21.7257
 30
0.0
 10
4.8007
 20
21.7257
 30
0.0
 10
4.8007
 20
21.7257
 30
0.0
 10
4.8007
 20
21.7257
 30
0.0
 10
4.4964
 20
21.7257
 30
0.0
 10
4.4964
 20
21.7257
 30
0.0
 10
4.4964
 20
21.7257
 30
0.0
 10
4.4964
 20
21.7257
 30
0.0
 10
4.1958
 20
22.1805
 30
0.0
 10
4.1958
 20
22.1805
 30
0.0
 10
4.1958
 20
22.1805
 30
0.0
 10
4.1958
 20
22.1805
 30
0.0
 10
4.1159
 20
22.3033
 30
0.0
 10
4.1159
 20
22.3033
 30
0.0
 10
4.1159
 20
22.3033
 30
0.0
 10
4.1159
 20
22.3033
 30
0.0
 10
3.7316
 20
21.7257
 30
0.0
 10
3.7316
 20
21.7257
 30
0.0
 10
3.7316
 20
21.7257
 30
0.0
 10
3.7316
 20
21.7257
 30
0.0
 10
3.431
 20
21.7257
 30
0.0
 10
3.431
 20
21.7257
 30
0.0
  0
SPLINE
  5
55
330
1F
100
AcDbEntity
  8
DEFAULT_1
 62
   250
100
AcDbSpline
210
0.0
220
0.0
230
1.0
 70
    11
 71
     3
 72
    92
 73
    88
 74
     0
 42
0.0000000001
 43
0.0000000001
 40
0.0
 40
0.0
 40
0.0
 40
0.0
 40
0.0434782608695652
 40
0.0434782608695652
 40
0.0434782608695652
 40
0.0434782608695652
 40
0.0869565217391304
 40
0.0869565217391304
 40
0.0869565217391304
 40
0.0869565217391304
 40
0.1304347826086956
 40
0.1304347826086956
 40
0.1304347826086956
 40
0.1304347826086956
 40
0.1739130434782609
 40
0.1739130434782609
 40
0.1739130434782609
 40
0.1739130434782609
 40
0.2173913043478261
 40
0.2173913043478261
 40
0.2173913043478261
 40
0.2173913043478261
 40
0.2608695652173913
 40
0.2608695652173913
 40
0.2608695652173913
 40
0.2608695652173913
 40
0.3043478260869565
 40
0.3043478260869565
 40
0.3043478260869565
 40
0.3043478260869565
 40
0.3478260869565217
 40
0.3478260869565217
 40
0.3478260869565217
 40
0.3478260869565217
 40
0.391304347826087
 40
0.391304347826087
 40
0.391304347826087
 40
0.391304347826087
 40
0.4347826086956522
 40
0.4347826086956522
 40
0.4347826086956522
 40
0.4347826086956522
 40
0.4782608695652174
 40
0.4782608695652174
 40
0.4782608695652174
 40
0.4782608695652174
 40
0.5217391304347826
 40
0.5217391304347826
 40
0.5217391304347826
 40
0.5217391304347826
 40
0.5652173913043478
 40
0.5652173913043478
 40
0.5652173913043478
 40
0.5652173913043478
 40
0.6086956521739131
 40
0.6086956521739131
 40
0.6086956521739131
 40
0.6086956521739131
 40
0.6521739130434783
 40
0.6521739130434783
 40
0.6521739130434783
 40
0.6521739130434783
 40
0.6956521739130435
 40
0.6956521739130435
 40
0.6956521739130435
 40
0.6956521739130435
 40
0.7391304347826086
 40
0.7391304347826086
 40
0.7391304347826086
 40
0.7391304347826086
 40
0.782608695652174
 40
0.782608695652174
 40
0.782608695652174
 40
0.782608695652174
 40
0.8260869565217391
 40
0.8260869565217391
 40
0.8260869565217391
 40
0.8260869565217391
 40
0.8695652173913043
 40
0.8695652173913043
 40
0.8695652173913043
 40
0.8695652173913043
 40
0.9130434782608695
 40
0.9130434782608695
 40
0.9130434782608695
 40
0.9130434782608695
 40
1.0
 40
1.0
 40
1.0
 40
1.0
 10
7.0265
 20
21.9642
 30
0.0
 10
7.0265
 20
21.9642
 30
0.0
 10
7.0265
 20
21.7257
 30
0.0
 10
7.0265
 20
21.7257
 30
0.0
 10
7.0265
 20
21.7257
 30
0.0
 10
7.0265
 20
21.7257
 30
0.0
 10
5.6911
 20
21.7257
 30
0.0
 10
5.6911
 20
21.7257
 30
0.0
 10
5.6911
 20
21.7257
 30
0.0
 10
5.6892
 20
21.7854
 30
0.0
 10
5.6986
 20
21.8428
 30
0.0
 10
5.7198
 20
21.8979
 30
0.0
 10
5.7198
 20
21.8979
 30
0.0
 10
5.7537
 20
21.9891
 30
0.0
 10
5.8082
 20
22.0785
 30
0.0
 10
5.883
 20
22.1669
 30
0.0
 10
5.883
 20
22.1669
 30
0.0
 10
5.9583
 20
22.2549
 30
0.0
 10
6.0665
 20
22.3569
 30
0.0
 10
6.2076
 20
22.4726
 30
0.0
 10
6.2076
 20
22.4726
 30
0.0
 10
6.4272
 20
22.6528
 30
0.0
 10
6.5759
 20
22.7953
 30
0.0
 10
6.653
 20
22.9007
 30
0.0
 10
6.653
 20
22.9007
 30
0.0
 10
6.7301
 20
23.0056
 30
0.0
 10
6.7687
 20
23.1053
 30
0.0
 10
6.7687
 20
23.1989
 30
0.0
 10
6.7687
 20
23.1989
 30
0.0
 10
6.7687
 20
23.2972
 30
0.0
 10
6.7334
 20
23.38
 30
0.0
 10
6.6634
 20
23.4477
 30
0.0
 10
6.6634
 20
23.4477
 30
0.0
 10
6.5928
 20
23.515
 30
0.0
 10
6.5011
 20
23.5488
 30
0.0
 10
6.3882
 20
23.5488
 30
0.0
 10
6.3882
 20
23.5488
 30
0.0
 10
6.2687
 20
23.5488
 30
0.0
 10
6.1732
 20
23.5131
 30
0.0
 10
6.1017
 20
23.4411
 30
0.0
 10
6.1017
 20
23.4411
 30
0.0
 10
6.0298
 20
23.3696
 30
0.0
 10
5.9936
 20
23.2704
 30
0.0
 10
5.9926
 20
23.1439
 30
0.0
 10
5.9926
 20
23.1439
 30
0.0
 10
5.9926
 20
23.1439
 30
0.0
 10
5.7377
 20
23.1697
 30
0.0
 10
5.7377
 20
23.1697
 30
0.0
 10
5.7377
 20
23.1697
 30
0.0
 10
5.7551
 20
23.3602
 30
0.0
 10
5.8209
 20
23.5051
 30
0.0
 10
5.9348
 20
23.6048
 30
0.0
 10
5.9348
 20
23.6048
 30
0.0
 10
6.0486
 20
23.7045
 30
0.0
 10
6.2019
 20
23.7544
 30
0.0
 10
6.3938
 20
23.7544
 30
0.0
 10
6.3938
 20
23.7544
 30
0.0
 10
6.5876
 20
23.7544
 30
0.0
 10
6.741
 20
23.7003
 30
0.0
 10
6.8539
 20
23.5931
 30
0.0
 10
6.8539
 20
23.5931
 30
0.0
 10
6.9672
 20
23.4853
 30
0.0
 10
7.0237
 20
23.3522
 30
0.0
 10
7.0237
 20
23.1932
 30
0.0
 10
7.0237
 20
23.1932
 30
0.0
 10
7.0237
 20
23.1123
 30
0.0
 10
7.0072
 20
23.0328
 30
0.0
 10
6.9738
 20
22.9548
 30
0.0
 10
6.9738
 20
22.9548
 30
0.0
 10
6.9409
 20
22.8767
 30
0.0
 10
6.8858
 20
22.7944
 30
0.0
 10
6.8092
 20
22.7083
 30
0.0
 10
6.8092
 20
22.7083
 30
0.0
 10
6.7325
 20
22.6217
 30
0.0
 10
6.605
 20
22.5032
 30
0.0
 10
6.4268
 20
22.3527
 30
0.0
 10
6.4268
 20
22.3527
 30
0.0
 10
6.2781
 20
22.2276
 30
0.0
 10
6.1826
 20
22.1429
 30
0.0
 10
6.1403
 20
22.0982
 30
0.0
 10
6.1403
 20
22.0982
 30
0.0
 10
6.098
 20
22.054
 30
0.0
 10
6.0632
 20
22.0093
 30
0.0
 10
6.0354
 20
21.9642
 30
0.0
 10
6.0354
 20
21.9642
 30
0.0
 10
6.0354
 20
21.9642
 30
0.0
 10
7.0265
 20
21.9642
 30
0.0
 10
7.0265
 20
21.9642
 30
0.0
  0
SPLINE
  5
56
330
1F
100
AcDbEntity
  8
DEFAULT_1
 62
   250
100
AcDbSpline
210
0.0
220
0.0
230
1.0
 70
    11
 71
     3
 72
    92
 73
    88
 74
     0
 42
0.0000000001
 43
0.0000000001
 40
0.0
 40
0.0
 40
0.0
 40
0.0
 40
0.0434782608695652
 40
0.0434782608695652
 40
0.0434782608695652
 40
0.0434782608695652
 40
0.0869565217391304
 40
0.0869565217391304
 40
0.0869565217391304
 40
0.0869565217391304
 40
0.1304347826086956
 40
0.1304347826086956
 40
0.1304347826086956
 40
0.1304347826086956
 40
0.1739130434782609
 40
0.1739130434782609
 40
0.1739130434782609
 40
0.1739130434782609
 40
0.2173913043478261
 40
0.2173913043478261
 40
0.2173913043478261
 40
0.2173913043478261
 40
0.2608695652173913
 40
0.2608695652173913
 40
0.2608695652173913
 40
0.2608695652173913
 40
0.3043478260869565
 40
0.3043478260869565
 40
0.3043478260869565
 40
0.3043478260869565
 40
0.3478260869565217
 40
0.3478260869565217
 40
0.3478260869565217
 40
0.3478260869565217
 40
0.391304347826087
 40
0.391304347826087
 40
0.391304347826087
 40
0.391304347826087
 40
0.4347826086956522
 40
0.4347826086956522
 40
0.4347826086956522
 40
0.4347826086956522
 40
0.4782608695652174
 40
0.4782608695652174
 40
0.4782608695652174
 40
0.4782608695652174
 40
0.5217391304347826
 40
0.5217391304347826
 40
0.5217391304347826
 40
0.5217391304347826
 40
0.5652173913043478
 40
0.5652173913043478
 40
0.5652173913043478
 40
0.5652173913043478
 40
0.6086956521739131
 40
0.6086956521739131
 40
0.6086956521739131
 40
0.6086956521739131
 40
0.6521739130434783
 40
0.6521739130434783
 40
0.6521739130434783
 40
0.6521739130434783
 40
0.6956521739130435
 40
0.6956521739130435
 40
0.6956521739130435
 40
0.6956521739130435
 40
0.7391304347826086
 40
0.7391304347826086
 40
0.7391304347826086
 40
0.7391304347826086
 40
0.782608695652174
 40
0.782608695652174
 40
0.782608695652174
 40
0.782608695652174
 40
0.8260869565217391
 40
0.8260869565217391
 40
0.8260869565217391
 40
0.8260869565217391
 40
0.8695652173913043
 40
0.8695652173913043
 40
0.8695652173913043
 40
0.8695652173913043
 40
0.9130434782608695
 40
0.9130434782608695
 40
0.9130434782608695
 40
0.9130434782608695
 40
1.0
 40
1.0
 40
1.0
 40
1.0
 10
7.2922
 20
22.2549
 30
0.0
 10
7.2922
 20
22.2549
 30
0.0
 10
7.5528
 20
22.277
 30
0.0
 10
7.5528
 20
22.277
 30
0.0
 10
7.5528
 20
22.277
 30
0.0
 10
7.5721
 20
22.15
 30
0.0
 10
7.6168
 20
22.055
 30
0.0
 10
7.6869
 20
21.991
 30
0.0
 10
7.6869
 20
21.991
 30
0.0
 10
7.7574
 20
21.927
 30
0.0
 10
7.8421
 20
21.895
 30
0.0
 10
7.9413
 20
21.895
 30
0.0
 10
7.9413
 20
21.895
 30
0.0
 10
8.0608
 20
21.895
 30
0.0
 10
8.1619
 20
21.9402
 30
0.0
 10
8.2442
 20
22.03
 30
0.0
 10
8.2442
 20
22.03
 30
0.0
 10
8.327
 20
22.1203
 30
0.0
 10
8.3684
 20
22.2398
 30
0.0
 10
8.3684
 20
22.3884
 30
0.0
 10
8.3684
 20
22.3884
 30
0.0
 10
8.3684
 20
22.53
 30
0.0
 10
8.3289
 20
22.6415
 30
0.0
 10
8.2494
 20
22.7233
 30
0.0
 10
8.2494
 20
22.7233
 30
0.0
 10
8.1699
 20
22.8052
 30
0.0
 10
8.066
 20
22.8461
 30
0.0
 10
7.9371
 20
22.8461
 30
0.0
 10
7.9371
 20
22.8461
 30
0.0
 10
7.8571
 20
22.8461
 30
0.0
 10
7.7852
 20
22.8278
 30
0.0
 10
7.7207
 20
22.7916
 30
0.0
 10
7.7207
 20
22.7916
 30
0.0
 10
7.6563
 20
22.7553
 30
0.0
 10
7.606
 20
22.7083
 30
0.0
 10
7.5693
 20
22.6504
 30
0.0
 10
7.5693
 20
22.6504
 30
0.0
 10
7.5693
 20
22.6504
 30
0.0
 10
7.3364
 20
22.6805
 30
0.0
 10
7.3364
 20
22.6805
 30
0.0
 10
7.3364
 20
22.6805
 30
0.0
 10
7.3364
 20
22.6805
 30
0.0
 10
7.5321
 20
23.7182
 30
0.0
 10
7.5321
 20
23.7182
 30
0.0
 10
7.5321
 20
23.7182
 30
0.0
 10
7.5321
 20
23.7182
 30
0.0
 10
8.5368
 20
23.7182
 30
0.0
 10
8.5368
 20
23.7182
 30
0.0
 10
8.5368
 20
23.7182
 30
0.0
 10
8.5368
 20
23.7182
 30
0.0
 10
8.5368
 20
23.4811
 30
0.0
 10
8.5368
 20
23.4811
 30
0.0
 10
8.5368
 20
23.4811
 30
0.0
 10
8.5368
 20
23.4811
 30
0.0
 10
7.7306
 20
23.4811
 30
0.0
 10
7.7306
 20
23.4811
 30
0.0
 10
7.7306
 20
23.4811
 30
0.0
 10
7.7306
 20
23.4811
 30
0.0
 10
7.6215
 20
22.9383
 30
0.0
 10
7.6215
 20
22.9383
 30
0.0
 10
7.6215
 20
22.9383
 30
0.0
 10
7.7428
 20
23.023
 30
0.0
 10
7.8703
 20
23.0653
 30
0.0
 10
8.0034
 20
23.0653
 30
0.0
 10
8.0034
 20
23.0653
 30
0.0
 10
8.1798
 20
23.0653
 30
0.0
 10
8.3284
 20
23.0042
 30
0.0
 10
8.4498
 20
22.8819
 30
0.0
 10
8.4498
 20
22.8819
 30
0.0
 10
8.5711
 20
22.7596
 30
0.0
 10
8.6318
 20
22.6025
 30
0.0
 10
8.6318
 20
22.4106
 30
0.0
 10
8.6318
 20
22.4106
 30
0.0
 10
8.6318
 20
22.2276
 30
0.0
 10
8.5782
 20
22.0695
 30
0.0
 10
8.4719
 20
21.9364
 30
0.0
 10
8.4719
 20
21.9364
 30
0.0
 10
8.3421
 20
21.7732
 30
0.0
 10
8.1652
 20
21.6914
 30
0.0
 10
7.9413
 20
21.6914
 30
0.0
 10
7.9413
 20
21.6914
 30
0.0
 10
7.7574
 20
21.6914
 30
0.0
 10
7.6074
 20
21.7426
 30
0.0
 10
7.4912
 20
21.8456
 30
0.0
 10
7.4912
 20
21.8456
 30
0.0
 10
7.375
 20
21.9487
 30
0.0
 10
7.3087
 20
22.0851
 30
0.0
 10
7.2922
 20
22.2549
 30
0.0
  0
SPLINE
  5
57
330
1F
100
AcDbEntity
  8
DEFAULT_1
 62
   250
100
AcDbSpline
210
0.0
220
0.0
230
1.0
 70
    11
 71
     3
 72
    52
 73
    48
 74
     0
 42
0.0000000001
 43
0.0000000001
 40
0.0
 40
0.0
 40
0.0
 40
0.0
 40
0.0769230769230769
 40
0.0769230769230769
 40
0.0769230769230769
 40
0.0769230769230769
 40
0.1538461538461539
 40
0.1538461538461539
 40
0.1538461538461539
 40
0.1538461538461539
 40
0.2307692307692308
 40
0.2307692307692308
 40
0.2307692307692308
 40
0.2307692307692308
 40
0.3076923076923077
 40
0.3076923076923077
 40
0.3076923076923077
 40
0.3076923076923077
 40
0.3846153846153846
 40
0.3846153846153846
 40
0.3846153846153846
 40
0.3846153846153846
 40
0.4615384615384616
 40
0.4615384615384616
 40
0.4615384615384616
 40
0.4615384615384616
 40
0.5384615384615384
 40
0.5384615384615384
 40
0.5384615384615384
 40
0.5384615384615384
 40
0.6153846153846154
 40
0.6153846153846154
 40
0.6153846153846154
 40
0.6153846153846154
 40
0.6923076923076923
 40
0.6923076923076923
 40
0.6923076923076923
 40
0.6923076923076923
 40
0.7692307692307693
 40
0.7692307692307693
 40
0.7692307692307693
 40
0.7692307692307693
 40
0.8461538461538461
 40
0.8461538461538461
 40
0.8461538461538461
 40
0.8461538461538461
 40
1.0
 40
1.0
 40
1.0
 40
1.0
 10
8.8618
 20
22.7219
 30
0.0
 10
8.8618
 20
22.9609
 30
0.0
 10
8.8863
 20
23.1533
 30
0.0
 10
8.9357
 20
23.2986
 30
0.0
 10
8.9357
 20
23.2986
 30
0.0
 10
8.9846
 20
23.4444
 30
0.0
 10
9.058
 20
23.5568
 30
0.0
 10
9.1549
 20
23.6359
 30
0.0
 10
9.1549
 20
23.6359
 30
0.0
 10
9.2518
 20
23.7149
 30
0.0
 10
9.3736
 20
23.7544
 30
0.0
 10
9.5203
 20
23.7544
 30
0.0
 10
9.5203
 20
23.7544
 30
0.0
 10
9.629
 20
23.7544
 30
0.0
 10
9.724
 20
23.7323
 30
0.0
 10
9.8058
 20
23.6885
 30
0.0
 10
9.8058
 20
23.6885
 30
0.0
 10
9.8877
 20
23.6453
 30
0.0
 10
9.955
 20
23.5822
 30
0.0
 10
10.0086
 20
23.4999
 30
0.0
 10
10.0086
 20
23.4999
 30
0.0
 10
10.0617
 20
23.4176
 30
0.0
 10
10.1036
 20
23.3174
 30
0.0
 10
10.1337
 20
23.1994
 30
0.0
 10
10.1337
 20
23.1994
 30
0.0
 10
10.1643
 20
23.0813
 30
0.0
 10
10.1793
 20
22.9223
 30
0.0
 10
10.1793
 20
22.7219
 30
0.0
 10
10.1793
 20
22.7219
 30
0.0
 10
10.1793
 20
22.4849
 30
0.0
 10
10.1549
 20
22.2939
 30
0.0
 10
10.1064
 20
22.1481
 30
0.0
 10
10.1064
 20
22.1481
 30
0.0
 10
10.0575
 20
22.0023
 30
0.0
 10
9.9846
 20
21.8899
 30
0.0
 10
9.8877
 20
21.8104
 30
0.0
 10
9.8877
 20
21.8104
 30
0.0
 10
9.7908
 20
21.7309
 30
0.0
 10
9.6685
 20
21.6914
 30
0.0
 10
9.5203
 20
21.6914
 30
0.0
 10
9.5203
 20
21.6914
 30
0.0
 10
9.3256
 20
21.6914
 30
0.0
 10
9.1727
 20
21.761
 30
0.0
 10
9.0617
 20
21.9007
 30
0.0
 10
9.0617
 20
21.9007
 30
0.0
 10
8.9286
 20
22.0686
 30
0.0
 10
8.8618
 20
22.3428
 30
0.0
 10
8.8618
 20
22.7219
 30
0.0
  0
SPLINE
  5
58
330
1F
100
AcDbEntity
  8
DEFAULT_1
 62
   250
100
AcDbSpline
210
0.0
220
0.0
230
1.0
 70
    11
 71
     3
 72
    36
 73
    32
 74
     0
 42
0.0000000001
 43
0.0000000001
 40
0.0
 40
0.0
 40
0.0
 40
0.0
 40
0.1111111111111111
 40
0.1111111111111111
 40
0.1111111111111111
 40
0.1111111111111111
 40
0.2222222222222222
 40
0.2222222222222222
 40
0.2222222222222222
 40
0.2222222222222222
 40
0.3333333333333333
 40
0.3333333333333333
 40
0.3333333333333333
 40
0.3333333333333333
 40
0.4444444444444444
 40
0.4444444444444444
 40
0.4444444444444444
 40
0.4444444444444444
 40
0.5555555555555556
 40
0.5555555555555556
 40
0.5555555555555556
 40
0.5555555555555556
 40
0.6666666666666666
 40
0.6666666666666666
 40
0.6666666666666666
 40
0.6666666666666666
 40
0.7777777777777778
 40
0.7777777777777778
 40
0.7777777777777778
 40
0.7777777777777778
 40
1.0
 40
1.0
 40
1.0
 40
1.0
 10
9.1168
 20
22.7219
 30
0.0
 10
9.1168
 20
22.3903
 30
0.0
 10
9.1558
 20
22.1697
 30
0.0
 10
9.2334
 20
22.0597
 30
0.0
 10
9.2334
 20
22.0597
 30
0.0
 10
9.311
 20
21.9501
 30
0.0
 10
9.4065
 20
21.895
 30
0.0
 10
9.5203
 20
21.895
 30
0.0
 10
9.5203
 20
21.895
 30
0.0
 10
9.6346
 20
21.895
 30
0.0
 10
9.7301
 20
21.9505
 30
0.0
 10
9.8077
 20
22.0606
 30
0.0
 10
9.8077
 20
22.0606
 30
0.0
 10
9.8853
 20
22.1707
 30
0.0
 10
9.9244
 20
22.3913
 30
0.0
 10
9.9244
 20
22.7219
 30
0.0
 10
9.9244
 20
22.7219
 30
0.0
 10
9.9244
 20
23.0545
 30
0.0
 10
9.8853
 20
23.2756
 30
0.0
 10
9.8077
 20
23.3847
 30
0.0
 10
9.8077
 20
23.3847
 30
0.0
 10
9.7301
 20
23.4943
 30
0.0
 10
9.6337
 20
23.5488
 30
0.0
 10
9.518
 20
23.5488
 30
0.0
 10
9.518
 20
23.5488
 30
0.0
 10
9.4037
 20
23.5488
 30
0.0
 10
9.3129
 20
23.5004
 30
0.0
 10
9.2447
 20
23.404
 30
0.0
 10
9.2447
 20
23.404
 30
0.0
 10
9.1596
 20
23.2812
 30
0.0
 10
9.1168
 20
23.0535
 30
0.0
 10
9.1168
 20
22.7219
 30
0.0
  0
SPLINE
  5
59
330
1F
100
AcDbEntity
  8
DEFAULT_1
 62
   250
100
AcDbSpline
210
0.0
220
0.0
230
1.0
 70
    11
 71
     3
 72
   120
 73
   116
 74
     0
 42
0.0000000001
 43
0.0000000001
 40
0.0
 40
0.0
 40
0.0
 40
0.0
 40
0.0333333333333333
 40
0.0333333333333333
 40
0.0333333333333333
 40
0.0333333333333333
 40
0.0666666666666667
 40
0.0666666666666667
 40
0.0666666666666667
 40
0.0666666666666667
 40
0.1
 40
0.1
 40
0.1
 40
0.1
 40
0.1333333333333333
 40
0.1333333333333333
 40
0.1333333333333333
 40
0.1333333333333333
 40
0.1666666666666667
 40
0.1666666666666667
 40
0.1666666666666667
 40
0.1666666666666667
 40
0.2
 40
0.2
 40
0.2
 40
0.2
 40
0.2333333333333333
 40
0.2333333333333333
 40
0.2333333333333333
 40
0.2333333333333333
 40
0.2666666666666667
 40
0.2666666666666667
 40
0.2666666666666667
 40
0.2666666666666667
 40
0.3
 40
0.3
 40
0.3
 40
0.3
 40
0.3333333333333333
 40
0.3333333333333333
 40
0.3333333333333333
 40
0.3333333333333333
 40
0.3666666666666666
 40
0.3666666666666666
 40
0.3666666666666666
 40
0.3666666666666666
 40
0.4
 40
0.4
 40
0.4
 40
0.4
 40
0.4333333333333333
 40
0.4333333333333333
 40
0.4333333333333333
 40
0.4333333333333333
 40
0.4666666666666667
 40
0.4666666666666667
 40
0.4666666666666667
 40
0.4666666666666667
 40
0.5
 40
0.5
 40
0.5
 40
0.5
 40
0.5333333333333333
 40
0.5333333333333333
 40
0.5333333333333333
 40
0.5333333333333333
 40
0.5666666666666667
 40
0.5666666666666667
 40
0.5666666666666667
 40
0.5666666666666667
 40
0.6
 40
0.6
 40
0.6
 40
0.6
 40
0.6333333333333333
 40
0.6333333333333333
 40
0.6333333333333333
 40
0.6333333333333333
 40
0.6666666666666666
 40
0.6666666666666666
 40
0.6666666666666666
 40
0.6666666666666666
 40
0.7
 40
0.7
 40
0.7
 40
0.7
 40
0.7333333333333333
 40
0.7333333333333333
 40
0.7333333333333333
 40
0.7333333333333333
 40
0.7666666666666667
 40
0.7666666666666667
 40
0.7666666666666667
 40
0.7666666666666667
 40
0.8
 40
0.8
 40
0.8
 40
0.8
 40
0.8333333333333334
 40
0.8333333333333334
 40
0.8333333333333334
 40
0.8333333333333334
 40
0.8666666666666667
 40
0.8666666666666667
 40
0.8666666666666667
 40
0.8666666666666667
 40
0.9
 40
0.9
 40
0.9
 40
0.9
 40
0.9333333333333333
 40
0.9333333333333333
 40
0.9333333333333333
 40
0.9333333333333333
 40
1.0
 40
1.0
 40
1.0
 40
1.0
 10
-17.9685
 20
27.8972
 30
0.0
 10
-17.9685
 20
27.8972
 30
0.0
 10
-17.9685
 20
28.1338
 30
0.0
 10
-17.9685
 20
28.1338
 30
0.0
 10
-17.9685
 20
28.1338
 30
0.0
 10
-17.9685
 20
28.1338
 30
0.0
 10
-17.1129
 20
28.1352
 30
0.0
 10
-17.1129
 20
28.1352
 30
0.0
 10
-17.1129
 20
28.1352
 30
0.0
 10
-17.1129
 20
28.1352
 30
0.0
 10
-17.1129
 20
27.3859
 30
0.0
 10
-17.1129
 20
27.3859
 30
0.0
 10
-17.1129
 20
27.3859
 30
0.0
 10
-17.2441
 20
27.281
 30
0.0
 10
-17.3796
 20
27.2024
 30
0.0
 10
-17.5193
 20
27.1493
 30
0.0
 10
-17.5193
 20
27.1493
 30
0.0
 10
-17.659
 20
27.0966
 30
0.0
 10
-17.8024
 20
27.0703
 30
0.0
 10
-17.9492
 20
27.0703
 30
0.0
 10
-17.9492
 20
27.0703
 30
0.0
 10
-18.1477
 20
27.0703
 30
0.0
 10
-18.3283
 20
27.1126
 30
0.0
 10
-18.4901
 20
27.1977
 30
0.0
 10
-18.4901
 20
27.1977
 30
0.0
 10
-18.6524
 20
27.2824
 30
0.0
 10
-18.7747
 20
27.4056
 30
0.0
 10
-18.8575
 20
27.566
 30
0.0
 10
-18.8575
 20
27.566
 30
0.0
 10
-18.9403
 20
27.7269
 30
0.0
 10
-18.9817
 20
27.9066
 30
0.0
 10
-18.9817
 20
28.1051
 30
0.0
 10
-18.9817
 20
28.1051
 30
0.0
 10
-18.9817
 20
28.3017
 30
0.0
 10
-18.9403
 20
28.4851
 30
0.0
 10
-18.8579
 20
28.6554
 30
0.0
 10
-18.8579
 20
28.6554
 30
0.0
 10
-18.7761
 20
28.8261
 30
0.0
 10
-18.6576
 20
28.9527
 30
0.0
 10
-18.5033
 20
29.0355
 30
0.0
 10
-18.5033
 20
29.0355
 30
0.0
 10
-18.349
 20
29.1178
 30
0.0
 10
-18.1712
 20
29.1592
 30
0.0
 10
-17.9699
 20
29.1592
 30
0.0
 10
-17.9699
 20
29.1592
 30
0.0
 10
-17.8241
 20
29.1592
 30
0.0
 10
-17.6919
 20
29.1356
 30
0.0
 10
-17.5738
 20
29.0881
 30
0.0
 10
-17.5738
 20
29.0881
 30
0.0
 10
-17.4558
 20
29.0411
 30
0.0
 10
-17.3631
 20
28.9752
 30
0.0
 10
-17.2963
 20
28.8906
 30
0.0
 10
-17.2963
 20
28.8906
 30
0.0
 10
-17.2291
 20
28.8059
 30
0.0
 10
-17.1783
 20
28.6959
 30
0.0
 10
-17.143
 20
28.5599
 30
0.0
 10
-17.143
 20
28.5599
 30
0.0
 10
-17.143
 20
28.5599
 30
0.0
 10
-17.3843
 20
28.4936
 30
0.0
 10
-17.3843
 20
28.4936
 30
0.0
 10
-17.3843
 20
28.4936
 30
0.0
 10
-17.4149
 20
28.5966
 30
0.0
 10
-17.4525
 20
28.6775
 30
0.0
 10
-17.4972
 20
28.7363
 30
0.0
 10
-17.4972
 20
28.7363
 30
0.0
 10
-17.5423
 20
28.7951
 30
0.0
 10
-17.6068
 20
28.8421
 30
0.0
 10
-17.6905
 20
28.8774
 30
0.0
 10
-17.6905
 20
28.8774
 30
0.0
 10
-17.7738
 20
28.9127
 30
0.0
 10
-17.8669
 20
28.9306
 30
0.0
 10
-17.9685
 20
28.9306
 30
0.0
 10
-17.9685
 20
28.9306
 30
0.0
 10
-18.0908
 20
28.9306
 30
0.0
 10
-18.1966
 20
28.9117
 30
0.0
 10
-18.2855
 20
28.8746
 30
0.0
 10
-18.2855
 20
28.8746
 30
0.0
 10
-18.3749
 20
28.8374
 30
0.0
 10
-18.4464
 20
28.7885
 30
0.0
 10
-18.5014
 20
28.7278
 30
0.0
 10
-18.5014
 20
28.7278
 30
0.0
 10
-18.556
 20
28.6672
 30
0.0
 10
-18.5983
 20
28.6008
 30
0.0
 10
-18.6289
 20
28.5279
 30
0.0
 10
-18.6289
 20
28.5279
 30
0.0
 10
-18.6801
 20
28.4033
 30
0.0
 10
-18.706
 20
28.2678
 30
0.0
 10
-18.706
 20
28.1215
 30
0.0
 10
-18.706
 20
28.1215
 30
0.0
 10
-18.706
 20
27.9414
 30
0.0
 10
-18.675
 20
27.7909
 30
0.0
 10
-18.6129
 20
27.6695
 30
0.0
 10
-18.6129
 20
27.6695
 30
0.0
 10
-18.5508
 20
27.5482
 30
0.0
 10
-18.4605
 20
27.4583
 30
0.0
 10
-18.342
 20
27.3995
 30
0.0
 10
-18.342
 20
27.3995
 30
0.0
 10
-18.2234
 20
27.3407
 30
0.0
 10
-18.0978
 20
27.3111
 30
0.0
 10
-17.9647
 20
27.3111
 30
0.0
 10
-17.9647
 20
27.3111
 30
0.0
 10
-17.8485
 20
27.3111
 30
0.0
 10
-17.7357
 20
27.3337
 30
0.0
 10
-17.6256
 20
27.3784
 30
0.0
 10
-17.6256
 20
27.3784
 30
0.0
 10
-17.515
 20
27.4226
 30
0.0
 10
-17.4318
 20
27.4701
 30
0.0
 10
-17.3749
 20
27.5209
 30
0.0
 10
-17.3749
 20
27.5209
 30
0.0
 10
-17.3749
 20
27.5209
 30
0.0
 10
-17.3749
 20
27.8972
 30
0.0
 10
-17.3749
 20
27.8972
 30
0.0
 10
-17.3749
 20
27.8972
 30
0.0
 10
-17.3749
 20
27.8972
 30
0.0
 10
-17.9685
 20
27.8972
 30
0.0
 10
-17.9685
 20
27.8972
 30
0.0
  0
SPLINE
  5
5A
330
1F
100
AcDbEntity
  8
DEFAULT_1
 62
   250
100
AcDbSpline
210
0.0
220
0.0
230
1.0
 70
    11
 71
     3
 72
    92
 73
    88
 74
     0
 42
0.0000000001
 43
0.0000000001
 40
0.0
 40
0.0
 40
0.0
 40
0.0
 40
0.0434782608695652
 40
0.0434782608695652
 40
0.0434782608695652
 40
0.0434782608695652
 40
0.0869565217391304
 40
0.0869565217391304
 40
0.0869565217391304
 40
0.0869565217391304
 40
0.1304347826086956
 40
0.1304347826086956
 40
0.1304347826086956
 40
0.1304347826086956
 40
0.1739130434782609
 40
0.1739130434782609
 40
0.1739130434782609
 40
0.1739130434782609
 40
0.2173913043478261
 40
0.2173913043478261
 40
0.2173913043478261
 40
0.2173913043478261
 40
0.2608695652173913
 40
0.2608695652173913
 40
0.2608695652173913
 40
0.2608695652173913
 40
0.3043478260869565
 40
0.3043478260869565
 40
0.3043478260869565
 40
0.3043478260869565
 40
0.3478260869565217
 40
0.3478260869565217
 40
0.3478260869565217
 40
0.3478260869565217
 40
0.391304347826087
 40
0.391304347826087
 40
0.391304347826087
 40
0.391304347826087
 40
0.4347826086956522
 40
0.4347826086956522
 40
0.4347826086956522
 40
0.4347826086956522
 40
0.4782608695652174
 40
0.4782608695652174
 40
0.4782608695652174
 40
0.4782608695652174
 40
0.5217391304347826
 40
0.5217391304347826
 40
0.5217391304347826
 40
0.5217391304347826
 40
0.5652173913043478
 40
0.5652173913043478
 40
0.5652173913043478
 40
0.5652173913043478
 40
0.6086956521739131
 40
0.6086956521739131
 40
0.6086956521739131
 40
0.6086956521739131
 40
0.6521739130434783
 40
0.6521739130434783
 40
0.6521739130434783
 40
0.6521739130434783
 40
0.6956521739130435
 40
0.6956521739130435
 40
0.6956521739130435
 40
0.6956521739130435
 40
0.7391304347826086
 40
0.7391304347826086
 40
0.7391304347826086
 40
0.7391304347826086
 40
0.782608695652174
 40
0.782608695652174
 40
0.782608695652174
 40
0.782608695652174
 40
0.8260869565217391
 40
0.8260869565217391
 40
0.8260869565217391
 40
0.8260869565217391
 40
0.8695652173913043
 40
0.8695652173913043
 40
0.8695652173913043
 40
0.8695652173913043
 40
0.9130434782608695
 40
0.9130434782608695
 40
0.9130434782608695
 40
0.9130434782608695
 40
1.0
 40
1.0
 40
1.0
 40
1.0
 10
-16.0353
 20
27.6338
 30
0.0
 10
-16.0353
 20
27.6338
 30
0.0
 10
-15.7747
 20
27.6559
 30
0.0
 10
-15.7747
 20
27.6559
 30
0.0
 10
-15.7747
 20
27.6559
 30
0.0
 10
-15.7554
 20
27.5289
 30
0.0
 10
-15.7107
 20
27.4339
 30
0.0
 10
-15.6406
 20
27.3699
 30
0.0
 10
-15.6406
 20
27.3699
 30
0.0
 10
-15.5701
 20
27.3059
 30
0.0
 10
-15.4854
 20
27.2739
 30
0.0
 10
-15.3862
 20
27.2739
 30
0.0
 10
-15.3862
 20
27.2739
 30
0.0
 10
-15.2667
 20
27.2739
 30
0.0
 10
-15.1656
 20
27.3191
 30
0.0
 10
-15.0833
 20
27.4089
 30
0.0
 10
-15.0833
 20
27.4089
 30
0.0
 10
-15.0005
 20
27.4992
 30
0.0
 10
-14.9591
 20
27.6187
 30
0.0
 10
-14.9591
 20
27.7673
 30
0.0
 10
-14.9591
 20
27.7673
 30
0.0
 10
-14.9591
 20
27.9089
 30
0.0
 10
-14.9986
 20
28.0204
 30
0.0
 10
-15.0781
 20
28.1022
 30
0.0
 10
-15.0781
 20
28.1022
 30
0.0
 10
-15.1576
 20
28.1841
 30
0.0
 10
-15.2615
 20
28.225
 30
0.0
 10
-15.3904
 20
28.225
 30
0.0
 10
-15.3904
 20
28.225
 30
0.0
 10
-15.4704
 20
28.225
 30
0.0
 10
-15.5423
 20
28.2067
 30
0.0
 10
-15.6068
 20
28.1705
 30
0.0
 10
-15.6068
 20
28.1705
 30
0.0
 10
-15.6712
 20
28.1342
 30
0.0
 10
-15.7215
 20
28.0872
 30
0.0
 10
-15.7582
 20
28.0293
 30
0.0
 10
-15.7582
 20
28.0293
 30
0.0
 10
-15.7582
 20
28.0293
 30
0.0
 10
-15.9911
 20
28.0594
 30
0.0
 10
-15.9911
 20
28.0594
 30
0.0
 10
-15.9911
 20
28.0594
 30
0.0
 10
-15.9911
 20
28.0594
 30
0.0
 10
-15.7954
 20
29.0971
 30
0.0
 10
-15.7954
 20
29.0971
 30
0.0
 10
-15.7954
 20
29.0971
 30
0.0
 10
-15.7954
 20
29.0971
 30
0.0
 10
-14.7907
 20
29.0971
 30
0.0
 10
-14.7907
 20
29.0971
 30
0.0
 10
-14.7907
 20
29.0971
 30
0.0
 10
-14.7907
 20
29.0971
 30
0.0
 10
-14.7907
 20
28.86
 30
0.0
 10
-14.7907
 20
28.86
 30
0.0
 10
-14.7907
 20
28.86
 30
0.0
 10
-14.7907
 20
28.86
 30
0.0
 10
-15.5969
 20
28.86
 30
0.0
 10
-15.5969
 20
28.86
 30
0.0
 10
-15.5969
 20
28.86
 30
0.0
 10
-15.5969
 20
28.86
 30
0.0
 10
-15.706
 20
28.3172
 30
0.0
 10
-15.706
 20
28.3172
 30
0.0
 10
-15.706
 20
28.3172
 30
0.0
 10
-15.5847
 20
28.4019
 30
0.0
 10
-15.4572
 20
28.4442
 30
0.0
 10
-15.3241
 20
28.4442
 30
0.0
 10
-15.3241
 20
28.4442
 30
0.0
 10
-15.1477
 20
28.4442
 30
0.0
 10
-14.9991
 20
28.3831
 30
0.0
 10
-14.8777
 20
28.2608
 30
0.0
 10
-14.8777
 20
28.2608
 30
0.0
 10
-14.7564
 20
28.1385
 30
0.0
 10
-14.6957
 20
27.9814
 30
0.0
 10
-14.6957
 20
27.7895
 30
0.0
 10
-14.6957
 20
27.7895
 30
0.0
 10
-14.6957
 20
27.6065
 30
0.0
 10
-14.7493
 20
27.4484
 30
0.0
 10
-14.8556
 20
27.3153
 30
0.0
 10
-14.8556
 20
27.3153
 30
0.0
 10
-14.9854
 20
27.1521
 30
0.0
 10
-15.1623
 20
27.0703
 30
0.0
 10
-15.3862
 20
27.0703
 30
0.0
 10
-15.3862
 20
27.0703
 30
0.0
 10
-15.5701
 20
27.0703
 30
0.0
 10
-15.7201
 20
27.1215
 30
0.0
 10
-15.8363
 20
27.2245
 30
0.0
 10
-15.8363
 20
27.2245
 30
0.0
 10
-15.9525
 20
27.3276
 30
0.0
 10
-16.0188
 20
27.464
 30
0.0
 10
-16.0353
 20
27.6338
 30
0.0
  0
SPLINE
  5
5B
330
1F
100
AcDbEntity
  8
DEFAULT_1
 62
   250
100
AcDbSpline
210
0.0
220
0.0
230
1.0
 70
    11
 71
     3
 72
    20
 73
    16
 74
     0
 42
0.0000000001
 43
0.0000000001
 40
0.0
 40
0.0
 40
0.0
 40
0.0
 40
0.2
 40
0.2
 40
0.2
 40
0.2
 40
0.4
 40
0.4
 40
0.4
 40
0.4
 40
0.6
 40
0.6
 40
0.6
 40
0.6
 40
1.0
 40
1.0
 40
1.0
 40
1.0
 10
-14.5828
 20
27.0703
 30
0.0
 10
-14.5828
 20
27.0703
 30
0.0
 10
-13.9972
 20
29.1592
 30
0.0
 10
-13.9972
 20
29.1592
 30
0.0
 10
-13.9972
 20
29.1592
 30
0.0
 10
-13.9972
 20
29.1592
 30
0.0
 10
-13.7987
 20
29.1592
 30
0.0
 10
-13.7987
 20
29.1592
 30
0.0
 10
-13.7987
 20
29.1592
 30
0.0
 10
-13.7987
 20
29.1592
 30
0.0
 10
-14.3829
 20
27.0703
 30
0.0
 10
-14.3829
 20
27.0703
 30
0.0
 10
-14.3829
 20
27.0703
 30
0.0
 10
-14.3829
 20
27.0703
 30
0.0
 10
-14.5828
 20
27.0703
 30
0.0
 10
-14.5828
 20
27.0703
 30
0.0
  0
SPLINE
  5
5C
330
1F
100
AcDbEntity
  8
DEFAULT_1
 62
   250
100
AcDbSpline
210
0.0
220
0.0
230
1.0
 70
    11
 71
     3
 72
    48
 73
    44
 74
     0
 42
0.0000000001
 43
0.0000000001
 40
0.0
 40
0.0
 40
0.0
 40
0.0
 40
0.0833333333333333
 40
0.0833333333333333
 40
0.0833333333333333
 40
0.0833333333333333
 40
0.1666666666666667
 40
0.1666666666666667
 40
0.1666666666666667
 40
0.1666666666666667
 40
0.25
 40
0.25
 40
0.25
 40
0.25
 40
0.3333333333333333
 40
0.3333333333333333
 40
0.3333333333333333
 40
0.3333333333333333
 40
0.4166666666666667
 40
0.4166666666666667
 40
0.4166666666666667
 40
0.4166666666666667
 40
0.5
 40
0.5
 40
0.5
 40
0.5
 40
0.5833333333333334
 40
0.5833333333333334
 40
0.5833333333333334
 40
0.5833333333333334
 40
0.6666666666666666
 40
0.6666666666666666
 40
0.6666666666666666
 40
0.6666666666666666
 40
0.75
 40
0.75
 40
0.75
 40
0.75
 40
0.8333333333333334
 40
0.8333333333333334
 40
0.8333333333333334
 40
0.8333333333333334
 40
1.0
 40
1.0
 40
1.0
 40
1.0
 10
-12.8867
 20
27.1046
 30
0.0
 10
-12.8867
 20
27.1046
 30
0.0
 10
-12.8867
 20
27.5881
 30
0.0
 10
-12.8867
 20
27.5881
 30
0.0
 10
-12.8867
 20
27.5881
 30
0.0
 10
-12.8867
 20
27.5881
 30
0.0
 10
-13.763
 20
27.5881
 30
0.0
 10
-13.763
 20
27.5881
 30
0.0
 10
-13.763
 20
27.5881
 30
0.0
 10
-13.763
 20
27.5881
 30
0.0
 10
-13.763
 20
27.8158
 30
0.0
 10
-13.763
 20
27.8158
 30
0.0
 10
-13.763
 20
27.8158
 30
0.0
 10
-13.763
 20
27.8158
 30
0.0
 10
-12.841
 20
29.1248
 30
0.0
 10
-12.841
 20
29.1248
 30
0.0
 10
-12.841
 20
29.1248
 30
0.0
 10
-12.841
 20
29.1248
 30
0.0
 10
-12.6383
 20
29.1248
 30
0.0
 10
-12.6383
 20
29.1248
 30
0.0
 10
-12.6383
 20
29.1248
 30
0.0
 10
-12.6383
 20
29.1248
 30
0.0
 10
-12.6383
 20
27.8158
 30
0.0
 10
-12.6383
 20
27.8158
 30
0.0
 10
-12.6383
 20
27.8158
 30
0.0
 10
-12.6383
 20
27.8158
 30
0.0
 10
-12.3655
 20
27.8158
 30
0.0
 10
-12.3655
 20
27.8158
 30
0.0
 10
-12.3655
 20
27.8158
 30
0.0
 10
-12.3655
 20
27.8158
 30
0.0
 10
-12.3655
 20
27.5881
 30
0.0
 10
-12.3655
 20
27.5881
 30
0.0
 10
-12.3655
 20
27.5881
 30
0.0
 10
-12.3655
 20
27.5881
 30
0.0
 10
-12.6383
 20
27.5881
 30
0.0
 10
-12.6383
 20
27.5881
 30
0.0
 10
-12.6383
 20
27.5881
 30
0.0
 10
-12.6383
 20
27.5881
 30
0.0
 10
-12.6383
 20
27.1046
 30
0.0
 10
-12.6383
 20
27.1046
 30
0.0
 10
-12.6383
 20
27.1046
 30
0.0
 10
-12.6383
 20
27.1046
 30
0.0
 10
-12.8867
 20
27.1046
 30
0.0
 10
-12.8867
 20
27.1046
 30
0.0
  0
SPLINE
  5
5D
330
1F
100
AcDbEntity
  8
DEFAULT_1
 62
   250
100
AcDbSpline
210
0.0
220
0.0
230
1.0
 70
    11
 71
     3
 72
    16
 73
    12
 74
     0
 42
0.0000000001
 43
0.0000000001
 40
0.0
 40
0.0
 40
0.0
 40
0.0
 40
0.25
 40
0.25
 40
0.25
 40
0.25
 40
0.5
 40
0.5
 40
0.5
 40
0.5
 40
1.0
 40
1.0
 40
1.0
 40
1.0
 10
-12.8867
 20
27.8158
 30
0.0
 10
-12.8867
 20
27.8158
 30
0.0
 10
-12.8867
 20
28.7264
 30
0.0
 10
-12.8867
 20
28.7264
 30
0.0
 10
-12.8867
 20
28.7264
 30
0.0
 10
-12.8867
 20
28.7264
 30
0.0
 10
-13.5188
 20
27.8158
 30
0.0
 10
-13.5188
 20
27.8158
 30
0.0
 10
-13.5188
 20
27.8158
 30
0.0
 10
-13.5188
 20
27.8158
 30
0.0
 10
-12.8867
 20
27.8158
 30
0.0
 10
-12.8867
 20
27.8158
 30
0.0
  0
SPLINE
  5
5E
330
1F
100
AcDbEntity
  8
DEFAULT_1
 62
   250
100
AcDbSpline
210
0.0
220
0.0
230
1.0
 70
    11
 71
     3
 72
    28
 73
    24
 74
     0
 42
0.0000000001
 43
0.0000000001
 40
0.0
 40
0.0
 40
0.0
 40
0.0
 40
0.1428571428571428
 40
0.1428571428571428
 40
0.1428571428571428
 40
0.1428571428571428
 40
0.2857142857142857
 40
0.2857142857142857
 40
0.2857142857142857
 40
0.2857142857142857
 40
0.4285714285714285
 40
0.4285714285714285
 40
0.4285714285714285
 40
0.4285714285714285
 40
0.5714285714285714
 40
0.5714285714285714
 40
0.5714285714285714
 40
0.5714285714285714
 40
0.7142857142857143
 40
0.7142857142857143
 40
0.7142857142857143
 40
0.7142857142857143
 40
1.0
 40
1.0
 40
1.0
 40
1.0
 10
-12.0306
 20
28.4094
 30
0.0
 10
-12.0306
 20
28.4094
 30
0.0
 10
-12.0997
 20
28.7942
 30
0.0
 10
-12.0997
 20
28.7942
 30
0.0
 10
-12.0997
 20
28.7942
 30
0.0
 10
-12.0997
 20
28.7942
 30
0.0
 10
-12.0997
 20
29.1248
 30
0.0
 10
-12.0997
 20
29.1248
 30
0.0
 10
-12.0997
 20
29.1248
 30
0.0
 10
-12.0997
 20
29.1248
 30
0.0
 10
-11.8171
 20
29.1248
 30
0.0
 10
-11.8171
 20
29.1248
 30
0.0
 10
-11.8171
 20
29.1248
 30
0.0
 10
-11.8171
 20
29.1248
 30
0.0
 10
-11.8171
 20
28.7942
 30
0.0
 10
-11.8171
 20
28.7942
 30
0.0
 10
-11.8171
 20
28.7942
 30
0.0
 10
-11.8171
 20
28.7942
 30
0.0
 10
-11.8791
 20
28.4094
 30
0.0
 10
-11.8791
 20
28.4094
 30
0.0
 10
-11.8791
 20
28.4094
 30
0.0
 10
-11.8791
 20
28.4094
 30
0.0
 10
-12.0306
 20
28.4094
 30
0.0
 10
-12.0306
 20
28.4094
 30
0.0
  0
SPLINE
  5
5F
330
1F
100
AcDbEntity
  8
DEFAULT_1
 62
   250
100
AcDbSpline
210
0.0
220
0.0
230
1.0
 70
    11
 71
     3
 72
    28
 73
    24
 74
     0
 42
0.0000000001
 43
0.0000000001
 40
0.0
 40
0.0
 40
0.0
 40
0.0
 40
0.1428571428571428
 40
0.1428571428571428
 40
0.1428571428571428
 40
0.1428571428571428
 40
0.2857142857142857
 40
0.2857142857142857
 40
0.2857142857142857
 40
0.2857142857142857
 40
0.4285714285714285
 40
0.4285714285714285
 40
0.4285714285714285
 40
0.4285714285714285
 40
0.5714285714285714
 40
0.5714285714285714
 40
0.5714285714285714
 40
0.5714285714285714
 40
0.7142857142857143
 40
0.7142857142857143
 40
0.7142857142857143
 40
0.7142857142857143
 40
1.0
 40
1.0
 40
1.0
 40
1.0
 10
-11.5743
 20
28.4094
 30
0.0
 10
-11.5743
 20
28.4094
 30
0.0
 10
-11.6421
 20
28.7942
 30
0.0
 10
-11.6421
 20
28.7942
 30
0.0
 10
-11.6421
 20
28.7942
 30
0.0
 10
-11.6421
 20
28.7942
 30
0.0
 10
-11.6421
 20
29.1248
 30
0.0
 10
-11.6421
 20
29.1248
 30
0.0
 10
-11.6421
 20
29.1248
 30
0.0
 10
-11.6421
 20
29.1248
 30
0.0
 10
-11.3594
 20
29.1248
 30
0.0
 10
-11.3594
 20
29.1248
 30
0.0
 10
-11.3594
 20
29.1248
 30
0.0
 10
-11.3594
 20
29.1248
 30
0.0
 10
-11.3594
 20
28.7942
 30
0.0
 10
-11.3594
 20
28.7942
 30
0.0
 10
-11.3594
 20
28.7942
 30
0.0
 10
-11.3594
 20
28.7942
 30
0.0
 10
-11.4257
 20
28.4094
 30
0.0
 10
-11.4257
 20
28.4094
 30
0.0
 10
-11.4257
 20
28.4094
 30
0.0
 10
-11.4257
 20
28.4094
 30
0.0
 10
-11.5743
 20
28.4094
 30
0.0
 10
-11.5743
 20
28.4094
 30
0.0
  0
SPLINE
  5
60
330
1F
100
AcDbEntity
  8
DEFAULT_1
 62
   250
100
AcDbSpline
210
0.0
220
0.0
230
1.0
 70
    11
 71
     3
 72
    40
 73
    36
 74
     0
 42
0.0000000001
 43
0.0000000001
 40
0.0
 40
0.0
 40
0.0
 40
0.0
 40
0.1
 40
0.1
 40
0.1
 40
0.1
 40
0.2
 40
0.2
 40
0.2
 40
0.2
 40
0.3
 40
0.3
 40
0.3
 40
0.3
 40
0.4
 40
0.4
 40
0.4
 40
0.4
 40
0.5
 40
0.5
 40
0.5
 40
0.5
 40
0.6
 40
0.6
 40
0.6
 40
0.6
 40
0.7
 40
0.7
 40
0.7
 40
0.7
 40
0.8
 40
0.8
 40
0.8
 40
0.8
 40
1.0
 40
1.0
 40
1.0
 40
1.0
 10
-25.787
 20
-0.8485
 30
0.0
 10
-25.787
 20
-0.8485
 30
0.0
 10
-25.787
 20
-1.0964
 30
0.0
 10
-25.787
 20
-1.0964
 30
0.0
 10
-25.787
 20
-1.0964
 30
0.0
 10
-25.787
 20
-1.0964
 30
0.0
 10
-27.3674
 20
-1.0964
 30
0.0
 10
-27.3674
 20
-1.0964
 30
0.0
 10
-27.3674
 20
-1.0964
 30
0.0
 10
-27.3105
 20
-1.1562
 30
0.0
 10
-27.2536
 20
-1.2342
 30
0.0
 10
-27.1967
 20
-1.3311
 30
0.0
 10
-27.1967
 20
-1.3311
 30
0.0
 10
-27.1398
 20
-1.4285
 30
0.0
 10
-27.097
 20
-1.5155
 30
0.0
 10
-27.0687
 20
-1.5927
 30
0.0
 10
-27.0687
 20
-1.5927
 30
0.0
 10
-27.0687
 20
-1.5927
 30
0.0
 10
-27.3082
 20
-1.5927
 30
0.0
 10
-27.3082
 20
-1.5927
 30
0.0
 10
-27.3082
 20
-1.5927
 30
0.0
 10
-27.3735
 20
-1.4539
 30
0.0
 10
-27.4526
 20
-1.3325
 30
0.0
 10
-27.5452
 20
-1.2286
 30
0.0
 10
-27.5452
 20
-1.2286
 30
0.0
 10
-27.6384
 20
-1.1251
 30
0.0
 10
-27.7282
 20
-1.0513
 30
0.0
 10
-27.8157
 20
-1.008
 30
0.0
 10
-27.8157
 20
-1.008
 30
0.0
 10
-27.8157
 20
-1.008
 30
0.0
 10
-27.8157
 20
-0.8485
 30
0.0
 10
-27.8157
 20
-0.8485
 30
0.0
 10
-27.8157
 20
-0.8485
 30
0.0
 10
-27.8157
 20
-0.8485
 30
0.0
 10
-25.787
 20
-0.8485
 30
0.0
 10
-25.787
 20
-0.8485
 30
0.0
  0
SPLINE
  5
61
330
1F
100
AcDbEntity
  8
DEFAULT_1
 62
   250
100
AcDbSpline
210
0.0
220
0.0
230
1.0
 70
    11
 71
     3
 72
    40
 73
    36
 74
     0
 42
0.0000000001
 43
0.0000000001
 40
0.0
 40
0.0
 40
0.0
 40
0.0
 40
0.1
 40
0.1
 40
0.1
 40
0.1
 40
0.2
 40
0.2
 40
0.2
 40
0.2
 40
0.3
 40
0.3
 40
0.3
 40
0.3
 40
0.4
 40
0.4
 40
0.4
 40
0.4
 40
0.5
 40
0.5
 40
0.5
 40
0.5
 40
0.6
 40
0.6
 40
0.6
 40
0.6
 40
0.7
 40
0.7
 40
0.7
 40
0.7
 40
0.8
 40
0.8
 40
0.8
 40
0.8
 40
1.0
 40
1.0
 40
1.0
 40
1.0
 10
-25.787
 20
0.5118
 30
0.0
 10
-25.787
 20
0.5118
 30
0.0
 10
-25.787
 20
0.2639
 30
0.0
 10
-25.787
 20
0.2639
 30
0.0
 10
-25.787
 20
0.2639
 30
0.0
 10
-25.787
 20
0.2639
 30
0.0
 10
-27.3674
 20
0.2639
 30
0.0
 10
-27.3674
 20
0.2639
 30
0.0
 10
-27.3674
 20
0.2639
 30
0.0
 10
-27.3105
 20
0.2041
 30
0.0
 10
-27.2536
 20
0.1261
 30
0.0
 10
-27.1967
 20
0.0292
 30
0.0
 10
-27.1967
 20
0.0292
 30
0.0
 10
-27.1398
 20
-0.0682
 30
0.0
 10
-27.097
 20
-0.1552
 30
0.0
 10
-27.0687
 20
-0.2324
 30
0.0
 10
-27.0687
 20
-0.2324
 30
0.0
 10
-27.0687
 20
-0.2324
 30
0.0
 10
-27.3082
 20
-0.2324
 30
0.0
 10
-27.3082
 20
-0.2324
 30
0.0
 10
-27.3082
 20
-0.2324
 30
0.0
 10
-27.3735
 20
-0.0936
 30
0.0
 10
-27.4526
 20
0.0278
 30
0.0
 10
-27.5452
 20
0.1317
 30
0.0
 10
-27.5452
 20
0.1317
 30
0.0
 10
-27.6384
 20
0.2352
 30
0.0
 10
-27.7282
 20
0.309
 30
0.0
 10
-27.8157
 20
0.3523
 30
0.0
 10
-27.8157
 20
0.3523
 30
0.0
 10
-27.8157
 20
0.3523
 30
0.0
 10
-27.8157
 20
0.5118
 30
0.0
 10
-27.8157
 20
0.5118
 30
0.0
 10
-27.8157
 20
0.5118
 30
0.0
 10
-27.8157
 20
0.5118
 30
0.0
 10
-25.787
 20
0.5118
 30
0.0
 10
-25.787
 20
0.5118
 30
0.0
  0
SPLINE
  5
62
330
1F
100
AcDbEntity
  8
DEFAULT_1
 62
   250
100
AcDbSpline
210
0.0
220
0.0
230
1.0
 70
    11
 71
     3
 72
    92
 73
    88
 74
     0
 42
0.0000000001
 43
0.0000000001
 40
0.0
 40
0.0
 40
0.0
 40
0.0
 40
0.0434782608695652
 40
0.0434782608695652
 40
0.0434782608695652
 40
0.0434782608695652
 40
0.0869565217391304
 40
0.0869565217391304
 40
0.0869565217391304
 40
0.0869565217391304
 40
0.1304347826086956
 40
0.1304347826086956
 40
0.1304347826086956
 40
0.1304347826086956
 40
0.1739130434782609
 40
0.1739130434782609
 40
0.1739130434782609
 40
0.1739130434782609
 40
0.2173913043478261
 40
0.2173913043478261
 40
0.2173913043478261
 40
0.2173913043478261
 40
0.2608695652173913
 40
0.2608695652173913
 40
0.2608695652173913
 40
0.2608695652173913
 40
0.3043478260869565
 40
0.3043478260869565
 40
0.3043478260869565
 40
0.3043478260869565
 40
0.3478260869565217
 40
0.3478260869565217
 40
0.3478260869565217
 40
0.3478260869565217
 40
0.391304347826087
 40
0.391304347826087
 40
0.391304347826087
 40
0.391304347826087
 40
0.4347826086956522
 40
0.4347826086956522
 40
0.4347826086956522
 40
0.4347826086956522
 40
0.4782608695652174
 40
0.4782608695652174
 40
0.4782608695652174
 40
0.4782608695652174
 40
0.5217391304347826
 40
0.5217391304347826
 40
0.5217391304347826
 40
0.5217391304347826
 40
0.5652173913043478
 40
0.5652173913043478
 40
0.5652173913043478
 40
0.5652173913043478
 40
0.6086956521739131
 40
0.6086956521739131
 40
0.6086956521739131
 40
0.6086956521739131
 40
0.6521739130434783
 40
0.6521739130434783
 40
0.6521739130434783
 40
0.6521739130434783
 40
0.6956521739130435
 40
0.6956521739130435
 40
0.6956521739130435
 40
0.6956521739130435
 40
0.7391304347826086
 40
0.7391304347826086
 40
0.7391304347826086
 40
0.7391304347826086
 40
0.782608695652174
 40
0.782608695652174
 40
0.782608695652174
 40
0.782608695652174
 40
0.8260869565217391
 40
0.8260869565217391
 40
0.8260869565217391
 40
0.8260869565217391
 40
0.8695652173913043
 40
0.8695652173913043
 40
0.8695652173913043
 40
0.8695652173913043
 40
0.9130434782608695
 40
0.9130434782608695
 40
0.9130434782608695
 40
0.9130434782608695
 40
1.0
 40
1.0
 40
1.0
 40
1.0
 10
-26.3162
 20
1.1472
 30
0.0
 10
-26.3162
 20
1.1472
 30
0.0
 10
-26.3383
 20
1.4078
 30
0.0
 10
-26.3383
 20
1.4078
 30
0.0
 10
-26.3383
 20
1.4078
 30
0.0
 10
-26.2113
 20
1.4271
 30
0.0
 10
-26.1163
 20
1.4718
 30
0.0
 10
-26.0523
 20
1.5419
 30
0.0
 10
-26.0523
 20
1.5419
 30
0.0
 10
-25.9883
 20
1.6124
 30
0.0
 10
-25.9563
 20
1.6971
 30
0.0
 10
-25.9563
 20
1.7963
 30
0.0
 10
-25.9563
 20
1.7963
 30
0.0
 10
-25.9563
 20
1.9158
 30
0.0
 10
-26.0015
 20
2.0169
 30
0.0
 10
-26.0913
 20
2.0992
 30
0.0
 10
-26.0913
 20
2.0992
 30
0.0
 10
-26.1816
 20
2.182
 30
0.0
 10
-26.3011
 20
2.2234
 30
0.0
 10
-26.4497
 20
2.2234
 30
0.0
 10
-26.4497
 20
2.2234
 30
0.0
 10
-26.5913
 20
2.2234
 30
0.0
 10
-26.7028
 20
2.1839
 30
0.0
 10
-26.7846
 20
2.1044
 30
0.0
 10
-26.7846
 20
2.1044
 30
0.0
 10
-26.8665
 20
2.0249
 30
0.0
 10
-26.9074
 20
1.921
 30
0.0
 10
-26.9074
 20
1.7921
 30
0.0
 10
-26.9074
 20
1.7921
 30
0.0
 10
-26.9074
 20
1.7121
 30
0.0
 10
-26.8891
 20
1.6402
 30
0.0
 10
-26.8529
 20
1.5757
 30
0.0
 10
-26.8529
 20
1.5757
 30
0.0
 10
-26.8166
 20
1.5113
 30
0.0
 10
-26.7696
 20
1.461
 30
0.0
 10
-26.7117
 20
1.4243
 30
0.0
 10
-26.7117
 20
1.4243
 30
0.0
 10
-26.7117
 20
1.4243
 30
0.0
 10
-26.7418
 20
1.1914
 30
0.0
 10
-26.7418
 20
1.1914
 30
0.0
 10
-26.7418
 20
1.1914
 30
0.0
 10
-26.7418
 20
1.1914
 30
0.0
 10
-27.7795
 20
1.3871
 30
0.0
 10
-27.7795
 20
1.3871
 30
0.0
 10
-27.7795
 20
1.3871
 30
0.0
 10
-27.7795
 20
1.3871
 30
0.0
 10
-27.7795
 20
2.3918
 30
0.0
 10
-27.7795
 20
2.3918
 30
0.0
 10
-27.7795
 20
2.3918
 30
0.0
 10
-27.7795
 20
2.3918
 30
0.0
 10
-27.5424
 20
2.3918
 30
0.0
 10
-27.5424
 20
2.3918
 30
0.0
 10
-27.5424
 20
2.3918
 30
0.0
 10
-27.5424
 20
2.3918
 30
0.0
 10
-27.5424
 20
1.5856
 30
0.0
 10
-27.5424
 20
1.5856
 30
0.0
 10
-27.5424
 20
1.5856
 30
0.0
 10
-27.5424
 20
1.5856
 30
0.0
 10
-26.9996
 20
1.4765
 30
0.0
 10
-26.9996
 20
1.4765
 30
0.0
 10
-26.9996
 20
1.4765
 30
0.0
 10
-27.0843
 20
1.5978
 30
0.0
 10
-27.1266
 20
1.7253
 30
0.0
 10
-27.1266
 20
1.8584
 30
0.0
 10
-27.1266
 20
1.8584
 30
0.0
 10
-27.1266
 20
2.0348
 30
0.0
 10
-27.0655
 20
2.1834
 30
0.0
 10
-26.9432
 20
2.3048
 30
0.0
 10
-26.9432
 20
2.3048
 30
0.0
 10
-26.8209
 20
2.4261
 30
0.0
 10
-26.6638
 20
2.4868
 30
0.0
 10
-26.4719
 20
2.4868
 30
0.0
 10
-26.4719
 20
2.4868
 30
0.0
 10
-26.2889
 20
2.4868
 30
0.0
 10
-26.1308
 20
2.4332
 30
0.0
 10
-25.9977
 20
2.3269
 30
0.0
 10
-25.9977
 20
2.3269
 30
0.0
 10
-25.8345
 20
2.1971
 30
0.0
 10
-25.7527
 20
2.0202
 30
0.0
 10
-25.7527
 20
1.7963
 30
0.0
 10
-25.7527
 20
1.7963
 30
0.0
 10
-25.7527
 20
1.6124
 30
0.0
 10
-25.8039
 20
1.4624
 30
0.0
 10
-25.9069
 20
1.3462
 30
0.0
 10
-25.9069
 20
1.3462
 30
0.0
 10
-26.01
 20
1.23
 30
0.0
 10
-26.1464
 20
1.1637
 30
0.0
 10
-26.3162
 20
1.1472
 30
0.0
  0
SPLINE
  5
63
330
1F
100
AcDbEntity
  8
DEFAULT_1
 62
   250
100
AcDbSpline
210
0.0
220
0.0
230
1.0
 70
    11
 71
     3
 72
    20
 73
    16
 74
     0
 42
0.0000000001
 43
0.0000000001
 40
0.0
 40
0.0
 40
0.0
 40
0.0
 40
0.2
 40
0.2
 40
0.2
 40
0.2
 40
0.4
 40
0.4
 40
0.4
 40
0.4
 40
0.6
 40
0.6
 40
0.6
 40
0.6
 40
1.0
 40
1.0
 40
1.0
 40
1.0
 10
-26.3933
 20
3.4732
 30
0.0
 10
-26.3933
 20
3.4732
 30
0.0
 10
-26.6426
 20
3.4732
 30
0.0
 10
-26.6426
 20
3.4732
 30
0.0
 10
-26.6426
 20
3.4732
 30
0.0
 10
-26.6426
 20
3.4732
 30
0.0
 10
-26.6426
 20
4.2356
 30
0.0
 10
-26.6426
 20
4.2356
 30
0.0
 10
-26.6426
 20
4.2356
 30
0.0
 10
-26.6426
 20
4.2356
 30
0.0
 10
-26.3933
 20
4.2356
 30
0.0
 10
-26.3933
 20
4.2356
 30
0.0
 10
-26.3933
 20
4.2356
 30
0.0
 10
-26.3933
 20
4.2356
 30
0.0
 10
-26.3933
 20
3.4732
 30
0.0
 10
-26.3933
 20
3.4732
 30
0.0
  0
SPLINE
  5
64
330
1F
100
AcDbEntity
  8
DEFAULT_1
 62
   250
100
AcDbSpline
210
0.0
220
0.0
230
1.0
 70
    11
 71
     3
 72
    40
 73
    36
 74
     0
 42
0.0000000001
 43
0.0000000001
 40
0.0
 40
0.0
 40
0.0
 40
0.0
 40
0.1
 40
0.1
 40
0.1
 40
0.1
 40
0.2
 40
0.2
 40
0.2
 40
0.2
 40
0.3
 40
0.3
 40
0.3
 40
0.3
 40
0.4
 40
0.4
 40
0.4
 40
0.4
 40
0.5
 40
0.5
 40
0.5
 40
0.5
 40
0.6
 40
0.6
 40
0.6
 40
0.6
 40
0.7
 40
0.7
 40
0.7
 40
0.7
 40
0.8
 40
0.8
 40
0.8
 40
0.8
 40
1.0
 40
1.0
 40
1.0
 40
1.0
 10
-25.787
 20
6.159
 30
0.0
 10
-25.787
 20
6.159
 30
0.0
 10
-25.787
 20
5.9111
 30
0.0
 10
-25.787
 20
5.9111
 30
0.0
 10
-25.787
 20
5.9111
 30
0.0
 10
-25.787
 20
5.9111
 30
0.0
 10
-27.3674
 20
5.9111
 30
0.0
 10
-27.3674
 20
5.9111
 30
0.0
 10
-27.3674
 20
5.9111
 30
0.0
 10
-27.3105
 20
5.8513
 30
0.0
 10
-27.2536
 20
5.7733
 30
0.0
 10
-27.1967
 20
5.6764
 30
0.0
 10
-27.1967
 20
5.6764
 30
0.0
 10
-27.1398
 20
5.579
 30
0.0
 10
-27.097
 20
5.492
 30
0.0
 10
-27.0687
 20
5.4148
 30
0.0
 10
-27.0687
 20
5.4148
 30
0.0
 10
-27.0687
 20
5.4148
 30
0.0
 10
-27.3082
 20
5.4148
 30
0.0
 10
-27.3082
 20
5.4148
 30
0.0
 10
-27.3082
 20
5.4148
 30
0.0
 10
-27.3735
 20
5.5536
 30
0.0
 10
-27.4526
 20
5.675
 30
0.0
 10
-27.5452
 20
5.7789
 30
0.0
 10
-27.5452
 20
5.7789
 30
0.0
 10
-27.6384
 20
5.8824
 30
0.0
 10
-27.7282
 20
5.9562
 30
0.0
 10
-27.8157
 20
5.9995
 30
0.0
 10
-27.8157
 20
5.9995
 30
0.0
 10
-27.8157
 20
5.9995
 30
0.0
 10
-27.8157
 20
6.159
 30
0.0
 10
-27.8157
 20
6.159
 30
0.0
 10
-27.8157
 20
6.159
 30
0.0
 10
-27.8157
 20
6.159
 30
0.0
 10
-25.787
 20
6.159
 30
0.0
 10
-25.787
 20
6.159
 30
0.0
  0
SPLINE
  5
65
330
1F
100
AcDbEntity
  8
DEFAULT_1
 62
   250
100
AcDbSpline
210
0.0
220
0.0
230
1.0
 70
    11
 71
     3
 72
    92
 73
    88
 74
     0
 42
0.0000000001
 43
0.0000000001
 40
0.0
 40
0.0
 40
0.0
 40
0.0
 40
0.0434782608695652
 40
0.0434782608695652
 40
0.0434782608695652
 40
0.0434782608695652
 40
0.0869565217391304
 40
0.0869565217391304
 40
0.0869565217391304
 40
0.0869565217391304
 40
0.1304347826086956
 40
0.1304347826086956
 40
0.1304347826086956
 40
0.1304347826086956
 40
0.1739130434782609
 40
0.1739130434782609
 40
0.1739130434782609
 40
0.1739130434782609
 40
0.2173913043478261
 40
0.2173913043478261
 40
0.2173913043478261
 40
0.2173913043478261
 40
0.2608695652173913
 40
0.2608695652173913
 40
0.2608695652173913
 40
0.2608695652173913
 40
0.3043478260869565
 40
0.3043478260869565
 40
0.3043478260869565
 40
0.3043478260869565
 40
0.3478260869565217
 40
0.3478260869565217
 40
0.3478260869565217
 40
0.3478260869565217
 40
0.391304347826087
 40
0.391304347826087
 40
0.391304347826087
 40
0.391304347826087
 40
0.4347826086956522
 40
0.4347826086956522
 40
0.4347826086956522
 40
0.4347826086956522
 40
0.4782608695652174
 40
0.4782608695652174
 40
0.4782608695652174
 40
0.4782608695652174
 40
0.5217391304347826
 40
0.5217391304347826
 40
0.5217391304347826
 40
0.5217391304347826
 40
0.5652173913043478
 40
0.5652173913043478
 40
0.5652173913043478
 40
0.5652173913043478
 40
0.6086956521739131
 40
0.6086956521739131
 40
0.6086956521739131
 40
0.6086956521739131
 40
0.6521739130434783
 40
0.6521739130434783
 40
0.6521739130434783
 40
0.6521739130434783
 40
0.6956521739130435
 40
0.6956521739130435
 40
0.6956521739130435
 40
0.6956521739130435
 40
0.7391304347826086
 40
0.7391304347826086
 40
0.7391304347826086
 40
0.7391304347826086
 40
0.782608695652174
 40
0.782608695652174
 40
0.782608695652174
 40
0.782608695652174
 40
0.8260869565217391
 40
0.8260869565217391
 40
0.8260869565217391
 40
0.8260869565217391
 40
0.8695652173913043
 40
0.8695652173913043
 40
0.8695652173913043
 40
0.8695652173913043
 40
0.9130434782608695
 40
0.9130434782608695
 40
0.9130434782608695
 40
0.9130434782608695
 40
1.0
 40
1.0
 40
1.0
 40
1.0
 10
-26.2541
 20
6.8316
 30
0.0
 10
-26.2541
 20
6.8316
 30
0.0
 10
-26.2762
 20
7.0701
 30
0.0
 10
-26.2762
 20
7.0701
 30
0.0
 10
-26.2762
 20
7.0701
 30
0.0
 10
-26.1642
 20
7.0903
 30
0.0
 10
-26.0829
 20
7.1289
 30
0.0
 10
-26.0321
 20
7.1858
 30
0.0
 10
-26.0321
 20
7.1858
 30
0.0
 10
-25.9817
 20
7.2427
 30
0.0
 10
-25.9563
 20
7.3156
 30
0.0
 10
-25.9563
 20
7.405
 30
0.0
 10
-25.9563
 20
7.405
 30
0.0
 10
-25.9563
 20
7.4812
 30
0.0
 10
-25.9737
 20
7.5479
 30
0.0
 10
-26.009
 20
7.6053
 30
0.0
 10
-26.009
 20
7.6053
 30
0.0
 10
-26.0438
 20
7.6627
 30
0.0
 10
-26.0904
 20
7.7098
 30
0.0
 10
-26.1487
 20
7.7464
 30
0.0
 10
-26.1487
 20
7.7464
 30
0.0
 10
-26.207
 20
7.7836
 30
0.0
 10
-26.2861
 20
7.8142
 30
0.0
 10
-26.3848
 20
7.8391
 30
0.0
 10
-26.3848
 20
7.8391
 30
0.0
 10
-26.4841
 20
7.8636
 30
0.0
 10
-26.5852
 20
7.8763
 30
0.0
 10
-26.6882
 20
7.8763
 30
0.0
 10
-26.6882
 20
7.8763
 30
0.0
 10
-26.699
 20
7.8763
 30
0.0
 10
-26.716
 20
7.8758
 30
0.0
 10
-26.7376
 20
7.8749
 30
0.0
 10
-26.7376
 20
7.8749
 30
0.0
 10
-26.6591
 20
7.825
 30
0.0
 10
-26.5946
 20
7.7573
 30
0.0
 10
-26.5457
 20
7.6717
 30
0.0
 10
-26.5457
 20
7.6717
 30
0.0
 10
-26.4963
 20
7.5856
 30
0.0
 10
-26.4719
 20
7.4924
 30
0.0
 10
-26.4719
 20
7.3927
 30
0.0
 10
-26.4719
 20
7.3927
 30
0.0
 10
-26.4719
 20
7.2253
 30
0.0
 10
-26.5325
 20
7.0837
 30
0.0
 10
-26.6539
 20
6.968
 30
0.0
 10
-26.6539
 20
6.968
 30
0.0
 10
-26.7752
 20
6.8523
 30
0.0
 10
-26.9347
 20
6.7944
 30
0.0
 10
-27.1332
 20
6.7944
 30
0.0
 10
-27.1332
 20
6.7944
 30
0.0
 10
-27.3383
 20
6.7944
 30
0.0
 10
-27.5029
 20
6.8546
 30
0.0
 10
-27.628
 20
6.9755
 30
0.0
 10
-27.628
 20
6.9755
 30
0.0
 10
-27.7531
 20
7.0964
 30
0.0
 10
-27.8157
 20
7.2479
 30
0.0
 10
-27.8157
 20
7.4299
 30
0.0
 10
-27.8157
 20
7.4299
 30
0.0
 10
-27.8157
 20
7.5611
 30
0.0
 10
-27.7799
 20
7.6811
 30
0.0
 10
-27.7094
 20
7.7902
 30
0.0
 10
-27.7094
 20
7.7902
 30
0.0
 10
-27.6388
 20
7.8988
 30
0.0
 10
-27.5377
 20
7.9816
 30
0.0
 10
-27.4069
 20
8.0381
 30
0.0
 10
-27.4069
 20
8.0381
 30
0.0
 10
-27.2762
 20
8.0945
 30
0.0
 10
-27.0866
 20
8.1227
 30
0.0
 10
-26.8383
 20
8.1227
 30
0.0
 10
-26.8383
 20
8.1227
 30
0.0
 10
-26.5805
 20
8.1227
 30
0.0
 10
-26.375
 20
8.095
 30
0.0
 10
-26.2216
 20
8.039
 30
0.0
 10
-26.2216
 20
8.039
 30
0.0
 10
-26.0687
 20
7.9826
 30
0.0
 10
-25.9526
 20
7.8993
 30
0.0
 10
-25.8726
 20
7.7888
 30
0.0
 10
-25.8726
 20
7.7888
 30
0.0
 10
-25.7926
 20
7.6778
 30
0.0
 10
-25.7527
 20
7.5484
 30
0.0
 10
-25.7527
 20
7.3993
 30
0.0
 10
-25.7527
 20
7.3993
 30
0.0
 10
-25.7527
 20
7.2413
 30
0.0
 10
-25.7964
 20
7.1124
 30
0.0
 10
-25.8844
 20
7.0122
 30
0.0
 10
-25.8844
 20
7.0122
 30
0.0
 10
-25.9719
 20
6.912
 30
0.0
 10
-26.0951
 20
6.8518
 30
0.0
 10
-26.2541
 20
6.8316
 30
0.0
  0
SPLINE
  5
66
330
1F
100
AcDbEntity
  8
DEFAULT_1
 62
   250
100
AcDbSpline
210
0.0
220
0.0
230
1.0
 70
    11
 71
     3
 72
    36
 73
    32
 74
     0
 42
0.0000000001
 43
0.0000000001
 40
0.0
 40
0.0
 40
0.0
 40
0.0
 40
0.1111111111111111
 40
0.1111111111111111
 40
0.1111111111111111
 40
0.1111111111111111
 40
0.2222222222222222
 40
0.2222222222222222
 40
0.2222222222222222
 40
0.2222222222222222
 40
0.3333333333333333
 40
0.3333333333333333
 40
0.3333333333333333
 40
0.3333333333333333
 40
0.4444444444444444
 40
0.4444444444444444
 40
0.4444444444444444
 40
0.4444444444444444
 40
0.5555555555555556
 40
0.5555555555555556
 40
0.5555555555555556
 40
0.5555555555555556
 40
0.6666666666666666
 40
0.6666666666666666
 40
0.6666666666666666
 40
0.6666666666666666
 40
0.7777777777777778
 40
0.7777777777777778
 40
0.7777777777777778
 40
0.7777777777777778
 40
1.0
 40
1.0
 40
1.0
 40
1.0
 10
-27.1459
 20
7.8471
 30
0.0
 10
-27.2879
 20
7.8471
 30
0.0
 10
-27.4013
 20
7.8095
 30
0.0
 10
-27.4846
 20
7.7337
 30
0.0
 10
-27.4846
 20
7.7337
 30
0.0
 10
-27.5683
 20
7.6575
 30
0.0
 10
-27.6101
 20
7.5668
 30
0.0
 10
-27.6101
 20
7.46
 30
0.0
 10
-27.6101
 20
7.46
 30
0.0
 10
-27.6101
 20
7.3499
 30
0.0
 10
-27.565
 20
7.254
 30
0.0
 10
-27.4751
 20
7.1721
 30
0.0
 10
-27.4751
 20
7.1721
 30
0.0
 10
-27.3848
 20
7.0903
 30
0.0
 10
-27.2682
 20
7.0494
 30
0.0
 10
-27.1252
 20
7.0494
 30
0.0
 10
-27.1252
 20
7.0494
 30
0.0
 10
-26.9963
 20
7.0494
 30
0.0
 10
-26.8919
 20
7.0884
 30
0.0
 10
-26.8115
 20
7.166
 30
0.0
 10
-26.8115
 20
7.166
 30
0.0
 10
-26.731
 20
7.2436
 30
0.0
 10
-26.691
 20
7.3391
 30
0.0
 10
-26.691
 20
7.4529
 30
0.0
 10
-26.691
 20
7.4529
 30
0.0
 10
-26.691
 20
7.5682
 30
0.0
 10
-26.731
 20
7.6622
 30
0.0
 10
-26.8115
 20
7.7361
 30
0.0
 10
-26.8115
 20
7.7361
 30
0.0
 10
-26.8919
 20
7.8104
 30
0.0
 10
-27.0034
 20
7.8471
 30
0.0
 10
-27.1459
 20
7.8471
 30
0.0
  0
SPLINE
  5
67
330
1F
100
AcDbEntity
  8
DEFAULT_1
 62
   250
100
AcDbSpline
210
0.0
220
0.0
230
1.0
 70
    11
 71
     3
 72
    92
 73
    88
 74
     0
 42
0.0000000001
 43
0.0000000001
 40
0.0
 40
0.0
 40
0.0
 40
0.0
 40
0.0434782608695652
 40
0.0434782608695652
 40
0.0434782608695652
 40
0.0434782608695652
 40
0.0869565217391304
 40
0.0869565217391304
 40
0.0869565217391304
 40
0.0869565217391304
 40
0.1304347826086956
 40
0.1304347826086956
 40
0.1304347826086956
 40
0.1304347826086956
 40
0.1739130434782609
 40
0.1739130434782609
 40
0.1739130434782609
 40
0.1739130434782609
 40
0.2173913043478261
 40
0.2173913043478261
 40
0.2173913043478261
 40
0.2173913043478261
 40
0.2608695652173913
 40
0.2608695652173913
 40
0.2608695652173913
 40
0.2608695652173913
 40
0.3043478260869565
 40
0.3043478260869565
 40
0.3043478260869565
 40
0.3043478260869565
 40
0.3478260869565217
 40
0.3478260869565217
 40
0.3478260869565217
 40
0.3478260869565217
 40
0.391304347826087
 40
0.391304347826087
 40
0.391304347826087
 40
0.391304347826087
 40
0.4347826086956522
 40
0.4347826086956522
 40
0.4347826086956522
 40
0.4347826086956522
 40
0.4782608695652174
 40
0.4782608695652174
 40
0.4782608695652174
 40
0.4782608695652174
 40
0.5217391304347826
 40
0.5217391304347826
 40
0.5217391304347826
 40
0.5217391304347826
 40
0.5652173913043478
 40
0.5652173913043478
 40
0.5652173913043478
 40
0.5652173913043478
 40
0.6086956521739131
 40
0.6086956521739131
 40
0.6086956521739131
 40
0.6086956521739131
 40
0.6521739130434783
 40
0.6521739130434783
 40
0.6521739130434783
 40
0.6521739130434783
 40
0.6956521739130435
 40
0.6956521739130435
 40
0.6956521739130435
 40
0.6956521739130435
 40
0.7391304347826086
 40
0.7391304347826086
 40
0.7391304347826086
 40
0.7391304347826086
 40
0.782608695652174
 40
0.782608695652174
 40
0.782608695652174
 40
0.782608695652174
 40
0.8260869565217391
 40
0.8260869565217391
 40
0.8260869565217391
 40
0.8260869565217391
 40
0.8695652173913043
 40
0.8695652173913043
 40
0.8695652173913043
 40
0.8695652173913043
 40
0.9130434782608695
 40
0.9130434782608695
 40
0.9130434782608695
 40
0.9130434782608695
 40
1.0
 40
1.0
 40
1.0
 40
1.0
 10
-26.3162
 20
8.364
 30
0.0
 10
-26.3162
 20
8.364
 30
0.0
 10
-26.3383
 20
8.6246
 30
0.0
 10
-26.3383
 20
8.6246
 30
0.0
 10
-26.3383
 20
8.6246
 30
0.0
 10
-26.2113
 20
8.6439
 30
0.0
 10
-26.1163
 20
8.6886
 30
0.0
 10
-26.0523
 20
8.7587
 30
0.0
 10
-26.0523
 20
8.7587
 30
0.0
 10
-25.9883
 20
8.8292
 30
0.0
 10
-25.9563
 20
8.9139
 30
0.0
 10
-25.9563
 20
9.0131
 30
0.0
 10
-25.9563
 20
9.0131
 30
0.0
 10
-25.9563
 20
9.1326
 30
0.0
 10
-26.0015
 20
9.2337
 30
0.0
 10
-26.0913
 20
9.316
 30
0.0
 10
-26.0913
 20
9.316
 30
0.0
 10
-26.1816
 20
9.3988
 30
0.0
 10
-26.3011
 20
9.4402
 30
0.0
 10
-26.4497
 20
9.4402
 30
0.0
 10
-26.4497
 20
9.4402
 30
0.0
 10
-26.5913
 20
9.4402
 30
0.0
 10
-26.7028
 20
9.4007
 30
0.0
 10
-26.7846
 20
9.3212
 30
0.0
 10
-26.7846
 20
9.3212
 30
0.0
 10
-26.8665
 20
9.2417
 30
0.0
 10
-26.9074
 20
9.1378
 30
0.0
 10
-26.9074
 20
9.0089
 30
0.0
 10
-26.9074
 20
9.0089
 30
0.0
 10
-26.9074
 20
8.9289
 30
0.0
 10
-26.8891
 20
8.857
 30
0.0
 10
-26.8529
 20
8.7925
 30
0.0
 10
-26.8529
 20
8.7925
 30
0.0
 10
-26.8166
 20
8.7281
 30
0.0
 10
-26.7696
 20
8.6778
 30
0.0
 10
-26.7117
 20
8.6411
 30
0.0
 10
-26.7117
 20
8.6411
 30
0.0
 10
-26.7117
 20
8.6411
 30
0.0
 10
-26.7418
 20
8.4082
 30
0.0
 10
-26.7418
 20
8.4082
 30
0.0
 10
-26.7418
 20
8.4082
 30
0.0
 10
-26.7418
 20
8.4082
 30
0.0
 10
-27.7795
 20
8.6039
 30
0.0
 10
-27.7795
 20
8.6039
 30
0.0
 10
-27.7795
 20
8.6039
 30
0.0
 10
-27.7795
 20
8.6039
 30
0.0
 10
-27.7795
 20
9.6086
 30
0.0
 10
-27.7795
 20
9.6086
 30
0.0
 10
-27.7795
 20
9.6086
 30
0.0
 10
-27.7795
 20
9.6086
 30
0.0
 10
-27.5424
 20
9.6086
 30
0.0
 10
-27.5424
 20
9.6086
 30
0.0
 10
-27.5424
 20
9.6086
 30
0.0
 10
-27.5424
 20
9.6086
 30
0.0
 10
-27.5424
 20
8.8024
 30
0.0
 10
-27.5424
 20
8.8024
 30
0.0
 10
-27.5424
 20
8.8024
 30
0.0
 10
-27.5424
 20
8.8024
 30
0.0
 10
-26.9996
 20
8.6933
 30
0.0
 10
-26.9996
 20
8.6933
 30
0.0
 10
-26.9996
 20
8.6933
 30
0.0
 10
-27.0843
 20
8.8146
 30
0.0
 10
-27.1266
 20
8.9421
 30
0.0
 10
-27.1266
 20
9.0752
 30
0.0
 10
-27.1266
 20
9.0752
 30
0.0
 10
-27.1266
 20
9.2516
 30
0.0
 10
-27.0655
 20
9.4002
 30
0.0
 10
-26.9432
 20
9.5216
 30
0.0
 10
-26.9432
 20
9.5216
 30
0.0
 10
-26.8209
 20
9.6429
 30
0.0
 10
-26.6638
 20
9.7036
 30
0.0
 10
-26.4719
 20
9.7036
 30
0.0
 10
-26.4719
 20
9.7036
 30
0.0
 10
-26.2889
 20
9.7036
 30
0.0
 10
-26.1308
 20
9.65
 30
0.0
 10
-25.9977
 20
9.5437
 30
0.0
 10
-25.9977
 20
9.5437
 30
0.0
 10
-25.8345
 20
9.4139
 30
0.0
 10
-25.7527
 20
9.237
 30
0.0
 10
-25.7527
 20
9.0131
 30
0.0
 10
-25.7527
 20
9.0131
 30
0.0
 10
-25.7527
 20
8.8292
 30
0.0
 10
-25.8039
 20
8.6792
 30
0.0
 10
-25.9069
 20
8.563
 30
0.0
 10
-25.9069
 20
8.563
 30
0.0
 10
-26.01
 20
8.4468
 30
0.0
 10
-26.1464
 20
8.3805
 30
0.0
 10
-26.3162
 20
8.364
 30
0.0
  0
SPLINE
  5
68
330
1F
100
AcDbEntity
  8
DEFAULT_1
 62
   250
100
AcDbSpline
210
0.0
220
0.0
230
1.0
 70
    11
 71
     3
 72
   164
 73
   160
 74
     0
 42
0.0000000001
 43
0.0000000001
 40
0.0
 40
0.0
 40
0.0
 40
0.0
 40
0.024390243902439
 40
0.024390243902439
 40
0.024390243902439
 40
0.024390243902439
 40
0.0487804878048781
 40
0.0487804878048781
 40
0.0487804878048781
 40
0.0487804878048781
 40
0.0731707317073171
 40
0.0731707317073171
 40
0.0731707317073171
 40
0.0731707317073171
 40
0.0975609756097561
 40
0.0975609756097561
 40
0.0975609756097561
 40
0.0975609756097561
 40
0.1219512195121951
 40
0.1219512195121951
 40
0.1219512195121951
 40
0.1219512195121951
 40
0.1463414634146341
 40
0.1463414634146341
 40
0.1463414634146341
 40
0.1463414634146341
 40
0.1707317073170732
 40
0.1707317073170732
 40
0.1707317073170732
 40
0.1707317073170732
 40
0.1951219512195122
 40
0.1951219512195122
 40
0.1951219512195122
 40
0.1951219512195122
 40
0.2195121951219512
 40
0.2195121951219512
 40
0.2195121951219512
 40
0.2195121951219512
 40
0.2439024390243902
 40
0.2439024390243902
 40
0.2439024390243902
 40
0.2439024390243902
 40
0.2682926829268293
 40
0.2682926829268293
 40
0.2682926829268293
 40
0.2682926829268293
 40
0.2926829268292683
 40
0.2926829268292683
 40
0.2926829268292683
 40
0.2926829268292683
 40
0.3170731707317073
 40
0.3170731707317073
 40
0.3170731707317073
 40
0.3170731707317073
 40
0.3414634146341464
 40
0.3414634146341464
 40
0.3414634146341464
 40
0.3414634146341464
 40
0.3658536585365854
 40
0.3658536585365854
 40
0.3658536585365854
 40
0.3658536585365854
 40
0.3902439024390244
 40
0.3902439024390244
 40
0.3902439024390244
 40
0.3902439024390244
 40
0.4146341463414634
 40
0.4146341463414634
 40
0.4146341463414634
 40
0.4146341463414634
 40
0.4390243902439024
 40
0.4390243902439024
 40
0.4390243902439024
 40
0.4390243902439024
 40
0.4634146341463415
 40
0.4634146341463415
 40
0.4634146341463415
 40
0.4634146341463415
 40
0.4878048780487805
 40
0.4878048780487805
 40
0.4878048780487805
 40
0.4878048780487805
 40
0.5121951219512195
 40
0.5121951219512195
 40
0.5121951219512195
 40
0.5121951219512195
 40
0.5365853658536586
 40
0.5365853658536586
 40
0.5365853658536586
 40
0.5365853658536586
 40
0.5609756097560976
 40
0.5609756097560976
 40
0.5609756097560976
 40
0.5609756097560976
 40
0.5853658536585366
 40
0.5853658536585366
 40
0.5853658536585366
 40
0.5853658536585366
 40
0.6097560975609756
 40
0.6097560975609756
 40
0.6097560975609756
 40
0.6097560975609756
 40
0.6341463414634146
 40
0.6341463414634146
 40
0.6341463414634146
 40
0.6341463414634146
 40
0.6585365853658537
 40
0.6585365853658537
 40
0.6585365853658537
 40
0.6585365853658537
 40
0.6829268292682927
 40
0.6829268292682927
 40
0.6829268292682927
 40
0.6829268292682927
 40
0.7073170731707317
 40
0.7073170731707317
 40
0.7073170731707317
 40
0.7073170731707317
 40
0.7317073170731707
 40
0.7317073170731707
 40
0.7317073170731707
 40
0.7317073170731707
 40
0.7560975609756098
 40
0.7560975609756098
 40
0.7560975609756098
 40
0.7560975609756098
 40
0.7804878048780488
 40
0.7804878048780488
 40
0.7804878048780488
 40
0.7804878048780488
 40
0.8048780487804879
 40
0.8048780487804879
 40
0.8048780487804879
 40
0.8048780487804879
 40
0.8292682926829268
 40
0.8292682926829268
 40
0.8292682926829268
 40
0.8292682926829268
 40
0.8536585365853658
 40
0.8536585365853658
 40
0.8536585365853658
 40
0.8536585365853658
 40
0.8780487804878049
 40
0.8780487804878049
 40
0.8780487804878049
 40
0.8780487804878049
 40
0.9024390243902439
 40
0.9024390243902439
 40
0.9024390243902439
 40
0.9024390243902439
 40
0.926829268292683
 40
0.926829268292683
 40
0.926829268292683
 40
0.926829268292683
 40
0.9512195121951219
 40
0.9512195121951219
 40
0.9512195121951219
 40
0.9512195121951219
 40
1.0
 40
1.0
 40
1.0
 40
1.0
 10
-15.0404
 20
16.0624
 30
0.0
 10
-15.0404
 20
16.0624
 30
0.0
 10
-12.5976
 20
16.0624
 30
0.0
 10
-12.5976
 20
16.0624
 30
0.0
 10
-12.5976
 20
16.0624
 30
0.0
 10
-12.5976
 20
16.0624
 30
0.0
 10
-12.6098
 20
15.0521
 30
0.0
 10
-12.6098
 20
15.0521
 30
0.0
 10
-12.6098
 20
15.0521
 30
0.0
 10
-12.6098
 20
15.0521
 30
0.0
 10
-12.5409
 20
14.9019
 30
0.0
 10
-12.5409
 20
14.9019
 30
0.0
 10
-12.5409
 20
14.9019
 30
0.0
 10
-12.5409
 20
14.9019
 30
0.0
 10
-12.4119
 20
14.7912
 30
0.0
 10
-12.4119
 20
14.7912
 30
0.0
 10
-12.4119
 20
14.7912
 30
0.0
 10
-12.4119
 20
14.7912
 30
0.0
 10
-12.3171
 20
14.807
 30
0.0
 10
-12.3171
 20
14.807
 30
0.0
 10
-12.3171
 20
14.807
 30
0.0
 10
-12.3171
 20
14.807
 30
0.0
 10
-12.2396
 20
14.8702
 30
0.0
 10
-12.2396
 20
14.8702
 30
0.0
 10
-12.2396
 20
14.8702
 30
0.0
 10
-12.2396
 20
14.8702
 30
0.0
 10
-12.1964
 20
14.973
 30
0.0
 10
-12.1964
 20
14.973
 30
0.0
 10
-12.1964
 20
14.973
 30
0.0
 10
-12.1964
 20
14.973
 30
0.0
 10
-12.1535
 20
15.1155
 30
0.0
 10
-12.1535
 20
15.1155
 30
0.0
 10
-12.1535
 20
15.1155
 30
0.0
 10
-12.1535
 20
15.1155
 30
0.0
 10
-12.1535
 20
16.0564
 30
0.0
 10
-12.1535
 20
16.0564
 30
0.0
 10
-12.1535
 20
16.0564
 30
0.0
 10
-12.1535
 20
16.0564
 30
0.0
 10
-11.1978
 20
16.0643
 30
0.0
 10
-11.1978
 20
16.0643
 30
0.0
 10
-11.1978
 20
16.0643
 30
0.0
 10
-11.1978
 20
16.0643
 30
0.0
 10
-11.215
 20
14.3404
 30
0.0
 10
-11.215
 20
14.3404
 30
0.0
 10
-11.215
 20
14.3404
 30
0.0
 10
-11.215
 20
14.3404
 30
0.0
 10
-11.258
 20
14.2376
 30
0.0
 10
-11.258
 20
14.2376
 30
0.0
 10
-11.258
 20
14.2376
 30
0.0
 10
-11.258
 20
14.2376
 30
0.0
 10
-11.3527
 20
14.1585
 30
0.0
 10
-11.3527
 20
14.1585
 30
0.0
 10
-11.3527
 20
14.1585
 30
0.0
 10
-11.3527
 20
14.1585
 30
0.0
 10
-11.4301
 20
14.1189
 30
0.0
 10
-11.4301
 20
14.1189
 30
0.0
 10
-11.4301
 20
14.1189
 30
0.0
 10
-11.4301
 20
14.1189
 30
0.0
 10
-11.5422
 20
14.0872
 30
0.0
 10
-11.5422
 20
14.0872
 30
0.0
 10
-11.5422
 20
14.0872
 30
0.0
 10
-11.5422
 20
14.0872
 30
0.0
 10
-19.1773
 20
14.0815
 30
0.0
 10
-19.1773
 20
14.0815
 30
0.0
 10
-19.1773
 20
14.0815
 30
0.0
 10
-19.1773
 20
14.0815
 30
0.0
 10
-19.3343
 20
14.1365
 30
0.0
 10
-19.3343
 20
14.1365
 30
0.0
 10
-19.3343
 20
14.1365
 30
0.0
 10
-19.3343
 20
14.1365
 30
0.0
 10
-19.4405
 20
14.22
 30
0.0
 10
-19.4405
 20
14.22
 30
0.0
 10
-19.4405
 20
14.22
 30
0.0
 10
-19.4405
 20
14.22
 30
0.0
 10
-19.471
 20
14.3664
 30
0.0
 10
-19.471
 20
14.3664
 30
0.0
 10
-19.471
 20
14.3664
 30
0.0
 10
-19.471
 20
14.3664
 30
0.0
 10
-19.471
 20
16.0806
 30
0.0
 10
-19.471
 20
16.0806
 30
0.0
 10
-19.471
 20
16.0806
 30
0.0
 10
-19.471
 20
16.0806
 30
0.0
 10
-18.4997
 20
16.0737
 30
0.0
 10
-18.4997
 20
16.0737
 30
0.0
 10
-18.4997
 20
16.0737
 30
0.0
 10
-18.4997
 20
16.0737
 30
0.0
 10
-18.5225
 20
15.0771
 30
0.0
 10
-18.5225
 20
15.0771
 30
0.0
 10
-18.5225
 20
15.0771
 30
0.0
 10
-18.5225
 20
15.0771
 30
0.0
 10
-18.4694
 20
14.889
 30
0.0
 10
-18.4694
 20
14.889
 30
0.0
 10
-18.4694
 20
14.889
 30
0.0
 10
-18.4694
 20
14.889
 30
0.0
 10
-18.4086
 20
14.8055
 30
0.0
 10
-18.4086
 20
14.8055
 30
0.0
 10
-18.4086
 20
14.8055
 30
0.0
 10
-18.4086
 20
14.8055
 30
0.0
 10
-18.3403
 20
14.8055
 30
0.0
 10
-18.3403
 20
14.8055
 30
0.0
 10
-18.3403
 20
14.8055
 30
0.0
 10
-18.3403
 20
14.8055
 30
0.0
 10
-18.2645
 20
14.8055
 30
0.0
 10
-18.2645
 20
14.8055
 30
0.0
 10
-18.2645
 20
14.8055
 30
0.0
 10
-18.2645
 20
14.8055
 30
0.0
 10
-18.1583
 20
14.8821
 30
0.0
 10
-18.1583
 20
14.8821
 30
0.0
 10
-18.1583
 20
14.8821
 30
0.0
 10
-18.1583
 20
14.8821
 30
0.0
 10
-18.09
 20
15.0005
 30
0.0
 10
-18.09
 20
15.0005
 30
0.0
 10
-18.09
 20
15.0005
 30
0.0
 10
-18.09
 20
15.0005
 30
0.0
 10
-18.09
 20
15.0702
 30
0.0
 10
-18.09
 20
15.0702
 30
0.0
 10
-18.09
 20
15.0702
 30
0.0
 10
-18.09
 20
15.0702
 30
0.0
 10
-18.09
 20
16.0597
 30
0.0
 10
-18.09
 20
16.0597
 30
0.0
 10
-18.09
 20
16.0597
 30
0.0
 10
-18.09
 20
16.0597
 30
0.0
 10
-15.6241
 20
16.0597
 30
0.0
 10
-15.6241
 20
16.0597
 30
0.0
 10
-15.6241
 20
16.0597
 30
0.0
 10
-15.6241
 20
16.0597
 30
0.0
 10
-15.6241
 20
15.0911
 30
0.0
 10
-15.6241
 20
15.0911
 30
0.0
 10
-15.6241
 20
15.0911
 30
0.0
 10
-15.6241
 20
15.0911
 30
0.0
 10
-15.5937
 20
14.9587
 30
0.0
 10
-15.5937
 20
14.9587
 30
0.0
 10
-15.5937
 20
14.9587
 30
0.0
 10
-15.5937
 20
14.9587
 30
0.0
 10
-15.5179
 20
14.8612
 30
0.0
 10
-15.5179
 20
14.8612
 30
0.0
 10
-15.5179
 20
14.8612
 30
0.0
 10
-15.5179
 20
14.8612
 30
0.0
 10
-15.3737
 20
14.8193
 30
0.0
 10
-15.3737
 20
14.8193
 30
0.0
 10
-15.3737
 20
14.8193
 30
0.0
 10
-15.3737
 20
14.8193
 30
0.0
 10
-15.2295
 20
14.8402
 30
0.0
 10
-15.2295
 20
14.8402
 30
0.0
 10
-15.2295
 20
14.8402
 30
0.0
 10
-15.2295
 20
14.8402
 30
0.0
 10
-15.1234
 20
14.8821
 30
0.0
 10
-15.1234
 20
14.8821
 30
0.0
 10
-15.1234
 20
14.8821
 30
0.0
 10
-15.1234
 20
14.8821
 30
0.0
 10
-15.0625
 20
14.9448
 30
0.0
 10
-15.0625
 20
14.9448
 30
0.0
 10
-15.0625
 20
14.9448
 30
0.0
 10
-15.0625
 20
14.9448
 30
0.0
 10
-15.0322
 20
15.0076
 30
0.0
 10
-15.0322
 20
15.0076
 30
0.0
 10
-15.0322
 20
15.0076
 30
0.0
 10
-15.0322
 20
15.0076
 30
0.0
 10
-15.0404
 20
16.0624
 30
0.0
 10
-15.0404
 20
16.0624
 30
0.0
  0
SPLINE
  5
69
330
1F
100
AcDbEntity
  8
DEFAULT_1
 62
   250
100
AcDbSpline
210
0.0
220
0.0
230
1.0
 70
    11
 71
     3
 72
    28
 73
    24
 74
     0
 42
0.0000000001
 43
0.0000000001
 40
0.0
 40
0.0
 40
0.0
 40
0.0
 40
0.1428571428571428
 40
0.1428571428571428
 40
0.1428571428571428
 40
0.1428571428571428
 40
0.2857142857142857
 40
0.2857142857142857
 40
0.2857142857142857
 40
0.2857142857142857
 40
0.4285714285714285
 40
0.4285714285714285
 40
0.4285714285714285
 40
0.4285714285714285
 40
0.5714285714285714
 40
0.5714285714285714
 40
0.5714285714285714
 40
0.5714285714285714
 40
0.7142857142857143
 40
0.7142857142857143
 40
0.7142857142857143
 40
0.7142857142857143
 40
1.0
 40
1.0
 40
1.0
 40
1.0
 10
-11.1422
 20
14.7962
 30
0.0
 10
-11.1422
 20
14.7962
 30
0.0
 10
-11.1422
 20
16.4845
 30
0.0
 10
-11.1422
 20
16.4845
 30
0.0
 10
-11.1422
 20
16.4845
 30
0.0
 10
-11.1422
 20
16.4845
 30
0.0
 10
-19.5501
 20
16.4845
 30
0.0
 10
-19.5501
 20
16.4845
 30
0.0
 10
-19.5501
 20
16.4845
 30
0.0
 10
-19.5501
 20
16.4845
 30
0.0
 10
-19.5501
 20
14.7962
 30
0.0
 10
-19.5501
 20
14.7962
 30
0.0
 10
-19.5501
 20
14.7962
 30
0.0
 10
-19.5501
 20
14.7962
 30
0.0
 10
-19.5501
 20
16.4845
 30
0.0
 10
-19.5501
 20
16.4845
 30
0.0
 10
-19.5501
 20
16.4845
 30
0.0
 10
-19.5501
 20
16.4845
 30
0.0
 10
-11.1422
 20
16.4845
 30
0.0
 10
-11.1422
 20
16.4845
 30
0.0
 10
-11.1422
 20
16.4845
 30
0.0
 10
-11.1422
 20
16.4845
 30
0.0
 10
-11.1422
 20
14.7962
 30
0.0
 10
-11.1422
 20
14.7962
 30
0.0
  0
SPLINE
  5
6A
330
1F
100
AcDbEntity
  8
DEFAULT_1
 62
   250
100
AcDbSpline
210
0.0
220
0.0
230
1.0
 70
    11
 71
     3
 72
    20
 73
    16
 74
     0
 42
0.0000000001
 43
0.0000000001
 40
0.0
 40
0.0
 40
0.0
 40
0.0
 40
0.2
 40
0.2
 40
0.2
 40
0.2
 40
0.4
 40
0.4
 40
0.4
 40
0.4
 40
0.6
 40
0.6
 40
0.6
 40
0.6
 40
1.0
 40
1.0
 40
1.0
 40
1.0
 10
-25.586
 20
13.8119
 30
0.0
 10
-25.586
 20
13.8119
 30
0.0
 10
-25.2331
 20
16.3119
 30
0.0
 10
-25.2331
 20
16.3119
 30
0.0
 10
-25.2331
 20
16.3119
 30
0.0
 10
-25.2331
 20
16.3119
 30
0.0
 10
-25.1548
 20
16.3119
 30
0.0
 10
-25.1548
 20
16.3119
 30
0.0
 10
-25.1548
 20
16.3119
 30
0.0
 10
-25.1548
 20
16.3119
 30
0.0
 10
-24.7785
 20
13.8119
 30
0.0
 10
-24.7785
 20
13.8119
 30
0.0
 10
-24.7785
 20
13.8119
 30
0.0
 10
-24.7785
 20
13.8119
 30
0.0
 10
-25.586
 20
13.8119
 30
0.0
 10
-25.586
 20
13.8119
 30
0.0
  0
SPLINE
  5
6B
330
1F
100
AcDbEntity
  8
DEFAULT_1
 62
   250
100
AcDbSpline
210
0.0
220
0.0
230
1.0
 70
    11
 71
     3
 72
    20
 73
    16
 74
     0
 42
0.0000000001
 43
0.0000000001
 40
0.0
 40
0.0
 40
0.0
 40
0.0
 40
0.2
 40
0.2
 40
0.2
 40
0.2
 40
0.4
 40
0.4
 40
0.4
 40
0.4
 40
0.6
 40
0.6
 40
0.6
 40
0.6
 40
1.0
 40
1.0
 40
1.0
 40
1.0
 10
-24.7903
 20
-6.6693
 30
0.0
 10
-24.7903
 20
-6.6693
 30
0.0
 10
-25.1432
 20
-9.1693
 30
0.0
 10
-25.1432
 20
-9.1693
 30
0.0
 10
-25.1432
 20
-9.1693
 30
0.0
 10
-25.1432
 20
-9.1693
 30
0.0
 10
-25.2215
 20
-9.1693
 30
0.0
 10
-25.2215
 20
-9.1693
 30
0.0
 10
-25.2215
 20
-9.1693
 30
0.0
 10
-25.2215
 20
-9.1693
 30
0.0
 10
-25.5978
 20
-6.6693
 30
0.0
 10
-25.5978
 20
-6.6693
 30
0.0
 10
-25.5978
 20
-6.6693
 30
0.0
 10
-25.5978
 20
-6.6693
 30
0.0
 10
-24.7903
 20
-6.6693
 30
0.0
 10
-24.7903
 20
-6.6693
 30
0.0
  0
SPLINE
  5
6C
330
1F
100
AcDbEntity
  8
DEFAULT_1
 62
   250
100
AcDbSpline
210
0.0
220
0.0
230
1.0
 70
    11
 71
     3
 72
    20
 73
    16
 74
     0
 42
0.0000000001
 43
0.0000000001
 40
0.0
 40
0.0
 40
0.0
 40
0.0
 40
0.2
 40
0.2
 40
0.2
 40
0.2
 40
0.4
 40
0.4
 40
0.4
 40
0.4
 40
0.6
 40
0.6
 40
0.6
 40
0.6
 40
1.0
 40
1.0
 40
1.0
 40
1.0
 10
-20.7579
 20
1.2621
 30
0.0
 10
-20.7579
 20
1.2621
 30
0.0
 10
-18.2579
 20
0.9092
 30
0.0
 10
-18.2579
 20
0.9092
 30
0.0
 10
-18.2579
 20
0.9092
 30
0.0
 10
-18.2579
 20
0.9092
 30
0.0
 10
-18.2579
 20
0.8309
 30
0.0
 10
-18.2579
 20
0.8309
 30
0.0
 10
-18.2579
 20
0.8309
 30
0.0
 10
-18.2579
 20
0.8309
 30
0.0
 10
-20.7579
 20
0.4546
 30
0.0
 10
-20.7579
 20
0.4546
 30
0.0
 10
-20.7579
 20
0.4546
 30
0.0
 10
-20.7579
 20
0.4546
 30
0.0
 10
-20.7579
 20
1.2621
 30
0.0
 10
-20.7579
 20
1.2621
 30
0.0
  0
SPLINE
  5
6D
330
1F
100
AcDbEntity
  8
DEFAULT_1
 62
   250
100
AcDbSpline
210
0.0
220
0.0
230
1.0
 70
    11
 71
     3
 72
    20
 73
    16
 74
     0
 42
0.0000000001
 43
0.0000000001
 40
0.0
 40
0.0
 40
0.0
 40
0.0
 40
0.2
 40
0.2
 40
0.2
 40
0.2
 40
0.4
 40
0.4
 40
0.4
 40
0.4
 40
0.6
 40
0.6
 40
0.6
 40
0.6
 40
1.0
 40
1.0
 40
1.0
 40
1.0
 10
-9.9172
 20
0.485
 30
0.0
 10
-9.9172
 20
0.485
 30
0.0
 10
-12.4172
 20
0.8379
 30
0.0
 10
-12.4172
 20
0.8379
 30
0.0
 10
-12.4172
 20
0.8379
 30
0.0
 10
-12.4172
 20
0.8379
 30
0.0
 10
-12.4172
 20
0.9162
 30
0.0
 10
-12.4172
 20
0.9162
 30
0.0
 10
-12.4172
 20
0.9162
 30
0.0
 10
-12.4172
 20
0.9162
 30
0.0
 10
-9.9172
 20
1.2925
 30
0.0
 10
-9.9172
 20
1.2925
 30
0.0
 10
-9.9172
 20
1.2925
 30
0.0
 10
-9.9172
 20
1.2925
 30
0.0
 10
-9.9172
 20
0.485
 30
0.0
 10
-9.9172
 20
0.485
 30
0.0
  0
SPLINE
  5
6E
330
1F
100
AcDbEntity
  8
DEFAULT_1
 62
   250
100
AcDbSpline
210
0.0
220
0.0
230
1.0
 70
    11
 71
     3
 72
    20
 73
    16
 74
     0
 42
0.0000000001
 43
0.0000000001
 40
0.0
 40
0.0
 40
0.0
 40
0.0
 40
0.2
 40
0.2
 40
0.2
 40
0.2
 40
0.4
 40
0.4
 40
0.4
 40
0.4
 40
0.6
 40
0.6
 40
0.6
 40
0.6
 40
1.0
 40
1.0
 40
1.0
 40
1.0
 10
23.8025
 20
21.4018
 30
0.0
 10
23.8025
 20
21.4018
 30
0.0
 10
26.3025
 20
21.0489
 30
0.0
 10
26.3025
 20
21.0489
 30
0.0
 10
26.3025
 20
21.0489
 30
0.0
 10
26.3025
 20
21.0489
 30
0.0
 10
26.3025
 20
20.9706
 30
0.0
 10
26.3025
 20
20.9706
 30
0.0
 10
26.3025
 20
20.9706
 30
0.0
 10
26.3025
 20
20.9706
 30
0.0
 10
23.8025
 20
20.5943
 30
0.0
 10
23.8025
 20
20.5943
 30
0.0
 10
23.8025
 20
20.5943
 30
0.0
 10
23.8025
 20
20.5943
 30
0.0
 10
23.8025
 20
21.4018
 30
0.0
 10
23.8025
 20
21.4018
 30
0.0
  0
SPLINE
  5
6F
330
1F
100
AcDbEntity
  8
DEFAULT_1
 62
   250
100
AcDbSpline
210
0.0
220
0.0
230
1.0
 70
    11
 71
     3
 72
    20
 73
    16
 74
     0
 42
0.0000000001
 43
0.0000000001
 40
0.0
 40
0.0
 40
0.0
 40
0.0
 40
0.2
 40
0.2
 40
0.2
 40
0.2
 40
0.4
 40
0.4
 40
0.4
 40
0.4
 40
0.6
 40
0.6
 40
0.6
 40
0.6
 40
1.0
 40
1.0
 40
1.0
 40
1.0
 10
-21.6338
 20
26.2223
 30
0.0
 10
-21.6338
 20
26.2223
 30
0.0
 10
-19.1338
 20
25.8694
 30
0.0
 10
-19.1338
 20
25.8694
 30
0.0
 10
-19.1338
 20
25.8694
 30
0.0
 10
-19.1338
 20
25.8694
 30
0.0
 10
-19.1338
 20
25.7911
 30
0.0
 10
-19.1338
 20
25.7911
 30
0.0
 10
-19.1338
 20
25.7911
 30
0.0
 10
-19.1338
 20
25.7911
 30
0.0
 10
-21.6338
 20
25.4148
 30
0.0
 10
-21.6338
 20
25.4148
 30
0.0
 10
-21.6338
 20
25.4148
 30
0.0
 10
-21.6338
 20
25.4148
 30
0.0
 10
-21.6338
 20
26.2223
 30
0.0
 10
-21.6338
 20
26.2223
 30
0.0
  0
SPLINE
  5
70
330
1F
100
AcDbEntity
  8
DEFAULT_1
 62
   250
100
AcDbSpline
210
0.0
220
0.0
230
1.0
 70
    11
 71
     3
 72
    20
 73
    16
 74
     0
 42
0.0000000001
 43
0.0000000001
 40
0.0
 40
0.0
 40
0.0
 40
0.0
 40
0.2
 40
0.2
 40
0.2
 40
0.2
 40
0.4
 40
0.4
 40
0.4
 40
0.4
 40
0.6
 40
0.6
 40
0.6
 40
0.6
 40
1.0
 40
1.0
 40
1.0
 40
1.0
 10
-9.1547
 20
25.4496
 30
0.0
 10
-9.1547
 20
25.4496
 30
0.0
 10
-11.6547
 20
25.8025
 30
0.0
 10
-11.6547
 20
25.8025
 30
0.0
 10
-11.6547
 20
25.8025
 30
0.0
 10
-11.6547
 20
25.8025
 30
0.0
 10
-11.6547
 20
25.8808
 30
0.0
 10
-11.6547
 20
25.8808
 30
0.0
 10
-11.6547
 20
25.8808
 30
0.0
 10
-11.6547
 20
25.8808
 30
0.0
 10
-9.1547
 20
26.2571
 30
0.0
 10
-9.1547
 20
26.2571
 30
0.0
 10
-9.1547
 20
26.2571
 30
0.0
 10
-9.1547
 20
26.2571
 30
0.0
 10
-9.1547
 20
25.4496
 30
0.0
 10
-9.1547
 20
25.4496
 30
0.0
  0
SPLINE
  5
71
330
1F
100
AcDbEntity
  8
DEFAULT_1
 62
   250
100
AcDbSpline
210
0.0
220
0.0
230
1.0
 70
    11
 71
     3
 72
    20
 73
    16
 74
     0
 42
0.0000000001
 43
0.0000000001
 40
0.0
 40
0.0
 40
0.0
 40
0.0
 40
0.2
 40
0.2
 40
0.2
 40
0.2
 40
0.4
 40
0.4
 40
0.4
 40
0.4
 40
0.6
 40
0.6
 40
0.6
 40
0.6
 40
1.0
 40
1.0
 40
1.0
 40
1.0
 10
-12.658
 20
20.6042
 30
0.0
 10
-12.658
 20
20.6042
 30
0.0
 10
-15.158
 20
20.9571
 30
0.0
 10
-15.158
 20
20.9571
 30
0.0
 10
-15.158
 20
20.9571
 30
0.0
 10
-15.158
 20
20.9571
 30
0.0
 10
-15.158
 20
21.0354
 30
0.0
 10
-15.158
 20
21.0354
 30
0.0
 10
-15.158
 20
21.0354
 30
0.0
 10
-15.158
 20
21.0354
 30
0.0
 10
-12.658
 20
21.4117
 30
0.0
 10
-12.658
 20
21.4117
 30
0.0
 10
-12.658
 20
21.4117
 30
0.0
 10
-12.658
 20
21.4117
 30
0.0
 10
-12.658
 20
20.6042
 30
0.0
 10
-12.658
 20
20.6042
 30
0.0
  0
SPLINE
  5
72
330
1F
100
AcDbEntity
  8
DEFAULT_1
 62
   250
100
AcDbSpline
210
0.0
220
0.0
230
1.0
 70
    24
 71
     3
 72
     8
 73
     4
 74
     0
 42
0.0000000001
 43
0.0000000001
 40
0.0
 40
0.0
 40
0.0
 40
0.0
 40
1.0
 40
1.0
 40
1.0
 40
1.0
 10
-11.7466
 20
17.0273
 30
0.0
 10
-11.7466
 20
17.0273
 30
0.0
 10
-11.7466
 20
20.1726
 30
0.0
 10
-11.7466
 20
20.1726
 30
0.0
  0
SPLINE
  5
73
330
1F
100
AcDbEntity
  8
DEFAULT_1
  6
NEW_LINE2
 62
   250
100
AcDbSpline
210
0.0
220
0.0
230
1.0
 70
    24
 71
     3
 72
     8
 73
     4
 74
     0
 42
0.0000000001
 43
0.0000000001
 40
0.0
 40
0.0
 40
0.0
 40
0.0
 40
1.0
 40
1.0
 40
1.0
 40
1.0
 10
-2.9068
 20
11.4105
 30
0.0
 10
-2.9068
 20
11.4105
 30
0.0
 10
-0.118
 20
1.0026
 30
0.0
 10
-0.118
 20
1.0026
 30
0.0
  0
SPLINE
  5
75
330
1F
100
AcDbEntity
  8
DEFAULT_1
 62
   250
100
AcDbSpline
210
0.0
220
0.0
230
1.0
 70
     8
 71
     3
 72
   116
 73
   112
 74
     0
 42
0.0000000001
 43
0.0000000001
 40
0.0
 40
0.0
 40
0.0
 40
0.0
 40
0.0344827586206897
 40
0.0344827586206897
 40
0.0344827586206897
 40
0.0344827586206897
 40
0.0689655172413793
 40
0.0689655172413793
 40
0.0689655172413793
 40
0.0689655172413793
 40
0.103448275862069
 40
0.103448275862069
 40
0.103448275862069
 40
0.103448275862069
 40
0.1379310344827586
 40
0.1379310344827586
 40
0.1379310344827586
 40
0.1379310344827586
 40
0.1724137931034483
 40
0.1724137931034483
 40
0.1724137931034483
 40
0.1724137931034483
 40
0.2068965517241379
 40
0.2068965517241379
 40
0.2068965517241379
 40
0.2068965517241379
 40
0.2413793103448276
 40
0.2413793103448276
 40
0.2413793103448276
 40
0.2413793103448276
 40
0.2758620689655172
 40
0.2758620689655172
 40
0.2758620689655172
 40
0.2758620689655172
 40
0.3103448275862069
 40
0.3103448275862069
 40
0.3103448275862069
 40
0.3103448275862069
 40
0.3448275862068966
 40
0.3448275862068966
 40
0.3448275862068966
 40
0.3448275862068966
 40
0.3793103448275862
 40
0.3793103448275862
 40
0.3793103448275862
 40
0.3793103448275862
 40
0.4137931034482759
 40
0.4137931034482759
 40
0.4137931034482759
 40
0.4137931034482759
 40
0.4482758620689655
 40
0.4482758620689655
 40
0.4482758620689655
 40
0.4482758620689655
 40
0.4827586206896552
 40
0.4827586206896552
 40
0.4827586206896552
 40
0.4827586206896552
 40
0.5172413793103449
 40
0.5172413793103449
 40
0.5172413793103449
 40
0.5172413793103449
 40
0.5517241379310345
 40
0.5517241379310345
 40
0.5517241379310345
 40
0.5517241379310345
 40
0.5862068965517241
 40
0.5862068965517241
 40
0.5862068965517241
 40
0.5862068965517241
 40
0.6206896551724138
 40
0.6206896551724138
 40
0.6206896551724138
 40
0.6206896551724138
 40
0.6551724137931034
 40
0.6551724137931034
 40
0.6551724137931034
 40
0.6551724137931034
 40
0.6896551724137931
 40
0.6896551724137931
 40
0.6896551724137931
 40
0.6896551724137931
 40
0.7241379310344828
 40
0.7241379310344828
 40
0.7241379310344828
 40
0.7241379310344828
 40
0.7586206896551724
 40
0.7586206896551724
 40
0.7586206896551724
 40
0.7586206896551724
 40
0.7931034482758621
 40
0.7931034482758621
 40
0.7931034482758621
 40
0.7931034482758621
 40
0.8275862068965517
 40
0.8275862068965517
 40
0.8275862068965517
 40
0.8275862068965517
 40
0.8620689655172413
 40
0.8620689655172413
 40
0.8620689655172413
 40
0.8620689655172413
 40
0.896551724137931
 40
0.896551724137931
 40
0.896551724137931
 40
0.896551724137931
 40
0.9310344827586207
 40
0.9310344827586207
 40
0.9310344827586207
 40
0.9310344827586207
 40
1.0
 40
1.0
 40
1.0
 40
1.0
 10
-8.0203
 20
6.8857
 30
0.0
 10
-8.0203
 20
6.8857
 30
0.0
 10
-12.2693
 20
5.7225
 30
0.0
 10
-12.2693
 20
5.7225
 30
0.0
 10
-12.2693
 20
5.7225
 30
0.0
 10
-12.2693
 20
5.7225
 30
0.0
 10
-12.5014
 20
5.6543
 30
0.0
 10
-12.5014
 20
5.6543
 30
0.0
 10
-12.5014
 20
5.6543
 30
0.0
 10
-12.5014
 20
5.6543
 30
0.0
 10
-12.5017
 20
5.6546
 30
0.0
 10
-12.5017
 20
5.6546
 30
0.0
 10
-12.5017
 20
5.6546
 30
0.0
 10
-12.5017
 20
5.6546
 30
0.0
 10
-13.0632
 20
6.192
 30
0.0
 10
-13.0632
 20
6.192
 30
0.0
 10
-13.0632
 20
6.192
 30
0.0
 10
-13.0632
 20
6.192
 30
0.0
 10
-13.2469
 20
6.3802
 30
0.0
 10
-13.2469
 20
6.3802
 30
0.0
 10
-13.2469
 20
6.3802
 30
0.0
 10
-13.2469
 20
6.3802
 30
0.0
 10
-13.4449
 20
6.6
 30
0.0
 10
-13.4449
 20
6.6
 30
0.0
 10
-13.4449
 20
6.6
 30
0.0
 10
-13.4449
 20
6.6
 30
0.0
 10
-13.6352
 20
6.8402
 30
0.0
 10
-13.6352
 20
6.8402
 30
0.0
 10
-13.6352
 20
6.8402
 30
0.0
 10
-13.6352
 20
6.8402
 30
0.0
 10
-13.7988
 20
7.0941
 30
0.0
 10
-13.7988
 20
7.0941
 30
0.0
 10
-13.7988
 20
7.0941
 30
0.0
 10
-13.7988
 20
7.0941
 30
0.0
 10
-13.9186
 20
7.3589
 30
0.0
 10
-13.9186
 20
7.3589
 30
0.0
 10
-13.9186
 20
7.3589
 30
0.0
 10
-13.9186
 20
7.3589
 30
0.0
 10
-13.9808
 20
7.6214
 30
0.0
 10
-13.9808
 20
7.6214
 30
0.0
 10
-13.9808
 20
7.6214
 30
0.0
 10
-13.9808
 20
7.6214
 30
0.0
 10
-13.9877
 20
7.8851
 30
0.0
 10
-13.9877
 20
7.8851
 30
0.0
 10
-13.9877
 20
7.8851
 30
0.0
 10
-13.9877
 20
7.8851
 30
0.0
 10
-13.9411
 20
8.1689
 30
0.0
 10
-13.9411
 20
8.1689
 30
0.0
 10
-13.9411
 20
8.1689
 30
0.0
 10
-13.9411
 20
8.1689
 30
0.0
 10
-13.8439
 20
8.4705
 30
0.0
 10
-13.8439
 20
8.4705
 30
0.0
 10
-13.8439
 20
8.4705
 30
0.0
 10
-13.8439
 20
8.4705
 30
0.0
 10
-13.7064
 20
8.7821
 30
0.0
 10
-13.7064
 20
8.7821
 30
0.0
 10
-13.7064
 20
8.7821
 30
0.0
 10
-13.7064
 20
8.7821
 30
0.0
 10
-13.5345
 20
9.1086
 30
0.0
 10
-13.5345
 20
9.1086
 30
0.0
 10
-13.5345
 20
9.1086
 30
0.0
 10
-13.5345
 20
9.1086
 30
0.0
 10
-13.3273
 20
9.4608
 30
0.0
 10
-13.3273
 20
9.4608
 30
0.0
 10
-13.3273
 20
9.4608
 30
0.0
 10
-13.3273
 20
9.4608
 30
0.0
 10
-13.0947
 20
9.8287
 30
0.0
 10
-13.0947
 20
9.8287
 30
0.0
 10
-13.0947
 20
9.8287
 30
0.0
 10
-13.0947
 20
9.8287
 30
0.0
 10
-12.8826
 20
10.1494
 30
0.0
 10
-12.8826
 20
10.1494
 30
0.0
 10
-12.8826
 20
10.1494
 30
0.0
 10
-12.8826
 20
10.1494
 30
0.0
 10
-12.7126
 20
10.3996
 30
0.0
 10
-12.7126
 20
10.3996
 30
0.0
 10
-12.7126
 20
10.3996
 30
0.0
 10
-12.7126
 20
10.3996
 30
0.0
 10
-12.592
 20
10.5745
 30
0.0
 10
-12.592
 20
10.5745
 30
0.0
 10
-12.592
 20
10.5745
 30
0.0
 10
-12.592
 20
10.5745
 30
0.0
 10
-12.5224
 20
10.6744
 30
0.0
 10
-12.5224
 20
10.6744
 30
0.0
 10
-12.5224
 20
10.6744
 30
0.0
 10
-12.5224
 20
10.6744
 30
0.0
 10
-12.5017
 20
10.7041
 30
0.0
 10
-12.5017
 20
10.7041
 30
0.0
 10
-12.5017
 20
10.7041
 30
0.0
 10
-12.5017
 20
10.7041
 30
0.0
 10
-9.3119
 20
11.5884
 30
0.0
 10
-9.3119
 20
11.5884
 30
0.0
 10
-9.3119
 20
11.5884
 30
0.0
 10
-9.3119
 20
11.5884
 30
0.0
 10
-9.3989
 20
11.8969
 30
0.0
 10
-9.3989
 20
11.8969
 30
0.0
 10
-9.3989
 20
11.8969
 30
0.0
 10
-9.3989
 20
11.8969
 30
0.0
 10
-9.1751
 20
11.9746
 30
0.0
 10
-9.1751
 20
11.9746
 30
0.0
 10
-9.1751
 20
11.9746
 30
0.0
 10
-9.1751
 20
11.9746
 30
0.0
 10
-9.4011
 20
11.8947
 30
0.0
 10
-9.4011
 20
11.8947
 30
0.0
 10
-9.4011
 20
11.8947
 30
0.0
 10
-9.4011
 20
11.8947
 30
0.0
 10
-7.8994
 20
6.435
 30
0.0
 10
-7.8994
 20
6.435
 30
0.0
 10
-7.8994
 20
6.435
 30
0.0
 10
-7.8994
 20
6.435
 30
0.0
 10
-7.7266
 20
6.5415
 30
0.0
 10
-7.7266
 20
6.5415
 30
0.0
  0
SPLINE
  5
76
330
1F
100
AcDbEntity
  8
DEFAULT_1
 62
   250
100
AcDbSpline
210
0.0
220
0.0
230
1.0
 70
    11
 71
     3
 72
    28
 73
    24
 74
     0
 42
0.0000000001
 43
0.0000000001
 40
0.0
 40
0.0
 40
0.0
 40
0.0
 40
0.1428571428571428
 40
0.1428571428571428
 40
0.1428571428571428
 40
0.1428571428571428
 40
0.2857142857142857
 40
0.2857142857142857
 40
0.2857142857142857
 40
0.2857142857142857
 40
0.4285714285714285
 40
0.4285714285714285
 40
0.4285714285714285
 40
0.4285714285714285
 40
0.5714285714285714
 40
0.5714285714285714
 40
0.5714285714285714
 40
0.5714285714285714
 40
0.7142857142857143
 40
0.7142857142857143
 40
0.7142857142857143
 40
0.7142857142857143
 40
1.0
 40
1.0
 40
1.0
 40
1.0
 10
-17.8804
 20
13.9507
 30
0.0
 10
-17.8804
 20
13.9507
 30
0.0
 10
-17.8804
 20
12.5848
 30
0.0
 10
-17.8804
 20
12.5848
 30
0.0
 10
-17.8804
 20
12.5848
 30
0.0
 10
-17.8804
 20
12.5848
 30
0.0
 10
-17.9657
 20
12.5848
 30
0.0
 10
-17.9657
 20
12.5848
 30
0.0
 10
-17.9657
 20
12.5848
 30
0.0
 10
-17.9657
 20
12.5848
 30
0.0
 10
-17.9657
 20
-0.563
 30
0.0
 10
-17.9657
 20
-0.563
 30
0.0
 10
-17.9657
 20
-0.563
 30
0.0
 10
-17.9657
 20
-0.563
 30
0.0
 10
-17.9657
 20
12.5848
 30
0.0
 10
-17.9657
 20
12.5848
 30
0.0
 10
-17.9657
 20
12.5848
 30
0.0
 10
-17.9657
 20
12.5848
 30
0.0
 10
-17.8804
 20
12.5848
 30
0.0
 10
-17.8804
 20
12.5848
 30
0.0
 10
-17.8804
 20
12.5848
 30
0.0
 10
-17.8804
 20
12.5848
 30
0.0
 10
-17.8804
 20
13.9507
 30
0.0
 10
-17.8804
 20
13.9507
 30
0.0
  0
SPLINE
  5
77
330
1F
100
AcDbEntity
  8
DEFAULT_1
 62
   250
100
AcDbSpline
210
0.0
220
0.0
230
1.0
 70
    27
 71
     3
 72
    20
 73
    16
 74
     0
 42
0.0000000001
 43
0.0000000001
 40
0.0
 40
0.0
 40
0.0
 40
0.0
 40
0.2
 40
0.2
 40
0.2
 40
0.2
 40
0.4
 40
0.4
 40
0.4
 40
0.4
 40
0.6
 40
0.6
 40
0.6
 40
0.6
 40
1.0
 40
1.0
 40
1.0
 40
1.0
 10
-12.5017
 20
5.6661
 30
0.0
 10
-12.5017
 20
5.6661
 30
0.0
 10
-12.5017
 20
5.6546
 30
0.0
 10
-12.5017
 20
5.6546
 30
0.0
 10
-12.5017
 20
5.6546
 30
0.0
 10
-12.5017
 20
5.6546
 30
0.0
 10
-12.5017
 20
-0.563
 30
0.0
 10
-12.5017
 20
-0.563
 30
0.0
 10
-12.5017
 20
-0.563
 30
0.0
 10
-12.5017
 20
-0.563
 30
0.0
 10
-12.5017
 20
5.6546
 30
0.0
 10
-12.5017
 20
5.6546
 30
0.0
 10
-12.5017
 20
5.6546
 30
0.0
 10
-12.5017
 20
5.6546
 30
0.0
 10
-12.5017
 20
5.6661
 30
0.0
 10
-12.5017
 20
5.6661
 30
0.0
  0
SPLINE
  5
78
330
1F
100
AcDbEntity
  8
DEFAULT_1
 62
   250
100
AcDbSpline
210
0.0
220
0.0
230
1.0
 70
    11
 71
     3
 72
    36
 73
    32
 74
     0
 42
0.0000000001
 43
0.0000000001
 40
0.0
 40
0.0
 40
0.0
 40
0.0
 40
0.1111111111111111
 40
0.1111111111111111
 40
0.1111111111111111
 40
0.1111111111111111
 40
0.2222222222222222
 40
0.2222222222222222
 40
0.2222222222222222
 40
0.2222222222222222
 40
0.3333333333333333
 40
0.3333333333333333
 40
0.3333333333333333
 40
0.3333333333333333
 40
0.4444444444444444
 40
0.4444444444444444
 40
0.4444444444444444
 40
0.4444444444444444
 40
0.5555555555555556
 40
0.5555555555555556
 40
0.5555555555555556
 40
0.5555555555555556
 40
0.6666666666666666
 40
0.6666666666666666
 40
0.6666666666666666
 40
0.6666666666666666
 40
0.7777777777777778
 40
0.7777777777777778
 40
0.7777777777777778
 40
0.7777777777777778
 40
1.0
 40
1.0
 40
1.0
 40
1.0
 10
-12.5017
 20
12.5848
 30
0.0
 10
-12.5017
 20
12.5848
 30
0.0
 10
-12.5017
 20
10.7041
 30
0.0
 10
-12.5017
 20
10.7041
 30
0.0
 10
-12.5017
 20
10.7041
 30
0.0
 10
-12.5017
 20
10.7041
 30
0.0
 10
-12.5017
 20
12.5848
 30
0.0
 10
-12.5017
 20
12.5848
 30
0.0
 10
-12.5017
 20
12.5848
 30
0.0
 10
-12.5017
 20
12.5848
 30
0.0
 10
-12.587
 20
12.5848
 30
0.0
 10
-12.587
 20
12.5848
 30
0.0
 10
-12.587
 20
12.5848
 30
0.0
 10
-12.587
 20
12.5848
 30
0.0
 10
-12.587
 20
13.9507
 30
0.0
 10
-12.587
 20
13.9507
 30
0.0
 10
-12.587
 20
13.9507
 30
0.0
 10
-12.587
 20
13.9507
 30
0.0
 10
-12.587
 20
12.5848
 30
0.0
 10
-12.587
 20
12.5848
 30
0.0
 10
-12.587
 20
12.5848
 30
0.0
 10
-12.587
 20
12.5848
 30
0.0
 10
-17.8804
 20
12.5848
 30
0.0
 10
-17.8804
 20
12.5848
 30
0.0
 10
-17.8804
 20
12.5848
 30
0.0
 10
-17.8804
 20
12.5848
 30
0.0
 10
-12.587
 20
12.5848
 30
0.0
 10
-12.587
 20
12.5848
 30
0.0
 10
-12.587
 20
12.5848
 30
0.0
 10
-12.587
 20
12.5848
 30
0.0
 10
-12.5017
 20
12.5848
 30
0.0
 10
-12.5017
 20
12.5848
 30
0.0
  0
SPLINE
  5
79
330
1F
100
AcDbEntity
  8
DEFAULT_1
 62
   250
100
AcDbSpline
210
0.0
220
0.0
230
1.0
 70
    11
 71
     3
 72
    24
 73
    20
 74
     0
 42
0.0000000001
 43
0.0000000001
 40
0.0
 40
0.0
 40
0.0
 40
0.0
 40
0.1666666666666667
 40
0.1666666666666667
 40
0.1666666666666667
 40
0.1666666666666667
 40
0.3333333333333333
 40
0.3333333333333333
 40
0.3333333333333333
 40
0.3333333333333333
 40
0.5
 40
0.5
 40
0.5
 40
0.5
 40
0.6666666666666666
 40
0.6666666666666666
 40
0.6666666666666666
 40
0.6666666666666666
 40
1.0
 40
1.0
 40
1.0
 40
1.0
 10
-1.9738
 20
1.6591
 30
0.0
 10
-1.9738
 20
1.6591
 30
0.0
 10
-2.0403
 20
1.9015
 30
0.0
 10
-2.0403
 20
1.9015
 30
0.0
 10
-2.0403
 20
1.9015
 30
0.0
 10
-2.0403
 20
1.9015
 30
0.0
 10
0.9178
 20
2.7047
 30
0.0
 10
0.9178
 20
2.7047
 30
0.0
 10
0.9178
 20
2.7047
 30
0.0
 10
0.9178
 20
2.7047
 30
0.0
 10
1.0436
 20
2.7389
 30
0.0
 10
1.0436
 20
2.7389
 30
0.0
 10
1.0436
 20
2.7389
 30
0.0
 10
1.0436
 20
2.7389
 30
0.0
 10
1.1144
 20
2.4866
 30
0.0
 10
1.1144
 20
2.4866
 30
0.0
 10
1.1144
 20
2.4866
 30
0.0
 10
1.1144
 20
2.4866
 30
0.0
 10
-1.9738
 20
1.6591
 30
0.0
 10
-1.9738
 20
1.6591
 30
0.0
  0
SPLINE
  5
7A
330
1F
100
AcDbEntity
  8
DEFAULT_1
 62
   250
100
AcDbSpline
210
0.0
220
0.0
230
1.0
 70
    11
 71
     3
 72
   140
 73
   136
 74
     0
 42
0.0000000001
 43
0.0000000001
 40
0.0
 40
0.0
 40
0.0
 40
0.0
 40
0.0285714285714286
 40
0.0285714285714286
 40
0.0285714285714286
 40
0.0285714285714286
 40
0.0571428571428571
 40
0.0571428571428571
 40
0.0571428571428571
 40
0.0571428571428571
 40
0.0857142857142857
 40
0.0857142857142857
 40
0.0857142857142857
 40
0.0857142857142857
 40
0.1142857142857143
 40
0.1142857142857143
 40
0.1142857142857143
 40
0.1142857142857143
 40
0.1428571428571428
 40
0.1428571428571428
 40
0.1428571428571428
 40
0.1428571428571428
 40
0.1714285714285714
 40
0.1714285714285714
 40
0.1714285714285714
 40
0.1714285714285714
 40
0.2
 40
0.2
 40
0.2
 40
0.2
 40
0.2285714285714286
 40
0.2285714285714286
 40
0.2285714285714286
 40
0.2285714285714286
 40
0.2571428571428571
 40
0.2571428571428571
 40
0.2571428571428571
 40
0.2571428571428571
 40
0.2857142857142857
 40
0.2857142857142857
 40
0.2857142857142857
 40
0.2857142857142857
 40
0.3142857142857143
 40
0.3142857142857143
 40
0.3142857142857143
 40
0.3142857142857143
 40
0.3428571428571429
 40
0.3428571428571429
 40
0.3428571428571429
 40
0.3428571428571429
 40
0.3714285714285714
 40
0.3714285714285714
 40
0.3714285714285714
 40
0.3714285714285714
 40
0.4
 40
0.4
 40
0.4
 40
0.4
 40
0.4285714285714285
 40
0.4285714285714285
 40
0.4285714285714285
 40
0.4285714285714285
 40
0.4571428571428571
 40
0.4571428571428571
 40
0.4571428571428571
 40
0.4571428571428571
 40
0.4857142857142857
 40
0.4857142857142857
 40
0.4857142857142857
 40
0.4857142857142857
 40
0.5142857142857142
 40
0.5142857142857142
 40
0.5142857142857142
 40
0.5142857142857142
 40
0.5428571428571428
 40
0.5428571428571428
 40
0.5428571428571428
 40
0.5428571428571428
 40
0.5714285714285714
 40
0.5714285714285714
 40
0.5714285714285714
 40
0.5714285714285714
 40
0.6
 40
0.6
 40
0.6
 40
0.6
 40
0.6285714285714286
 40
0.6285714285714286
 40
0.6285714285714286
 40
0.6285714285714286
 40
0.6571428571428571
 40
0.6571428571428571
 40
0.6571428571428571
 40
0.6571428571428571
 40
0.6857142857142857
 40
0.6857142857142857
 40
0.6857142857142857
 40
0.6857142857142857
 40
0.7142857142857143
 40
0.7142857142857143
 40
0.7142857142857143
 40
0.7142857142857143
 40
0.7428571428571429
 40
0.7428571428571429
 40
0.7428571428571429
 40
0.7428571428571429
 40
0.7714285714285715
 40
0.7714285714285715
 40
0.7714285714285715
 40
0.7714285714285715
 40
0.8
 40
0.8
 40
0.8
 40
0.8
 40
0.8285714285714286
 40
0.8285714285714286
 40
0.8285714285714286
 40
0.8285714285714286
 40
0.8571428571428571
 40
0.8571428571428571
 40
0.8571428571428571
 40
0.8571428571428571
 40
0.8857142857142857
 40
0.8857142857142857
 40
0.8857142857142857
 40
0.8857142857142857
 40
0.9142857142857143
 40
0.9142857142857143
 40
0.9142857142857143
 40
0.9142857142857143
 40
0.9428571428571428
 40
0.9428571428571428
 40
0.9428571428571428
 40
0.9428571428571428
 40
1.0
 40
1.0
 40
1.0
 40
1.0
 10
-3.9154
 20
8.4455
 30
0.0
 10
-3.9154
 20
8.4455
 30
0.0
 10
-3.9038
 20
8.4628
 30
0.0
 10
-3.9038
 20
8.4628
 30
0.0
 10
-3.9038
 20
8.4628
 30
0.0
 10
-3.9038
 20
8.4628
 30
0.0
 10
-3.8684
 20
8.5156
 30
0.0
 10
-3.8684
 20
8.5156
 30
0.0
 10
-3.8684
 20
8.5156
 30
0.0
 10
-3.8684
 20
8.5156
 30
0.0
 10
-3.8122
 20
8.5987
 30
0.0
 10
-3.8122
 20
8.5987
 30
0.0
 10
-3.8122
 20
8.5987
 30
0.0
 10
-3.8122
 20
8.5987
 30
0.0
 10
-3.7397
 20
8.7039
 30
0.0
 10
-3.7397
 20
8.7039
 30
0.0
 10
-3.7397
 20
8.7039
 30
0.0
 10
-3.7397
 20
8.7039
 30
0.0
 10
-3.6586
 20
8.8191
 30
0.0
 10
-3.6586
 20
8.8191
 30
0.0
 10
-3.6586
 20
8.8191
 30
0.0
 10
-3.6586
 20
8.8191
 30
0.0
 10
-3.5756
 20
8.9344
 30
0.0
 10
-3.5756
 20
8.9344
 30
0.0
 10
-3.5756
 20
8.9344
 30
0.0
 10
-3.5756
 20
8.9344
 30
0.0
 10
-3.4947
 20
9.0431
 30
0.0
 10
-3.4947
 20
9.0431
 30
0.0
 10
-3.4947
 20
9.0431
 30
0.0
 10
-3.4947
 20
9.0431
 30
0.0
 10
-3.4174
 20
9.1434
 30
0.0
 10
-3.4174
 20
9.1434
 30
0.0
 10
-3.4174
 20
9.1434
 30
0.0
 10
-3.4174
 20
9.1434
 30
0.0
 10
-3.3445
 20
9.2342
 30
0.0
 10
-3.3445
 20
9.2342
 30
0.0
 10
-3.3445
 20
9.2342
 30
0.0
 10
-3.3445
 20
9.2342
 30
0.0
 10
-3.2759
 20
9.3159
 30
0.0
 10
-3.2759
 20
9.3159
 30
0.0
 10
-3.2759
 20
9.3159
 30
0.0
 10
-3.2759
 20
9.3159
 30
0.0
 10
-3.2106
 20
9.3901
 30
0.0
 10
-3.2106
 20
9.3901
 30
0.0
 10
-3.2106
 20
9.3901
 30
0.0
 10
-3.2106
 20
9.3901
 30
0.0
 10
-3.1478
 20
9.4577
 30
0.0
 10
-3.1478
 20
9.4577
 30
0.0
 10
-3.1478
 20
9.4577
 30
0.0
 10
-3.1478
 20
9.4577
 30
0.0
 10
-3.086
 20
9.5202
 30
0.0
 10
-3.086
 20
9.5202
 30
0.0
 10
-3.086
 20
9.5202
 30
0.0
 10
-3.086
 20
9.5202
 30
0.0
 10
-3.0238
 20
9.579
 30
0.0
 10
-3.0238
 20
9.579
 30
0.0
 10
-3.0238
 20
9.579
 30
0.0
 10
-3.0238
 20
9.579
 30
0.0
 10
-2.9591
 20
9.6354
 30
0.0
 10
-2.9591
 20
9.6354
 30
0.0
 10
-2.9591
 20
9.6354
 30
0.0
 10
-2.9591
 20
9.6354
 30
0.0
 10
-2.8907
 20
9.6894
 30
0.0
 10
-2.8907
 20
9.6894
 30
0.0
 10
-2.8907
 20
9.6894
 30
0.0
 10
-2.8907
 20
9.6894
 30
0.0
 10
-2.8185
 20
9.7399
 30
0.0
 10
-2.8185
 20
9.7399
 30
0.0
 10
-2.8185
 20
9.7399
 30
0.0
 10
-2.8185
 20
9.7399
 30
0.0
 10
-2.7427
 20
9.7853
 30
0.0
 10
-2.7427
 20
9.7853
 30
0.0
 10
-2.7427
 20
9.7853
 30
0.0
 10
-2.7427
 20
9.7853
 30
0.0
 10
-2.2592
 20
10.0383
 30
0.0
 10
-2.2592
 20
10.0383
 30
0.0
 10
-2.2592
 20
10.0383
 30
0.0
 10
-2.2592
 20
10.0383
 30
0.0
 10
-1.6834
 20
10.4303
 30
0.0
 10
-1.6834
 20
10.4303
 30
0.0
 10
-1.6834
 20
10.4303
 30
0.0
 10
-1.6834
 20
10.4303
 30
0.0
 10
-1.3465
 20
10.7242
 30
0.0
 10
-1.3465
 20
10.7242
 30
0.0
 10
-1.3465
 20
10.7242
 30
0.0
 10
-1.3465
 20
10.7242
 30
0.0
 10
-1.1292
 20
10.9747
 30
0.0
 10
-1.1292
 20
10.9747
 30
0.0
 10
-1.1292
 20
10.9747
 30
0.0
 10
-1.1292
 20
10.9747
 30
0.0
 10
-1.069
 20
11.0953
 30
0.0
 10
-1.069
 20
11.0953
 30
0.0
 10
-1.069
 20
11.0953
 30
0.0
 10
-1.069
 20
11.0953
 30
0.0
 10
-1.0531
 20
11.1271
 30
0.0
 10
-1.0531
 20
11.1271
 30
0.0
 10
-1.0531
 20
11.1271
 30
0.0
 10
-1.0531
 20
11.1271
 30
0.0
 10
-1.2487
 20
11.6172
 30
0.0
 10
-1.2487
 20
11.6172
 30
0.0
 10
-1.2487
 20
11.6172
 30
0.0
 10
-1.2487
 20
11.6172
 30
0.0
 10
-1.5639
 20
12.0527
 30
0.0
 10
-1.5639
 20
12.0527
 30
0.0
 10
-1.5639
 20
12.0527
 30
0.0
 10
-1.5639
 20
12.0527
 30
0.0
 10
-1.955
 20
12.3685
 30
0.0
 10
-1.955
 20
12.3685
 30
0.0
 10
-1.955
 20
12.3685
 30
0.0
 10
-1.955
 20
12.3685
 30
0.0
 10
-2.3461
 20
12.5754
 30
0.0
 10
-2.3461
 20
12.5754
 30
0.0
 10
-2.3461
 20
12.5754
 30
0.0
 10
-2.3461
 20
12.5754
 30
0.0
 10
-2.846
 20
12.6843
 30
0.0
 10
-2.846
 20
12.6843
 30
0.0
 10
-2.846
 20
12.6843
 30
0.0
 10
-2.846
 20
12.6843
 30
0.0
 10
-3.1502
 20
12.6733
 30
0.0
 10
-3.1502
 20
12.6733
 30
0.0
 10
-3.1502
 20
12.6733
 30
0.0
 10
-3.1502
 20
12.6733
 30
0.0
 10
-5.8125
 20
11.9655
 30
0.0
 10
-5.8125
 20
11.9655
 30
0.0
 10
-5.8125
 20
11.9655
 30
0.0
 10
-5.8125
 20
11.9655
 30
0.0
 10
-5.7953
 20
11.9032
 30
0.0
 10
-5.7953
 20
11.9032
 30
0.0
 10
-5.7953
 20
11.9032
 30
0.0
 10
-5.7953
 20
11.9032
 30
0.0
 10
-4.7694
 20
8.1872
 30
0.0
 10
-4.7694
 20
8.1872
 30
0.0
 10
-4.7694
 20
8.1872
 30
0.0
 10
-4.7694
 20
8.1872
 30
0.0
 10
-3.9154
 20
8.4455
 30
0.0
 10
-3.9154
 20
8.4455
 30
0.0
  0
SPLINE
  5
7B
330
1F
100
AcDbEntity
  8
DEFAULT_1
 62
   250
100
AcDbSpline
210
0.0
220
0.0
230
1.0
 70
    11
 71
     3
 72
    44
 73
    40
 74
     0
 42
0.0000000001
 43
0.0000000001
 40
0.0
 40
0.0
 40
0.0
 40
0.0
 40
0.0909090909090909
 40
0.0909090909090909
 40
0.0909090909090909
 40
0.0909090909090909
 40
0.1818181818181818
 40
0.1818181818181818
 40
0.1818181818181818
 40
0.1818181818181818
 40
0.2727272727272727
 40
0.2727272727272727
 40
0.2727272727272727
 40
0.2727272727272727
 40
0.3636363636363636
 40
0.3636363636363636
 40
0.3636363636363636
 40
0.3636363636363636
 40
0.4545454545454545
 40
0.4545454545454545
 40
0.4545454545454545
 40
0.4545454545454545
 40
0.5454545454545454
 40
0.5454545454545454
 40
0.5454545454545454
 40
0.5454545454545454
 40
0.6363636363636364
 40
0.6363636363636364
 40
0.6363636363636364
 40
0.6363636363636364
 40
0.7272727272727273
 40
0.7272727272727273
 40
0.7272727272727273
 40
0.7272727272727273
 40
0.8181818181818182
 40
0.8181818181818182
 40
0.8181818181818182
 40
0.8181818181818182
 40
1.0
 40
1.0
 40
1.0
 40
1.0
 10
-3.5874
 20
6.5967
 30
0.0
 10
-3.5874
 20
6.5967
 30
0.0
 10
-3.4164
 20
6.6424
 30
0.0
 10
-3.4164
 20
6.6424
 30
0.0
 10
-3.4164
 20
6.6424
 30
0.0
 10
-3.4164
 20
6.6424
 30
0.0
 10
-3.9502
 20
7.6893
 30
0.0
 10
-3.9502
 20
7.6893
 30
0.0
 10
-3.9502
 20
7.6893
 30
0.0
 10
-3.9502
 20
7.6893
 30
0.0
 10
-3.4164
 20
6.6424
 30
0.0
 10
-3.4164
 20
6.6424
 30
0.0
 10
-3.4164
 20
6.6424
 30
0.0
 10
-3.4164
 20
6.6424
 30
0.0
 10
-0.1278
 20
7.5236
 30
0.0
 10
-0.1278
 20
7.5236
 30
0.0
 10
-0.1278
 20
7.5236
 30
0.0
 10
-0.1278
 20
7.5236
 30
0.0
 10
-0.1891
 20
8.6972
 30
0.0
 10
-0.1891
 20
8.6972
 30
0.0
 10
-0.1891
 20
8.6972
 30
0.0
 10
-0.1891
 20
8.6972
 30
0.0
 10
-0.1278
 20
7.5236
 30
0.0
 10
-0.1278
 20
7.5236
 30
0.0
 10
-0.1278
 20
7.5236
 30
0.0
 10
-0.1278
 20
7.5236
 30
0.0
 10
0.0431
 20
7.5695
 30
0.0
 10
0.0431
 20
7.5695
 30
0.0
 10
0.0431
 20
7.5695
 30
0.0
 10
0.0431
 20
7.5695
 30
0.0
 10
-0.1278
 20
7.5236
 30
0.0
 10
-0.1278
 20
7.5236
 30
0.0
 10
-0.1278
 20
7.5236
 30
0.0
 10
-0.1278
 20
7.5236
 30
0.0
 10
-3.4164
 20
6.6424
 30
0.0
 10
-3.4164
 20
6.6424
 30
0.0
 10
-3.4164
 20
6.6424
 30
0.0
 10
-3.4164
 20
6.6424
 30
0.0
 10
-3.5874
 20
6.5967
 30
0.0
 10
-3.5874
 20
6.5967
 30
0.0
  0
SPLINE
  5
7C
330
1F
100
AcDbEntity
  8
DEFAULT_1
 62
   250
100
AcDbSpline
210
0.0
220
0.0
230
1.0
 70
    11
 71
     3
 72
    16
 73
    12
 74
     0
 42
0.0000000001
 43
0.0000000001
 40
0.0
 40
0.0
 40
0.0
 40
0.0
 40
0.25
 40
0.25
 40
0.25
 40
0.25
 40
0.5
 40
0.5
 40
0.5
 40
0.5
 40
1.0
 40
1.0
 40
1.0
 40
1.0
 10
-5.7763
 20
11.9083
 30
0.0
 10
-5.7763
 20
11.9083
 30
0.0
 10
-5.7953
 20
11.9032
 30
0.0
 10
-5.7953
 20
11.9032
 30
0.0
 10
-5.7953
 20
11.9032
 30
0.0
 10
-5.7953
 20
11.9032
 30
0.0
 10
-6.1048
 20
11.8202
 30
0.0
 10
-6.1048
 20
11.8202
 30
0.0
 10
-6.1048
 20
11.8202
 30
0.0
 10
-6.1048
 20
11.8202
 30
0.0
 10
-5.7763
 20
11.9083
 30
0.0
 10
-5.7763
 20
11.9083
 30
0.0
  0
SPLINE
  5
7D
330
1F
100
AcDbEntity
  8
DEFAULT_1
 62
   250
100
AcDbSpline
210
0.0
220
0.0
230
1.0
 70
    11
 71
     3
 72
    28
 73
    24
 74
     0
 42
0.0000000001
 43
0.0000000001
 40
0.0
 40
0.0
 40
0.0
 40
0.0
 40
0.1428571428571428
 40
0.1428571428571428
 40
0.1428571428571428
 40
0.1428571428571428
 40
0.2857142857142857
 40
0.2857142857142857
 40
0.2857142857142857
 40
0.2857142857142857
 40
0.4285714285714285
 40
0.4285714285714285
 40
0.4285714285714285
 40
0.4285714285714285
 40
0.5714285714285714
 40
0.5714285714285714
 40
0.5714285714285714
 40
0.5714285714285714
 40
0.7142857142857143
 40
0.7142857142857143
 40
0.7142857142857143
 40
0.7142857142857143
 40
1.0
 40
1.0
 40
1.0
 40
1.0
 10
-0.4211
 20
8.6776
 30
0.0
 10
-0.4211
 20
8.6776
 30
0.0
 10
-1.069
 20
11.0953
 30
0.0
 10
-1.069
 20
11.0953
 30
0.0
 10
-1.069
 20
11.0953
 30
0.0
 10
-1.069
 20
11.0953
 30
0.0
 10
-1.1034
 20
11.2237
 30
0.0
 10
-1.1034
 20
11.2237
 30
0.0
 10
-1.1034
 20
11.2237
 30
0.0
 10
-1.1034
 20
11.2237
 30
0.0
 10
-1.069
 20
11.0953
 30
0.0
 10
-1.069
 20
11.0953
 30
0.0
 10
-1.069
 20
11.0953
 30
0.0
 10
-1.069
 20
11.0953
 30
0.0
 10
-0.4211
 20
8.6776
 30
0.0
 10
-0.4211
 20
8.6776
 30
0.0
 10
-0.4211
 20
8.6776
 30
0.0
 10
-0.4211
 20
8.6776
 30
0.0
 10
-0.2318
 20
8.7283
 30
0.0
 10
-0.2318
 20
8.7283
 30
0.0
 10
-0.2318
 20
8.7283
 30
0.0
 10
-0.2318
 20
8.7283
 30
0.0
 10
-0.4211
 20
8.6776
 30
0.0
 10
-0.4211
 20
8.6776
 30
0.0
  0
SPLINE
  5
7E
330
1F
100
AcDbEntity
  8
DEFAULT_1
 62
   250
100
AcDbSpline
210
0.0
220
0.0
230
1.0
 70
    27
 71
     3
 72
    12
 73
     8
 74
     0
 42
0.0000000001
 43
0.0000000001
 40
0.0
 40
0.0
 40
0.0
 40
0.0
 40
0.3333333333333333
 40
0.3333333333333333
 40
0.3333333333333333
 40
0.3333333333333333
 40
1.0
 40
1.0
 40
1.0
 40
1.0
 10
-3.7393
 20
7.7885
 30
0.0
 10
-3.7393
 20
7.7885
 30
0.0
 10
-3.9154
 20
8.4455
 30
0.0
 10
-3.9154
 20
8.4455
 30
0.0
 10
-3.9154
 20
8.4455
 30
0.0
 10
-3.9154
 20
8.4455
 30
0.0
 10
-3.7393
 20
7.7885
 30
0.0
 10
-3.7393
 20
7.7885
 30
0.0
  0
SPLINE
  5
7F
330
1F
100
AcDbEntity
  8
DEFAULT_1
 62
   250
100
AcDbSpline
210
0.0
220
0.0
230
1.0
 70
    27
 71
     3
 72
    12
 73
     8
 74
     0
 42
0.0000000001
 43
0.0000000001
 40
0.0
 40
0.0
 40
0.0
 40
0.0
 40
0.3333333333333333
 40
0.3333333333333333
 40
0.3333333333333333
 40
0.3333333333333333
 40
1.0
 40
1.0
 40
1.0
 40
1.0
 10
-4.808
 20
8.2943
 30
0.0
 10
-4.808
 20
8.2943
 30
0.0
 10
-5.1365
 20
8.2063
 30
0.0
 10
-5.1365
 20
8.2063
 30
0.0
 10
-5.1365
 20
8.2063
 30
0.0
 10
-5.1365
 20
8.2063
 30
0.0
 10
-4.808
 20
8.2943
 30
0.0
 10
-4.808
 20
8.2943
 30
0.0
  0
SPLINE
  5
80
330
1F
100
AcDbEntity
  8
DEFAULT_1
 62
   250
100
AcDbSpline
210
0.0
220
0.0
230
1.0
 70
    11
 71
     3
 72
    68
 73
    64
 74
     0
 42
0.0000000001
 43
0.0000000001
 40
0.0
 40
0.0
 40
0.0
 40
0.0
 40
0.0588235294117647
 40
0.0588235294117647
 40
0.0588235294117647
 40
0.0588235294117647
 40
0.1176470588235294
 40
0.1176470588235294
 40
0.1176470588235294
 40
0.1176470588235294
 40
0.1764705882352941
 40
0.1764705882352941
 40
0.1764705882352941
 40
0.1764705882352941
 40
0.2352941176470588
 40
0.2352941176470588
 40
0.2352941176470588
 40
0.2352941176470588
 40
0.2941176470588235
 40
0.2941176470588235
 40
0.2941176470588235
 40
0.2941176470588235
 40
0.3529411764705883
 40
0.3529411764705883
 40
0.3529411764705883
 40
0.3529411764705883
 40
0.4117647058823529
 40
0.4117647058823529
 40
0.4117647058823529
 40
0.4117647058823529
 40
0.4705882352941176
 40
0.4705882352941176
 40
0.4705882352941176
 40
0.4705882352941176
 40
0.5294117647058824
 40
0.5294117647058824
 40
0.5294117647058824
 40
0.5294117647058824
 40
0.5882352941176471
 40
0.5882352941176471
 40
0.5882352941176471
 40
0.5882352941176471
 40
0.6470588235294118
 40
0.6470588235294118
 40
0.6470588235294118
 40
0.6470588235294118
 40
0.7058823529411765
 40
0.7058823529411765
 40
0.7058823529411765
 40
0.7058823529411765
 40
0.7647058823529411
 40
0.7647058823529411
 40
0.7647058823529411
 40
0.7647058823529411
 40
0.8235294117647058
 40
0.8235294117647058
 40
0.8235294117647058
 40
0.8235294117647058
 40
0.8823529411764706
 40
0.8823529411764706
 40
0.8823529411764706
 40
0.8823529411764706
 40
1.0
 40
1.0
 40
1.0
 40
1.0
 10
0.9201
 20
2.6946
 30
0.0
 10
0.9201
 20
2.6946
 30
0.0
 10
0.9178
 20
2.7047
 30
0.0
 10
0.9178
 20
2.7047
 30
0.0
 10
0.9178
 20
2.7047
 30
0.0
 10
0.9178
 20
2.7047
 30
0.0
 10
0.6141
 20
4.0252
 30
0.0
 10
0.6141
 20
4.0252
 30
0.0
 10
0.6141
 20
4.0252
 30
0.0
 10
0.6141
 20
4.0252
 30
0.0
 10
0.5912
 20
4.019
 30
0.0
 10
0.5912
 20
4.019
 30
0.0
 10
0.5912
 20
4.019
 30
0.0
 10
0.5912
 20
4.019
 30
0.0
 10
0.4046
 20
5.2015
 30
0.0
 10
0.4046
 20
5.2015
 30
0.0
 10
0.4046
 20
5.2015
 30
0.0
 10
0.4046
 20
5.2015
 30
0.0
 10
0.324
 20
5.1799
 30
0.0
 10
0.324
 20
5.1799
 30
0.0
 10
0.324
 20
5.1799
 30
0.0
 10
0.324
 20
5.1799
 30
0.0
 10
0.2196
 20
6.3843
 30
0.0
 10
0.2196
 20
6.3843
 30
0.0
 10
0.2196
 20
6.3843
 30
0.0
 10
0.2196
 20
6.3843
 30
0.0
 10
0.1376
 20
6.3623
 30
0.0
 10
0.1376
 20
6.3623
 30
0.0
 10
0.1376
 20
6.3623
 30
0.0
 10
0.1376
 20
6.3623
 30
0.0
 10
0.0859
 20
7.5382
 30
0.0
 10
0.0859
 20
7.5382
 30
0.0
 10
0.0859
 20
7.5382
 30
0.0
 10
0.0859
 20
7.5382
 30
0.0
 10
0.1376
 20
6.3623
 30
0.0
 10
0.1376
 20
6.3623
 30
0.0
 10
0.1376
 20
6.3623
 30
0.0
 10
0.1376
 20
6.3623
 30
0.0
 10
0.2196
 20
6.3843
 30
0.0
 10
0.2196
 20
6.3843
 30
0.0
 10
0.2196
 20
6.3843
 30
0.0
 10
0.2196
 20
6.3843
 30
0.0
 10
0.324
 20
5.1799
 30
0.0
 10
0.324
 20
5.1799
 30
0.0
 10
0.324
 20
5.1799
 30
0.0
 10
0.324
 20
5.1799
 30
0.0
 10
0.4046
 20
5.2015
 30
0.0
 10
0.4046
 20
5.2015
 30
0.0
 10
0.4046
 20
5.2015
 30
0.0
 10
0.4046
 20
5.2015
 30
0.0
 10
0.5912
 20
4.019
 30
0.0
 10
0.5912
 20
4.019
 30
0.0
 10
0.5912
 20
4.019
 30
0.0
 10
0.5912
 20
4.019
 30
0.0
 10
0.6141
 20
4.0252
 30
0.0
 10
0.6141
 20
4.0252
 30
0.0
 10
0.6141
 20
4.0252
 30
0.0
 10
0.6141
 20
4.0252
 30
0.0
 10
0.9178
 20
2.7047
 30
0.0
 10
0.9178
 20
2.7047
 30
0.0
 10
0.9178
 20
2.7047
 30
0.0
 10
0.9178
 20
2.7047
 30
0.0
 10
0.9201
 20
2.6946
 30
0.0
 10
0.9201
 20
2.6946
 30
0.0
  0
SPLINE
  5
81
330
1F
100
AcDbEntity
  8
DEFAULT_1
 62
   250
100
AcDbSpline
210
0.0
220
0.0
230
1.0
 70
    27
 71
     3
 72
    12
 73
     8
 74
     0
 42
0.0000000001
 43
0.0000000001
 40
0.0
 40
0.0
 40
0.0
 40
0.0
 40
0.3333333333333333
 40
0.3333333333333333
 40
0.3333333333333333
 40
0.3333333333333333
 40
1.0
 40
1.0
 40
1.0
 40
1.0
 10
-3.9287
 20
7.7376
 30
0.0
 10
-3.9287
 20
7.7376
 30
0.0
 10
-0.4211
 20
8.6776
 30
0.0
 10
-0.4211
 20
8.6776
 30
0.0
 10
-0.4211
 20
8.6776
 30
0.0
 10
-0.4211
 20
8.6776
 30
0.0
 10
-3.9287
 20
7.7376
 30
0.0
 10
-3.9287
 20
7.7376
 30
0.0
  0
SPLINE
  5
82
330
1F
100
AcDbEntity
  8
DEFAULT_1
 62
   250
100
AcDbSpline
210
0.0
220
0.0
230
1.0
 70
    11
 71
     3
 72
    20
 73
    16
 74
     0
 42
0.0000000001
 43
0.0000000001
 40
0.0
 40
0.0
 40
0.0
 40
0.0
 40
0.2
 40
0.2
 40
0.2
 40
0.2
 40
0.4
 40
0.4
 40
0.4
 40
0.4
 40
0.6
 40
0.6
 40
0.6
 40
0.6
 40
1.0
 40
1.0
 40
1.0
 40
1.0
 10
-3.0657
 20
5.504
 30
0.0
 10
-3.0657
 20
5.504
 30
0.0
 10
-3.6088
 20
6.5481
 30
0.0
 10
-3.6088
 20
6.5481
 30
0.0
 10
-3.6088
 20
6.5481
 30
0.0
 10
-3.6088
 20
6.5481
 30
0.0
 10
-3.0657
 20
5.504
 30
0.0
 10
-3.0657
 20
5.504
 30
0.0
 10
-3.0657
 20
5.504
 30
0.0
 10
-3.0657
 20
5.504
 30
0.0
 10
0.1376
 20
6.3623
 30
0.0
 10
0.1376
 20
6.3623
 30
0.0
 10
0.1376
 20
6.3623
 30
0.0
 10
0.1376
 20
6.3623
 30
0.0
 10
-3.0657
 20
5.504
 30
0.0
 10
-3.0657
 20
5.504
 30
0.0
  0
SPLINE
  5
83
330
1F
100
AcDbEntity
  8
DEFAULT_1
 62
   250
100
AcDbSpline
210
0.0
220
0.0
230
1.0
 70
    11
 71
     3
 72
    20
 73
    16
 74
     0
 42
0.0000000001
 43
0.0000000001
 40
0.0
 40
0.0
 40
0.0
 40
0.0
 40
0.2
 40
0.2
 40
0.2
 40
0.2
 40
0.4
 40
0.4
 40
0.4
 40
0.4
 40
0.6
 40
0.6
 40
0.6
 40
0.6
 40
1.0
 40
1.0
 40
1.0
 40
1.0
 10
-2.6359
 20
4.3868
 30
0.0
 10
-2.6359
 20
4.3868
 30
0.0
 10
-3.1478
 20
5.482
 30
0.0
 10
-3.1478
 20
5.482
 30
0.0
 10
-3.1478
 20
5.482
 30
0.0
 10
-3.1478
 20
5.482
 30
0.0
 10
-3.0657
 20
5.504
 30
0.0
 10
-3.0657
 20
5.504
 30
0.0
 10
-3.0657
 20
5.504
 30
0.0
 10
-3.0657
 20
5.504
 30
0.0
 10
-3.1478
 20
5.482
 30
0.0
 10
-3.1478
 20
5.482
 30
0.0
 10
-3.1478
 20
5.482
 30
0.0
 10
-3.1478
 20
5.482
 30
0.0
 10
-2.6359
 20
4.3868
 30
0.0
 10
-2.6359
 20
4.3868
 30
0.0
  0
SPLINE
  5
84
330
1F
100
AcDbEntity
  8
DEFAULT_1
 62
   250
100
AcDbSpline
210
0.0
220
0.0
230
1.0
 70
    11
 71
     3
 72
    20
 73
    16
 74
     0
 42
0.0000000001
 43
0.0000000001
 40
0.0
 40
0.0
 40
0.0
 40
0.0
 40
0.2
 40
0.2
 40
0.2
 40
0.2
 40
0.4
 40
0.4
 40
0.4
 40
0.4
 40
0.6
 40
0.6
 40
0.6
 40
0.6
 40
1.0
 40
1.0
 40
1.0
 40
1.0
 10
-2.2868
 20
3.2479
 30
0.0
 10
-2.2868
 20
3.2479
 30
0.0
 10
-2.7165
 20
4.3652
 30
0.0
 10
-2.7165
 20
4.3652
 30
0.0
 10
-2.7165
 20
4.3652
 30
0.0
 10
-2.7165
 20
4.3652
 30
0.0
 10
0.324
 20
5.1799
 30
0.0
 10
0.324
 20
5.1799
 30
0.0
 10
0.324
 20
5.1799
 30
0.0
 10
0.324
 20
5.1799
 30
0.0
 10
-2.7165
 20
4.3652
 30
0.0
 10
-2.7165
 20
4.3652
 30
0.0
 10
-2.7165
 20
4.3652
 30
0.0
 10
-2.7165
 20
4.3652
 30
0.0
 10
-2.2868
 20
3.2479
 30
0.0
 10
-2.2868
 20
3.2479
 30
0.0
  0
SPLINE
  5
85
330
1F
100
AcDbEntity
  8
DEFAULT_1
 62
   250
100
AcDbSpline
210
0.0
220
0.0
230
1.0
 70
    11
 71
     3
 72
    20
 73
    16
 74
     0
 42
0.0000000001
 43
0.0000000001
 40
0.0
 40
0.0
 40
0.0
 40
0.0
 40
0.2
 40
0.2
 40
0.2
 40
0.2
 40
0.4
 40
0.4
 40
0.4
 40
0.4
 40
0.6
 40
0.6
 40
0.6
 40
0.6
 40
1.0
 40
1.0
 40
1.0
 40
1.0
 10
-1.9199
 20
1.9701
 30
0.0
 10
-1.9199
 20
1.9701
 30
0.0
 10
-2.3098
 20
3.2417
 30
0.0
 10
-2.3098
 20
3.2417
 30
0.0
 10
-2.3098
 20
3.2417
 30
0.0
 10
-2.3098
 20
3.2417
 30
0.0
 10
0.5912
 20
4.019
 30
0.0
 10
0.5912
 20
4.019
 30
0.0
 10
0.5912
 20
4.019
 30
0.0
 10
0.5912
 20
4.019
 30
0.0
 10
-2.3098
 20
3.2417
 30
0.0
 10
-2.3098
 20
3.2417
 30
0.0
 10
-2.3098
 20
3.2417
 30
0.0
 10
-2.3098
 20
3.2417
 30
0.0
 10
-1.9199
 20
1.9701
 30
0.0
 10
-1.9199
 20
1.9701
 30
0.0
  0
SPLINE
  5
86
330
1F
100
AcDbEntity
  8
DEFAULT_1
 62
   250
100
AcDbSpline
210
0.0
220
0.0
230
1.0
 70
     8
 71
     3
 72
    48
 73
    44
 74
     0
 42
0.0000000001
 43
0.0000000001
 40
0.0
 40
0.0
 40
0.0
 40
0.0
 40
0.0833333333333333
 40
0.0833333333333333
 40
0.0833333333333333
 40
0.0833333333333333
 40
0.1666666666666667
 40
0.1666666666666667
 40
0.1666666666666667
 40
0.1666666666666667
 40
0.25
 40
0.25
 40
0.25
 40
0.25
 40
0.3333333333333333
 40
0.3333333333333333
 40
0.3333333333333333
 40
0.3333333333333333
 40
0.4166666666666667
 40
0.4166666666666667
 40
0.4166666666666667
 40
0.4166666666666667
 40
0.5
 40
0.5
 40
0.5
 40
0.5
 40
0.5833333333333334
 40
0.5833333333333334
 40
0.5833333333333334
 40
0.5833333333333334
 40
0.6666666666666666
 40
0.6666666666666666
 40
0.6666666666666666
 40
0.6666666666666666
 40
0.75
 40
0.75
 40
0.75
 40
0.75
 40
0.8333333333333334
 40
0.8333333333333334
 40
0.8333333333333334
 40
0.8333333333333334
 40
1.0
 40
1.0
 40
1.0
 40
1.0
 10
-6.7855
 20
13.0464
 30
0.0
 10
-6.604
 20
13.095
 30
0.0
 10
-6.4176
 20
12.9873
 30
0.0
 10
-6.369
 20
12.8058
 30
0.0
 10
-6.369
 20
12.8058
 30
0.0
 10
-6.369
 20
12.8058
 30
0.0
 10
-4.8869
 20
7.1851
 30
0.0
 10
-4.8869
 20
7.1851
 30
0.0
 10
-4.8869
 20
7.1851
 30
0.0
 10
-4.8869
 20
7.1851
 30
0.0
 10
-4.8869
 20
7.0711
 30
0.0
 10
-4.8869
 20
7.0711
 30
0.0
 10
-4.8869
 20
7.0711
 30
0.0
 10
-4.8869
 20
7.0711
 30
0.0
 10
-4.9283
 20
6.9779
 30
0.0
 10
-4.9283
 20
6.9779
 30
0.0
 10
-4.9283
 20
6.9779
 30
0.0
 10
-4.9283
 20
6.9779
 30
0.0
 10
-5.0214
 20
6.8639
 30
0.0
 10
-5.0214
 20
6.8639
 30
0.0
 10
-5.0214
 20
6.8639
 30
0.0
 10
-5.0214
 20
6.8639
 30
0.0
 10
-5.0835
 20
6.8535
 30
0.0
 10
-5.0835
 20
6.8535
 30
0.0
 10
-5.0835
 20
6.8535
 30
0.0
 10
-5.0835
 20
6.8535
 30
0.0
 10
-5.0214
 20
6.7291
 30
0.0
 10
-5.0214
 20
6.7291
 30
0.0
 10
-5.0214
 20
6.7291
 30
0.0
 10
-5.0214
 20
6.7291
 30
0.0
 10
-7.5143
 20
6.0346
 30
0.0
 10
-7.5143
 20
6.0346
 30
0.0
 10
-7.5143
 20
6.0346
 30
0.0
 10
-7.5143
 20
6.0346
 30
0.0
 10
-9.2727
 20
12.4715
 30
0.0
 10
-9.2727
 20
12.4715
 30
0.0
 10
-9.2727
 20
12.4715
 30
0.0
 10
-9.2727
 20
12.4715
 30
0.0
 10
-6.7178
 20
13.1349
 30
0.0
 10
-6.7178
 20
13.1349
 30
0.0
 10
-6.7178
 20
13.1349
 30
0.0
 10
-6.7178
 20
13.1349
 30
0.0
 10
-6.6867
 20
13.0105
 30
0.0
 10
-6.6867
 20
13.0105
 30
0.0
  0
SPLINE
  5
87
330
1F
100
AcDbEntity
  8
DEFAULT_1
 62
   250
100
AcDbSpline
210
0.0
220
0.0
230
1.0
 70
     8
 71
     3
 72
   132
 73
   128
 74
     0
 42
0.0000000001
 43
0.0000000001
 40
0.0
 40
0.0
 40
0.0
 40
0.0
 40
0.0303030303030303
 40
0.0303030303030303
 40
0.0303030303030303
 40
0.0303030303030303
 40
0.0606060606060606
 40
0.0606060606060606
 40
0.0606060606060606
 40
0.0606060606060606
 40
0.0909090909090909
 40
0.0909090909090909
 40
0.0909090909090909
 40
0.0909090909090909
 40
0.1212121212121212
 40
0.1212121212121212
 40
0.1212121212121212
 40
0.1212121212121212
 40
0.1515151515151515
 40
0.1515151515151515
 40
0.1515151515151515
 40
0.1515151515151515
 40
0.1818181818181818
 40
0.1818181818181818
 40
0.1818181818181818
 40
0.1818181818181818
 40
0.2121212121212121
 40
0.2121212121212121
 40
0.2121212121212121
 40
0.2121212121212121
 40
0.2424242424242424
 40
0.2424242424242424
 40
0.2424242424242424
 40
0.2424242424242424
 40
0.2727272727272727
 40
0.2727272727272727
 40
0.2727272727272727
 40
0.2727272727272727
 40
0.303030303030303
 40
0.303030303030303
 40
0.303030303030303
 40
0.303030303030303
 40
0.3333333333333333
 40
0.3333333333333333
 40
0.3333333333333333
 40
0.3333333333333333
 40
0.3636363636363636
 40
0.3636363636363636
 40
0.3636363636363636
 40
0.3636363636363636
 40
0.3939393939393939
 40
0.3939393939393939
 40
0.3939393939393939
 40
0.3939393939393939
 40
0.4242424242424243
 40
0.4242424242424243
 40
0.4242424242424243
 40
0.4242424242424243
 40
0.4545454545454545
 40
0.4545454545454545
 40
0.4545454545454545
 40
0.4545454545454545
 40
0.4848484848484849
 40
0.4848484848484849
 40
0.4848484848484849
 40
0.4848484848484849
 40
0.5151515151515151
 40
0.5151515151515151
 40
0.5151515151515151
 40
0.5151515151515151
 40
0.5454545454545454
 40
0.5454545454545454
 40
0.5454545454545454
 40
0.5454545454545454
 40
0.5757575757575758
 40
0.5757575757575758
 40
0.5757575757575758
 40
0.5757575757575758
 40
0.6060606060606061
 40
0.6060606060606061
 40
0.6060606060606061
 40
0.6060606060606061
 40
0.6363636363636364
 40
0.6363636363636364
 40
0.6363636363636364
 40
0.6363636363636364
 40
0.6666666666666666
 40
0.6666666666666666
 40
0.6666666666666666
 40
0.6666666666666666
 40
0.696969696969697
 40
0.696969696969697
 40
0.696969696969697
 40
0.696969696969697
 40
0.7272727272727273
 40
0.7272727272727273
 40
0.7272727272727273
 40
0.7272727272727273
 40
0.7575757575757576
 40
0.7575757575757576
 40
0.7575757575757576
 40
0.7575757575757576
 40
0.7878787878787878
 40
0.7878787878787878
 40
0.7878787878787878
 40
0.7878787878787878
 40
0.8181818181818182
 40
0.8181818181818182
 40
0.8181818181818182
 40
0.8181818181818182
 40
0.8484848484848485
 40
0.8484848484848485
 40
0.8484848484848485
 40
0.8484848484848485
 40
0.8787878787878788
 40
0.8787878787878788
 40
0.8787878787878788
 40
0.8787878787878788
 40
0.9090909090909091
 40
0.9090909090909091
 40
0.9090909090909091
 40
0.9090909090909091
 40
0.9393939393939394
 40
0.9393939393939394
 40
0.9393939393939394
 40
0.9393939393939394
 40
1.0
 40
1.0
 40
1.0
 40
1.0
 10
-8.78
 20
12.6088
 30
0.0
 10
-8.78
 20
12.6088
 30
0.0
 10
-8.5872
 20
11.8653
 30
0.0
 10
-8.5872
 20
11.8653
 30
0.0
 10
-8.5872
 20
11.8653
 30
0.0
 10
-8.5872
 20
11.8653
 30
0.0
 10
-6.9437
 20
12.3227
 30
0.0
 10
-6.9437
 20
12.3227
 30
0.0
 10
-6.9437
 20
12.3227
 30
0.0
 10
-6.9437
 20
12.3227
 30
0.0
 10
-6.8636
 20
12.3376
 30
0.0
 10
-6.8636
 20
12.3376
 30
0.0
 10
-6.8636
 20
12.3376
 30
0.0
 10
-6.8636
 20
12.3376
 30
0.0
 10
-6.7848
 20
12.3395
 30
0.0
 10
-6.7848
 20
12.3395
 30
0.0
 10
-6.7848
 20
12.3395
 30
0.0
 10
-6.7848
 20
12.3395
 30
0.0
 10
-6.7117
 20
12.3279
 30
0.0
 10
-6.7117
 20
12.3279
 30
0.0
 10
-6.7117
 20
12.3279
 30
0.0
 10
-6.7117
 20
12.3279
 30
0.0
 10
-6.6485
 20
12.3028
 30
0.0
 10
-6.6485
 20
12.3028
 30
0.0
 10
-6.6485
 20
12.3028
 30
0.0
 10
-6.6485
 20
12.3028
 30
0.0
 10
-6.599
 20
12.2653
 30
0.0
 10
-6.599
 20
12.2653
 30
0.0
 10
-6.599
 20
12.2653
 30
0.0
 10
-6.599
 20
12.2653
 30
0.0
 10
-6.566
 20
12.2174
 30
0.0
 10
-6.566
 20
12.2174
 30
0.0
 10
-6.566
 20
12.2174
 30
0.0
 10
-6.566
 20
12.2174
 30
0.0
 10
-6.5561
 20
12.1903
 30
0.0
 10
-6.5561
 20
12.1903
 30
0.0
 10
-6.5561
 20
12.1903
 30
0.0
 10
-6.5561
 20
12.1903
 30
0.0
 10
-6.5633
 20
12.0488
 30
0.0
 10
-6.5633
 20
12.0488
 30
0.0
 10
-6.5633
 20
12.0488
 30
0.0
 10
-6.5633
 20
12.0488
 30
0.0
 10
-6.65
 20
11.9618
 30
0.0
 10
-6.65
 20
11.9618
 30
0.0
 10
-6.65
 20
11.9618
 30
0.0
 10
-6.65
 20
11.9618
 30
0.0
 10
-6.7752
 20
11.8749
 30
0.0
 10
-6.7752
 20
11.8749
 30
0.0
 10
-6.7752
 20
11.8749
 30
0.0
 10
-6.7752
 20
11.8749
 30
0.0
 10
-8.4618
 20
11.421
 30
0.0
 10
-8.4618
 20
11.421
 30
0.0
 10
-8.4618
 20
11.421
 30
0.0
 10
-8.4618
 20
11.421
 30
0.0
 10
-8.0089
 20
9.7018
 30
0.0
 10
-8.0089
 20
9.7018
 30
0.0
 10
-8.0089
 20
9.7018
 30
0.0
 10
-8.0089
 20
9.7018
 30
0.0
 10
-6.2644
 20
10.1751
 30
0.0
 10
-6.2644
 20
10.1751
 30
0.0
 10
-6.2644
 20
10.1751
 30
0.0
 10
-6.2644
 20
10.1751
 30
0.0
 10
-6.0525
 20
10.0978
 30
0.0
 10
-6.0525
 20
10.0978
 30
0.0
 10
-6.0525
 20
10.0978
 30
0.0
 10
-6.0525
 20
10.0978
 30
0.0
 10
-5.9657
 20
9.9819
 30
0.0
 10
-5.9657
 20
9.9819
 30
0.0
 10
-5.9657
 20
9.9819
 30
0.0
 10
-5.9657
 20
9.9819
 30
0.0
 10
-5.9367
 20
9.8467
 30
0.0
 10
-5.9367
 20
9.8467
 30
0.0
 10
-5.9367
 20
9.8467
 30
0.0
 10
-5.9367
 20
9.8467
 30
0.0
 10
-5.9657
 20
9.7211
 30
0.0
 10
-5.9657
 20
9.7211
 30
0.0
 10
-5.9657
 20
9.7211
 30
0.0
 10
-5.9657
 20
9.7211
 30
0.0
 10
-5.9753
 20
9.6052
 30
0.0
 10
-5.9753
 20
9.6052
 30
0.0
 10
-5.9753
 20
9.6052
 30
0.0
 10
-5.9753
 20
9.6052
 30
0.0
 10
-6.0525
 20
9.5376
 30
0.0
 10
-6.0525
 20
9.5376
 30
0.0
 10
-6.0525
 20
9.5376
 30
0.0
 10
-6.0525
 20
9.5376
 30
0.0
 10
-7.8258
 20
9.0547
 30
0.0
 10
-7.8258
 20
9.0547
 30
0.0
 10
-7.8258
 20
9.0547
 30
0.0
 10
-7.8258
 20
9.0547
 30
0.0
 10
-7.3728
 20
7.3548
 30
0.0
 10
-7.3728
 20
7.3548
 30
0.0
 10
-7.3728
 20
7.3548
 30
0.0
 10
-7.3728
 20
7.3548
 30
0.0
 10
-5.6862
 20
7.8379
 30
0.0
 10
-5.6862
 20
7.8379
 30
0.0
 10
-5.6862
 20
7.8379
 30
0.0
 10
-5.6862
 20
7.8379
 30
0.0
 10
-5.532
 20
7.8281
 30
0.0
 10
-5.532
 20
7.8281
 30
0.0
 10
-5.532
 20
7.8281
 30
0.0
 10
-5.532
 20
7.8281
 30
0.0
 10
-5.4066
 20
7.7896
 30
0.0
 10
-5.4066
 20
7.7896
 30
0.0
 10
-5.4066
 20
7.7896
 30
0.0
 10
-5.4066
 20
7.7896
 30
0.0
 10
-5.3199
 20
7.7122
 30
0.0
 10
-5.3199
 20
7.7122
 30
0.0
 10
-5.3199
 20
7.7122
 30
0.0
 10
-5.3199
 20
7.7122
 30
0.0
 10
-5.3199
 20
7.5866
 30
0.0
 10
-5.3199
 20
7.5866
 30
0.0
 10
-5.3199
 20
7.5866
 30
0.0
 10
-5.3199
 20
7.5866
 30
0.0
 10
-5.3777
 20
7.4514
 30
0.0
 10
-5.3777
 20
7.4514
 30
0.0
 10
-5.3777
 20
7.4514
 30
0.0
 10
-5.3777
 20
7.4514
 30
0.0
 10
-5.6187
 20
7.3453
 30
0.0
 10
-5.6187
 20
7.3453
 30
0.0
 10
-5.6187
 20
7.3453
 30
0.0
 10
-5.6187
 20
7.3453
 30
0.0
 10
-7.2667
 20
6.8912
 30
0.0
 10
-7.2667
 20
6.8912
 30
0.0
 10
-7.2667
 20
6.8912
 30
0.0
 10
-7.2667
 20
6.8912
 30
0.0
 10
-7.0799
 20
6.2004
 30
0.0
 10
-7.0799
 20
6.2004
 30
0.0
  0
SPLINE
  5
88
330
1F
100
AcDbEntity
  8
DEFAULT_1
 62
   250
100
AcDbSpline
210
0.0
220
0.0
230
1.0
 70
    24
 71
     3
 72
     8
 73
     4
 74
     0
 42
0.0000000001
 43
0.0000000001
 40
0.0
 40
0.0
 40
0.0
 40
0.0
 40
1.0
 40
1.0
 40
1.0
 40
1.0
 10
-19.3317
 20
-23.0806
 30
0.0
 10
-19.3317
 20
-23.0806
 30
0.0
 10
-8.0429
 20
-23.0806
 30
0.0
 10
-8.0429
 20
-23.0806
 30
0.0
  0
SPLINE
  5
89
330
1F
100
AcDbEntity
  8
DEFAULT_1
 62
   250
100
AcDbSpline
210
0.0
220
0.0
230
1.0
 70
    24
 71
     3
 72
     8
 73
     4
 74
     0
 42
0.0000000001
 43
0.0000000001
 40
0.0
 40
0.0
 40
0.0
 40
0.0
 40
1.0
 40
1.0
 40
1.0
 40
1.0
 10
-8.0536
 20
-21.3439
 30
0.0
 10
-8.0536
 20
-21.3439
 30
0.0
 10
-9.458
 20
-21.3439
 30
0.0
 10
-9.458
 20
-21.3439
 30
0.0
  0
SPLINE
  5
8A
330
1F
100
AcDbEntity
  8
DEFAULT_1
 62
   250
100
AcDbSpline
210
0.0
220
0.0
230
1.0
 70
    24
 71
     3
 72
     8
 73
     4
 74
     0
 42
0.0000000001
 43
0.0000000001
 40
0.0
 40
0.0
 40
0.0
 40
0.0
 40
1.0
 40
1.0
 40
1.0
 40
1.0
 10
-9.9493
 20
-21.3439
 30
0.0
 10
-9.9493
 20
-21.3439
 30
0.0
 10
-13.3399
 20
-21.3439
 30
0.0
 10
-13.3399
 20
-21.3439
 30
0.0
  0
SPLINE
  5
8B
330
1F
100
AcDbEntity
  8
DEFAULT_1
 62
   250
100
AcDbSpline
210
0.0
220
0.0
230
1.0
 70
    24
 71
     3
 72
     8
 73
     4
 74
     0
 42
0.0000000001
 43
0.0000000001
 40
0.0
 40
0.0
 40
0.0
 40
0.0
 40
1.0
 40
1.0
 40
1.0
 40
1.0
 10
-14.0346
 20
-21.3439
 30
0.0
 10
-14.0346
 20
-21.3439
 30
0.0
 10
-17.4253
 20
-21.3439
 30
0.0
 10
-17.4253
 20
-21.3439
 30
0.0
  0
SPLINE
  5
8C
330
1F
100
AcDbEntity
  8
DEFAULT_1
 62
   250
100
AcDbSpline
210
0.0
220
0.0
230
1.0
 70
    24
 71
     3
 72
     8
 73
     4
 74
     0
 42
0.0000000001
 43
0.0000000001
 40
0.0
 40
0.0
 40
0.0
 40
0.0
 40
1.0
 40
1.0
 40
1.0
 40
1.0
 10
-17.9165
 20
-21.3439
 30
0.0
 10
-17.9165
 20
-21.3439
 30
0.0
 10
-19.321
 20
-21.3439
 30
0.0
 10
-19.321
 20
-21.3439
 30
0.0
  0
SPLINE
  5
8D
330
1F
100
AcDbEntity
  8
DEFAULT_1
 62
   250
100
AcDbSpline
210
0.0
220
0.0
230
1.0
 70
    24
 71
     3
 72
     8
 73
     4
 74
     0
 42
0.0000000001
 43
0.0000000001
 40
0.0
 40
0.0
 40
0.0
 40
0.0
 40
1.0
 40
1.0
 40
1.0
 40
1.0
 10
-8.0429
 20
-20.8229
 30
0.0
 10
-8.0429
 20
-20.8229
 30
0.0
 10
-19.3317
 20
-20.8229
 30
0.0
 10
-19.3317
 20
-20.8229
 30
0.0
  0
SPLINE
  5
8E
330
1F
100
AcDbEntity
  8
DEFAULT_1
 62
   250
100
AcDbSpline
210
0.0
220
0.0
230
1.0
 70
    24
 71
     3
 72
     8
 73
     4
 74
     0
 42
0.0000000001
 43
0.0000000001
 40
0.0
 40
0.0
 40
0.0
 40
0.0
 40
1.0
 40
1.0
 40
1.0
 40
1.0
 10
-18.9843
 20
-20.3887
 30
0.0
 10
-18.9843
 20
-20.3887
 30
0.0
 10
-8.3902
 20
-20.3887
 30
0.0
 10
-8.3902
 20
-20.3887
 30
0.0
  0
SPLINE
  5
8F
330
1F
100
AcDbEntity
  8
DEFAULT_1
 62
   250
100
AcDbSpline
210
0.0
220
0.0
230
1.0
 70
    24
 71
     3
 72
     8
 73
     4
 74
     0
 42
0.0000000001
 43
0.0000000001
 40
0.0
 40
0.0
 40
0.0
 40
0.0
 40
1.0
 40
1.0
 40
1.0
 40
1.0
 10
-19.5922
 20
-0.8529
 30
0.0
 10
-19.5922
 20
-0.8529
 30
0.0
 10
-19.5922
 20
-2.9345
 30
0.0
 10
-19.5922
 20
-2.9345
 30
0.0
  0
SPLINE
  5
90
330
1F
100
AcDbEntity
  8
DEFAULT_1
 62
   250
100
AcDbSpline
210
0.0
220
0.0
230
1.0
 70
    24
 71
     3
 72
     8
 73
     4
 74
     0
 42
0.0000000001
 43
0.0000000001
 40
0.0
 40
0.0
 40
0.0
 40
0.0
 40
1.0
 40
1.0
 40
1.0
 40
1.0
 10
-4.6024
 20
-5.1107
 30
0.0
 10
-4.6024
 20
-5.1107
 30
0.0
 10
-6.684
 20
-5.1107
 30
0.0
 10
-6.684
 20
-5.1107
 30
0.0
  0
SPLINE
  5
91
330
1F
100
AcDbEntity
  8
DEFAULT_1
 62
   250
100
AcDbSpline
210
0.0
220
0.0
230
1.0
 70
    24
 71
     3
 72
     8
 73
     4
 74
     0
 42
0.0000000001
 43
0.0000000001
 40
0.0
 40
0.0
 40
0.0
 40
0.0
 40
1.0
 40
1.0
 40
1.0
 40
1.0
 10
-19.4909
 20
-1.1978
 30
0.0
 10
-19.4909
 20
-1.1978
 30
0.0
 10
-19.4909
 20
-2.4135
 30
0.0
 10
-19.4909
 20
-2.4135
 30
0.0
  0
SPLINE
  5
92
330
1F
100
AcDbEntity
  8
DEFAULT_1
 62
   250
100
AcDbSpline
210
0.0
220
0.0
230
1.0
 70
    24
 71
     3
 72
     8
 73
     4
 74
     0
 42
0.0000000001
 43
0.0000000001
 40
0.0
 40
0.0
 40
0.0
 40
0.0
 40
1.0
 40
1.0
 40
1.0
 40
1.0
 10
-4.9473
 20
-5.212
 30
0.0
 10
-4.9473
 20
-5.212
 30
0.0
 10
-6.163
 20
-5.212
 30
0.0
 10
-6.163
 20
-5.212
 30
0.0
  0
SPLINE
  5
93
330
1F
100
AcDbEntity
  8
DEFAULT_1
 62
   250
100
AcDbSpline
210
0.0
220
0.0
230
1.0
 70
    24
 71
     3
 72
     8
 73
     4
 74
     0
 42
0.0000000001
 43
0.0000000001
 40
0.0
 40
0.0
 40
0.0
 40
0.0
 40
1.0
 40
1.0
 40
1.0
 40
1.0
 10
-19.3317
 20
-23.0806
 30
0.0
 10
-19.3317
 20
-23.0806
 30
0.0
 10
-19.3317
 20
-20.736
 30
0.0
 10
-19.3317
 20
-20.736
 30
0.0
  0
SPLINE
  5
94
330
1F
100
AcDbEntity
  8
DEFAULT_1
 62
   250
100
AcDbSpline
210
0.0
220
0.0
230
1.0
 70
    24
 71
     3
 72
     8
 73
     4
 74
     0
 42
0.0000000001
 43
0.0000000001
 40
0.0
 40
0.0
 40
0.0
 40
0.0
 40
1.0
 40
1.0
 40
1.0
 40
1.0
 10
-19.2339
 20
-22.7333
 30
0.0
 10
-19.2339
 20
-22.7333
 30
0.0
 10
-19.2339
 20
-21.3439
 30
0.0
 10
-19.2339
 20
-21.3439
 30
0.0
  0
SPLINE
  5
95
330
1F
100
AcDbEntity
  8
DEFAULT_1
 62
   250
100
AcDbSpline
210
0.0
220
0.0
230
1.0
 70
    24
 71
     3
 72
     8
 73
     4
 74
     0
 42
0.0000000001
 43
0.0000000001
 40
0.0
 40
0.0
 40
0.0
 40
0.0
 40
1.0
 40
1.0
 40
1.0
 40
1.0
 10
-18.9757
 20
-3.2818
 30
0.0
 10
-18.9757
 20
-3.2818
 30
0.0
 10
-18.9757
 20
-2.9345
 30
0.0
 10
-18.9757
 20
-2.9345
 30
0.0
  0
SPLINE
  5
96
330
1F
100
AcDbEntity
  8
DEFAULT_1
 62
   250
100
AcDbSpline
210
0.0
220
0.0
230
1.0
 70
    24
 71
     3
 72
     8
 73
     4
 74
     0
 42
0.0000000001
 43
0.0000000001
 40
0.0
 40
0.0
 40
0.0
 40
0.0
 40
1.0
 40
1.0
 40
1.0
 40
1.0
 10
-7.0313
 20
-5.7272
 30
0.0
 10
-7.0313
 20
-5.7272
 30
0.0
 10
-6.684
 20
-5.7272
 30
0.0
 10
-6.684
 20
-5.7272
 30
0.0
  0
SPLINE
  5
97
330
1F
100
AcDbEntity
  8
DEFAULT_1
 62
   250
100
AcDbSpline
210
0.0
220
0.0
230
1.0
 70
    24
 71
     3
 72
     8
 73
     4
 74
     0
 42
0.0000000001
 43
0.0000000001
 40
0.0
 40
0.0
 40
0.0
 40
0.0
 40
1.0
 40
1.0
 40
1.0
 40
1.0
 10
-18.7065
 20
-20.1282
 30
0.0
 10
-18.7065
 20
-20.1282
 30
0.0
 10
-18.7065
 20
-5.4528
 30
0.0
 10
-18.7065
 20
-5.4528
 30
0.0
  0
SPLINE
  5
98
330
1F
100
AcDbEntity
  8
DEFAULT_1
 62
   250
100
AcDbSpline
210
0.0
220
0.0
230
1.0
 70
    24
 71
     3
 72
     8
 73
     4
 74
     0
 42
0.0000000001
 43
0.0000000001
 40
0.0
 40
0.0
 40
0.0
 40
0.0
 40
1.0
 40
1.0
 40
1.0
 40
1.0
 10
-18.5815
 20
-2.4135
 30
0.0
 10
-18.5815
 20
-2.4135
 30
0.0
 10
-18.5815
 20
-1.1978
 30
0.0
 10
-18.5815
 20
-1.1978
 30
0.0
  0
SPLINE
  5
99
330
1F
100
AcDbEntity
  8
DEFAULT_1
 62
   250
100
AcDbSpline
210
0.0
220
0.0
230
1.0
 70
    24
 71
     3
 72
     8
 73
     4
 74
     0
 42
0.0000000001
 43
0.0000000001
 40
0.0
 40
0.0
 40
0.0
 40
0.0
 40
1.0
 40
1.0
 40
1.0
 40
1.0
 10
-6.163
 20
-6.1214
 30
0.0
 10
-6.163
 20
-6.1214
 30
0.0
 10
-4.9473
 20
-6.1214
 30
0.0
 10
-4.9473
 20
-6.1214
 30
0.0
  0
SPLINE
  5
9A
330
1F
100
AcDbEntity
  8
DEFAULT_1
 62
   250
100
AcDbSpline
210
0.0
220
0.0
230
1.0
 70
    24
 71
     3
 72
     8
 73
     4
 74
     0
 42
0.0000000001
 43
0.0000000001
 40
0.0
 40
0.0
 40
0.0
 40
0.0
 40
1.0
 40
1.0
 40
1.0
 40
1.0
 10
-18.4633
 20
-5.0629
 30
0.0
 10
-18.4633
 20
-5.0629
 30
0.0
 10
-18.4633
 20
-3.2818
 30
0.0
 10
-18.4633
 20
-3.2818
 30
0.0
  0
SPLINE
  5
9B
330
1F
100
AcDbEntity
  8
DEFAULT_1
 62
   250
100
AcDbSpline
210
0.0
220
0.0
230
1.0
 70
    24
 71
     3
 72
     8
 73
     4
 74
     0
 42
0.0000000001
 43
0.0000000001
 40
0.0
 40
0.0
 40
0.0
 40
0.0
 40
1.0
 40
1.0
 40
1.0
 40
1.0
 10
-8.8124
 20
-6.2396
 30
0.0
 10
-8.8124
 20
-6.2396
 30
0.0
 10
-7.0313
 20
-6.2396
 30
0.0
 10
-7.0313
 20
-6.2396
 30
0.0
  0
SPLINE
  5
9C
330
1F
100
AcDbEntity
  8
DEFAULT_1
 62
   250
100
AcDbSpline
210
0.0
220
0.0
230
1.0
 70
    24
 71
     3
 72
     8
 73
     4
 74
     0
 42
0.0000000001
 43
0.0000000001
 40
0.0
 40
0.0
 40
0.0
 40
0.0
 40
1.0
 40
1.0
 40
1.0
 40
1.0
 10
-18.0903
 20
-2.4135
 30
0.0
 10
-18.0903
 20
-2.4135
 30
0.0
 10
-18.0903
 20
-1.1978
 30
0.0
 10
-18.0903
 20
-1.1978
 30
0.0
  0
SPLINE
  5
9D
330
1F
100
AcDbEntity
  8
DEFAULT_1
 62
   250
100
AcDbSpline
210
0.0
220
0.0
230
1.0
 70
    24
 71
     3
 72
     8
 73
     4
 74
     0
 42
0.0000000001
 43
0.0000000001
 40
0.0
 40
0.0
 40
0.0
 40
0.0
 40
1.0
 40
1.0
 40
1.0
 40
1.0
 10
-6.163
 20
-6.6126
 30
0.0
 10
-6.163
 20
-6.6126
 30
0.0
 10
-4.9473
 20
-6.6126
 30
0.0
 10
-4.9473
 20
-6.6126
 30
0.0
  0
SPLINE
  5
9E
330
1F
100
AcDbEntity
  8
DEFAULT_1
 62
   250
100
AcDbSpline
210
0.0
220
0.0
230
1.0
 70
    24
 71
     3
 72
     8
 73
     4
 74
     0
 42
0.0000000001
 43
0.0000000001
 40
0.0
 40
0.0
 40
0.0
 40
0.0
 40
1.0
 40
1.0
 40
1.0
 40
1.0
 10
-17.9165
 20
-21.3439
 30
0.0
 10
-17.9165
 20
-21.3439
 30
0.0
 10
-17.9165
 20
-22.7333
 30
0.0
 10
-17.9165
 20
-22.7333
 30
0.0
  0
SPLINE
  5
9F
330
1F
100
AcDbEntity
  8
DEFAULT_1
 62
   250
100
AcDbSpline
210
0.0
220
0.0
230
1.0
 70
    24
 71
     3
 72
     8
 73
     4
 74
     0
 42
0.0000000001
 43
0.0000000001
 40
0.0
 40
0.0
 40
0.0
 40
0.0
 40
1.0
 40
1.0
 40
1.0
 40
1.0
 10
-17.4253
 20
-21.3439
 30
0.0
 10
-17.4253
 20
-21.3439
 30
0.0
 10
-17.4253
 20
-22.7333
 30
0.0
 10
-17.4253
 20
-22.7333
 30
0.0
  0
SPLINE
  5
A0
330
1F
100
AcDbEntity
  8
DEFAULT_1
 62
   250
100
AcDbSpline
210
0.0
220
0.0
230
1.0
 70
    24
 71
     3
 72
     8
 73
     4
 74
     0
 42
0.0000000001
 43
0.0000000001
 40
0.0
 40
0.0
 40
0.0
 40
0.0
 40
1.0
 40
1.0
 40
1.0
 40
1.0
 10
-15.6845
 20
-2.4135
 30
0.0
 10
-15.6845
 20
-2.4135
 30
0.0
 10
-15.6845
 20
-1.1978
 30
0.0
 10
-15.6845
 20
-1.1978
 30
0.0
  0
SPLINE
  5
A1
330
1F
100
AcDbEntity
  8
DEFAULT_1
 62
   250
100
AcDbSpline
210
0.0
220
0.0
230
1.0
 70
    24
 71
     3
 72
     8
 73
     4
 74
     0
 42
0.0000000001
 43
0.0000000001
 40
0.0
 40
0.0
 40
0.0
 40
0.0
 40
1.0
 40
1.0
 40
1.0
 40
1.0
 10
-6.163
 20
-9.0184
 30
0.0
 10
-6.163
 20
-9.0184
 30
0.0
 10
-4.9473
 20
-9.0184
 30
0.0
 10
-4.9473
 20
-9.0184
 30
0.0
  0
SPLINE
  5
A2
330
1F
100
AcDbEntity
  8
DEFAULT_1
 62
   250
100
AcDbSpline
210
0.0
220
0.0
230
1.0
 70
    24
 71
     3
 72
     8
 73
     4
 74
     0
 42
0.0000000001
 43
0.0000000001
 40
0.0
 40
0.0
 40
0.0
 40
0.0
 40
1.0
 40
1.0
 40
1.0
 40
1.0
 10
-14.9898
 20
-2.4135
 30
0.0
 10
-14.9898
 20
-2.4135
 30
0.0
 10
-14.9898
 20
-1.1978
 30
0.0
 10
-14.9898
 20
-1.1978
 30
0.0
  0
SPLINE
  5
A3
330
1F
100
AcDbEntity
  8
DEFAULT_1
 62
   250
100
AcDbSpline
210
0.0
220
0.0
230
1.0
 70
    24
 71
     3
 72
     8
 73
     4
 74
     0
 42
0.0000000001
 43
0.0000000001
 40
0.0
 40
0.0
 40
0.0
 40
0.0
 40
1.0
 40
1.0
 40
1.0
 40
1.0
 10
-6.163
 20
-9.7131
 30
0.0
 10
-6.163
 20
-9.7131
 30
0.0
 10
-4.9473
 20
-9.7131
 30
0.0
 10
-4.9473
 20
-9.7131
 30
0.0
  0
SPLINE
  5
A4
330
1F
100
AcDbEntity
  8
DEFAULT_1
 62
   250
100
AcDbSpline
210
0.0
220
0.0
230
1.0
 70
    24
 71
     3
 72
     8
 73
     4
 74
     0
 42
0.0000000001
 43
0.0000000001
 40
0.0
 40
0.0
 40
0.0
 40
0.0
 40
1.0
 40
1.0
 40
1.0
 40
1.0
 10
-14.0346
 20
-21.3439
 30
0.0
 10
-14.0346
 20
-21.3439
 30
0.0
 10
-14.0346
 20
-22.7333
 30
0.0
 10
-14.0346
 20
-22.7333
 30
0.0
  0
SPLINE
  5
A5
330
1F
100
AcDbEntity
  8
DEFAULT_1
 62
   250
100
AcDbSpline
210
0.0
220
0.0
230
1.0
 70
    24
 71
     3
 72
     8
 73
     4
 74
     0
 42
0.0000000001
 43
0.0000000001
 40
0.0
 40
0.0
 40
0.0
 40
0.0
 40
1.0
 40
1.0
 40
1.0
 40
1.0
 10
-13.3399
 20
-21.3439
 30
0.0
 10
-13.3399
 20
-21.3439
 30
0.0
 10
-13.3399
 20
-22.7333
 30
0.0
 10
-13.3399
 20
-22.7333
 30
0.0
  0
SPLINE
  5
A6
330
1F
100
AcDbEntity
  8
DEFAULT_1
 62
   250
100
AcDbSpline
210
0.0
220
0.0
230
1.0
 70
    24
 71
     3
 72
     8
 73
     4
 74
     0
 42
0.0000000001
 43
0.0000000001
 40
0.0
 40
0.0
 40
0.0
 40
0.0
 40
1.0
 40
1.0
 40
1.0
 40
1.0
 10
-12.5841
 20
-2.4135
 30
0.0
 10
-12.5841
 20
-2.4135
 30
0.0
 10
-12.5841
 20
-1.1978
 30
0.0
 10
-12.5841
 20
-1.1978
 30
0.0
  0
SPLINE
  5
A7
330
1F
100
AcDbEntity
  8
DEFAULT_1
 62
   250
100
AcDbSpline
210
0.0
220
0.0
230
1.0
 70
    24
 71
     3
 72
     8
 73
     4
 74
     0
 42
0.0000000001
 43
0.0000000001
 40
0.0
 40
0.0
 40
0.0
 40
0.0
 40
1.0
 40
1.0
 40
1.0
 40
1.0
 10
-6.163
 20
-12.1188
 30
0.0
 10
-6.163
 20
-12.1188
 30
0.0
 10
-4.9473
 20
-12.1188
 30
0.0
 10
-4.9473
 20
-12.1188
 30
0.0
  0
SPLINE
  5
A8
330
1F
100
AcDbEntity
  8
DEFAULT_1
 62
   250
100
AcDbSpline
210
0.0
220
0.0
230
1.0
 70
    24
 71
     3
 72
     8
 73
     4
 74
     0
 42
0.0000000001
 43
0.0000000001
 40
0.0
 40
0.0
 40
0.0
 40
0.0
 40
1.0
 40
1.0
 40
1.0
 40
1.0
 10
-12.2111
 20
-4.7106
 30
0.0
 10
-12.2111
 20
-4.7106
 30
0.0
 10
-12.2111
 20
-3.2818
 30
0.0
 10
-12.2111
 20
-3.2818
 30
0.0
  0
SPLINE
  5
A9
330
1F
100
AcDbEntity
  8
DEFAULT_1
 62
   250
100
AcDbSpline
210
0.0
220
0.0
230
1.0
 70
    24
 71
     3
 72
     8
 73
     4
 74
     0
 42
0.0000000001
 43
0.0000000001
 40
0.0
 40
0.0
 40
0.0
 40
0.0
 40
1.0
 40
1.0
 40
1.0
 40
1.0
 10
-8.6681
 20
-12.4919
 30
0.0
 10
-8.6681
 20
-12.4919
 30
0.0
 10
-7.0313
 20
-12.4919
 30
0.0
 10
-7.0313
 20
-12.4919
 30
0.0
  0
SPLINE
  5
AA
330
1F
100
AcDbEntity
  8
DEFAULT_1
 62
   250
100
AcDbSpline
210
0.0
220
0.0
230
1.0
 70
    24
 71
     3
 72
     8
 73
     4
 74
     0
 42
0.0000000001
 43
0.0000000001
 40
0.0
 40
0.0
 40
0.0
 40
0.0
 40
1.0
 40
1.0
 40
1.0
 40
1.0
 10
-12.0929
 20
-2.4135
 30
0.0
 10
-12.0929
 20
-2.4135
 30
0.0
 10
-12.0929
 20
-1.1978
 30
0.0
 10
-12.0929
 20
-1.1978
 30
0.0
  0
SPLINE
  5
AB
330
1F
100
AcDbEntity
  8
DEFAULT_1
 62
   250
100
AcDbSpline
210
0.0
220
0.0
230
1.0
 70
    24
 71
     3
 72
     8
 73
     4
 74
     0
 42
0.0000000001
 43
0.0000000001
 40
0.0
 40
0.0
 40
0.0
 40
0.0
 40
1.0
 40
1.0
 40
1.0
 40
1.0
 10
-6.163
 20
-12.61
 30
0.0
 10
-6.163
 20
-12.61
 30
0.0
 10
-4.9473
 20
-12.61
 30
0.0
 10
-4.9473
 20
-12.61
 30
0.0
  0
SPLINE
  5
AC
330
1F
100
AcDbEntity
  8
DEFAULT_1
 62
   250
100
AcDbSpline
210
0.0
220
0.0
230
1.0
 70
    24
 71
     3
 72
     8
 73
     4
 74
     0
 42
0.0000000001
 43
0.0000000001
 40
0.0
 40
0.0
 40
0.0
 40
0.0
 40
1.0
 40
1.0
 40
1.0
 40
1.0
 10
-11.6987
 20
-3.2818
 30
0.0
 10
-11.6987
 20
-3.2818
 30
0.0
 10
-11.6987
 20
-2.9345
 30
0.0
 10
-11.6987
 20
-2.9345
 30
0.0
  0
SPLINE
  5
AD
330
1F
100
AcDbEntity
  8
DEFAULT_1
 62
   250
100
AcDbSpline
210
0.0
220
0.0
230
1.0
 70
    24
 71
     3
 72
     8
 73
     4
 74
     0
 42
0.0000000001
 43
0.0000000001
 40
0.0
 40
0.0
 40
0.0
 40
0.0
 40
1.0
 40
1.0
 40
1.0
 40
1.0
 10
-7.0313
 20
-13.0042
 30
0.0
 10
-7.0313
 20
-13.0042
 30
0.0
 10
-6.684
 20
-13.0042
 30
0.0
 10
-6.684
 20
-13.0042
 30
0.0
  0
SPLINE
  5
AE
330
1F
100
AcDbEntity
  8
DEFAULT_1
 62
   250
100
AcDbSpline
210
0.0
220
0.0
230
1.0
 70
    24
 71
     3
 72
     8
 73
     4
 74
     0
 42
0.0000000001
 43
0.0000000001
 40
0.0
 40
0.0
 40
0.0
 40
0.0
 40
1.0
 40
1.0
 40
1.0
 40
1.0
 10
-11.1835
 20
-1.1978
 30
0.0
 10
-11.1835
 20
-1.1978
 30
0.0
 10
-11.1835
 20
-2.4135
 30
0.0
 10
-11.1835
 20
-2.4135
 30
0.0
  0
SPLINE
  5
AF
330
1F
100
AcDbEntity
  8
DEFAULT_1
 62
   250
100
AcDbSpline
210
0.0
220
0.0
230
1.0
 70
    24
 71
     3
 72
     8
 73
     4
 74
     0
 42
0.0000000001
 43
0.0000000001
 40
0.0
 40
0.0
 40
0.0
 40
0.0
 40
1.0
 40
1.0
 40
1.0
 40
1.0
 10
-4.9473
 20
-13.5194
 30
0.0
 10
-4.9473
 20
-13.5194
 30
0.0
 10
-6.163
 20
-13.5194
 30
0.0
 10
-6.163
 20
-13.5194
 30
0.0
  0
SPLINE
  5
B0
330
1F
100
AcDbEntity
  8
DEFAULT_1
 62
   250
100
AcDbSpline
210
0.0
220
0.0
230
1.0
 70
    24
 71
     3
 72
     8
 73
     4
 74
     0
 42
0.0000000001
 43
0.0000000001
 40
0.0
 40
0.0
 40
0.0
 40
0.0
 40
1.0
 40
1.0
 40
1.0
 40
1.0
 10
-11.0822
 20
-0.8529
 30
0.0
 10
-11.0822
 20
-0.8529
 30
0.0
 10
-11.0822
 20
-2.9345
 30
0.0
 10
-11.0822
 20
-2.9345
 30
0.0
  0
SPLINE
  5
B1
330
1F
100
AcDbEntity
  8
DEFAULT_1
 62
   250
100
AcDbSpline
210
0.0
220
0.0
230
1.0
 70
    24
 71
     3
 72
     8
 73
     4
 74
     0
 42
0.0000000001
 43
0.0000000001
 40
0.0
 40
0.0
 40
0.0
 40
0.0
 40
1.0
 40
1.0
 40
1.0
 40
1.0
 10
-4.6024
 20
-13.6207
 30
0.0
 10
-4.6024
 20
-13.6207
 30
0.0
 10
-6.684
 20
-13.6207
 30
0.0
 10
-6.684
 20
-13.6207
 30
0.0
  0
SPLINE
  5
B2
330
1F
100
AcDbEntity
  8
DEFAULT_1
 62
   250
100
AcDbSpline
210
0.0
220
0.0
230
1.0
 70
    24
 71
     3
 72
     8
 73
     4
 74
     0
 42
0.0000000001
 43
0.0000000001
 40
0.0
 40
0.0
 40
0.0
 40
0.0
 40
1.0
 40
1.0
 40
1.0
 40
1.0
 10
-9.9493
 20
-21.3439
 30
0.0
 10
-9.9493
 20
-21.3439
 30
0.0
 10
-9.9493
 20
-22.7333
 30
0.0
 10
-9.9493
 20
-22.7333
 30
0.0
  0
SPLINE
  5
B3
330
1F
100
AcDbEntity
  8
DEFAULT_1
 62
   250
100
AcDbSpline
210
0.0
220
0.0
230
1.0
 70
    24
 71
     3
 72
     8
 73
     4
 74
     0
 42
0.0000000001
 43
0.0000000001
 40
0.0
 40
0.0
 40
0.0
 40
0.0
 40
1.0
 40
1.0
 40
1.0
 40
1.0
 10
-9.458
 20
-21.3439
 30
0.0
 10
-9.458
 20
-21.3439
 30
0.0
 10
-9.458
 20
-22.7333
 30
0.0
 10
-9.458
 20
-22.7333
 30
0.0
  0
SPLINE
  5
B4
330
1F
100
AcDbEntity
  8
DEFAULT_1
 62
   250
100
AcDbSpline
210
0.0
220
0.0
230
1.0
 70
    24
 71
     3
 72
     8
 73
     4
 74
     0
 42
0.0000000001
 43
0.0000000001
 40
0.0
 40
0.0
 40
0.0
 40
0.0
 40
1.0
 40
1.0
 40
1.0
 40
1.0
 10
-8.6681
 20
-20.1281
 30
0.0
 10
-8.6681
 20
-20.1281
 30
0.0
 10
-8.6681
 20
-12.4865
 30
0.0
 10
-8.6681
 20
-12.4865
 30
0.0
  0
SPLINE
  5
B5
330
1F
100
AcDbEntity
  8
DEFAULT_1
 62
   250
100
AcDbSpline
210
0.0
220
0.0
230
1.0
 70
    24
 71
     3
 72
     8
 73
     4
 74
     0
 42
0.0000000001
 43
0.0000000001
 40
0.0
 40
0.0
 40
0.0
 40
0.0
 40
1.0
 40
1.0
 40
1.0
 40
1.0
 10
-8.652
 20
-6.2395
 30
0.0
 10
-8.652
 20
-6.2395
 30
0.0
 10
-8.652
 20
-5.5151
 30
0.0
 10
-8.652
 20
-5.5151
 30
0.0
  0
SPLINE
  5
B6
330
1F
100
AcDbEntity
  8
DEFAULT_1
 62
   250
100
AcDbSpline
210
0.0
220
0.0
230
1.0
 70
    24
 71
     3
 72
     8
 73
     4
 74
     0
 42
0.0000000001
 43
0.0000000001
 40
0.0
 40
0.0
 40
0.0
 40
0.0
 40
1.0
 40
1.0
 40
1.0
 40
1.0
 10
-8.6681
 20
-5.5222
 30
0.0
 10
-8.6681
 20
-5.5222
 30
0.0
 10
-8.6681
 20
-5.4528
 30
0.0
 10
-8.6681
 20
-5.4528
 30
0.0
  0
SPLINE
  5
B7
330
1F
100
AcDbEntity
  8
DEFAULT_1
 62
   250
100
AcDbSpline
210
0.0
220
0.0
230
1.0
 70
    24
 71
     3
 72
     8
 73
     4
 74
     0
 42
0.0000000001
 43
0.0000000001
 40
0.0
 40
0.0
 40
0.0
 40
0.0
 40
1.0
 40
1.0
 40
1.0
 40
1.0
 10
-8.1406
 20
-22.7333
 30
0.0
 10
-8.1406
 20
-22.7333
 30
0.0
 10
-8.1406
 20
-21.3439
 30
0.0
 10
-8.1406
 20
-21.3439
 30
0.0
  0
SPLINE
  5
B8
330
1F
100
AcDbEntity
  8
DEFAULT_1
 62
   250
100
AcDbSpline
210
0.0
220
0.0
230
1.0
 70
    24
 71
     3
 72
     8
 73
     4
 74
     0
 42
0.0000000001
 43
0.0000000001
 40
0.0
 40
0.0
 40
0.0
 40
0.0
 40
1.0
 40
1.0
 40
1.0
 40
1.0
 10
-8.0429
 20
-23.0806
 30
0.0
 10
-8.0429
 20
-23.0806
 30
0.0
 10
-8.0429
 20
-20.736
 30
0.0
 10
-8.0429
 20
-20.736
 30
0.0
  0
SPLINE
  5
B9
330
1F
100
AcDbEntity
  8
DEFAULT_1
 62
   250
100
AcDbSpline
210
0.0
220
0.0
230
1.0
 70
    24
 71
     3
 72
     8
 73
     4
 74
     0
 42
0.0000000001
 43
0.0000000001
 40
0.0
 40
0.0
 40
0.0
 40
0.0
 40
1.0
 40
1.0
 40
1.0
 40
1.0
 10
-18.9757
 20
-3.2818
 30
0.0
 10
-18.9757
 20
-3.2818
 30
0.0
 10
-11.6987
 20
-3.2818
 30
0.0
 10
-11.6987
 20
-3.2818
 30
0.0
  0
SPLINE
  5
BA
330
1F
100
AcDbEntity
  8
DEFAULT_1
 62
   250
100
AcDbSpline
210
0.0
220
0.0
230
1.0
 70
    24
 71
     3
 72
     8
 73
     4
 74
     0
 42
0.0000000001
 43
0.0000000001
 40
0.0
 40
0.0
 40
0.0
 40
0.0
 40
1.0
 40
1.0
 40
1.0
 40
1.0
 10
-7.0313
 20
-5.7272
 30
0.0
 10
-7.0313
 20
-5.7272
 30
0.0
 10
-7.0313
 20
-13.0042
 30
0.0
 10
-7.0313
 20
-13.0042
 30
0.0
  0
SPLINE
  5
BB
330
1F
100
AcDbEntity
  8
DEFAULT_1
 62
   250
100
AcDbSpline
210
0.0
220
0.0
230
1.0
 70
    24
 71
     3
 72
     8
 73
     4
 74
     0
 42
0.0000000001
 43
0.0000000001
 40
0.0
 40
0.0
 40
0.0
 40
0.0
 40
1.0
 40
1.0
 40
1.0
 40
1.0
 10
-19.5922
 20
-2.9345
 30
0.0
 10
-19.5922
 20
-2.9345
 30
0.0
 10
-11.0822
 20
-2.9345
 30
0.0
 10
-11.0822
 20
-2.9345
 30
0.0
  0
SPLINE
  5
BC
330
1F
100
AcDbEntity
  8
DEFAULT_1
 62
   250
100
AcDbSpline
210
0.0
220
0.0
230
1.0
 70
    24
 71
     3
 72
     8
 73
     4
 74
     0
 42
0.0000000001
 43
0.0000000001
 40
0.0
 40
0.0
 40
0.0
 40
0.0
 40
1.0
 40
1.0
 40
1.0
 40
1.0
 10
-6.684
 20
-5.1107
 30
0.0
 10
-6.684
 20
-5.1107
 30
0.0
 10
-6.684
 20
-13.6207
 30
0.0
 10
-6.684
 20
-13.6207
 30
0.0
  0
SPLINE
  5
BD
330
1F
100
AcDbEntity
  8
DEFAULT_1
 62
   250
100
AcDbSpline
210
0.0
220
0.0
230
1.0
 70
    24
 71
     3
 72
     8
 73
     4
 74
     0
 42
0.0000000001
 43
0.0000000001
 40
0.0
 40
0.0
 40
0.0
 40
0.0
 40
1.0
 40
1.0
 40
1.0
 40
1.0
 10
-19.578
 20
-2.4135
 30
0.0
 10
-19.578
 20
-2.4135
 30
0.0
 10
-18.5815
 20
-2.4135
 30
0.0
 10
-18.5815
 20
-2.4135
 30
0.0
  0
SPLINE
  5
BE
330
1F
100
AcDbEntity
  8
DEFAULT_1
 62
   250
100
AcDbSpline
210
0.0
220
0.0
230
1.0
 70
    24
 71
     3
 72
     8
 73
     4
 74
     0
 42
0.0000000001
 43
0.0000000001
 40
0.0
 40
0.0
 40
0.0
 40
0.0
 40
1.0
 40
1.0
 40
1.0
 40
1.0
 10
-6.163
 20
-5.1249
 30
0.0
 10
-6.163
 20
-5.1249
 30
0.0
 10
-6.163
 20
-6.1214
 30
0.0
 10
-6.163
 20
-6.1214
 30
0.0
  0
SPLINE
  5
BF
330
1F
100
AcDbEntity
  8
DEFAULT_1
 62
   250
100
AcDbSpline
210
0.0
220
0.0
230
1.0
 70
    24
 71
     3
 72
     8
 73
     4
 74
     0
 42
0.0000000001
 43
0.0000000001
 40
0.0
 40
0.0
 40
0.0
 40
0.0
 40
1.0
 40
1.0
 40
1.0
 40
1.0
 10
-18.0903
 20
-2.4135
 30
0.0
 10
-18.0903
 20
-2.4135
 30
0.0
 10
-15.6845
 20
-2.4135
 30
0.0
 10
-15.6845
 20
-2.4135
 30
0.0
  0
SPLINE
  5
C0
330
1F
100
AcDbEntity
  8
DEFAULT_1
 62
   250
100
AcDbSpline
210
0.0
220
0.0
230
1.0
 70
    24
 71
     3
 72
     8
 73
     4
 74
     0
 42
0.0000000001
 43
0.0000000001
 40
0.0
 40
0.0
 40
0.0
 40
0.0
 40
1.0
 40
1.0
 40
1.0
 40
1.0
 10
-6.163
 20
-6.6126
 30
0.0
 10
-6.163
 20
-6.6126
 30
0.0
 10
-6.163
 20
-9.0184
 30
0.0
 10
-6.163
 20
-9.0184
 30
0.0
  0
SPLINE
  5
C1
330
1F
100
AcDbEntity
  8
DEFAULT_1
 62
   250
100
AcDbSpline
210
0.0
220
0.0
230
1.0
 70
    24
 71
     3
 72
     8
 73
     4
 74
     0
 42
0.0000000001
 43
0.0000000001
 40
0.0
 40
0.0
 40
0.0
 40
0.0
 40
1.0
 40
1.0
 40
1.0
 40
1.0
 10
-14.9898
 20
-2.4135
 30
0.0
 10
-14.9898
 20
-2.4135
 30
0.0
 10
-12.5841
 20
-2.4135
 30
0.0
 10
-12.5841
 20
-2.4135
 30
0.0
  0
SPLINE
  5
C2
330
1F
100
AcDbEntity
  8
DEFAULT_1
 62
   250
100
AcDbSpline
210
0.0
220
0.0
230
1.0
 70
    24
 71
     3
 72
     8
 73
     4
 74
     0
 42
0.0000000001
 43
0.0000000001
 40
0.0
 40
0.0
 40
0.0
 40
0.0
 40
1.0
 40
1.0
 40
1.0
 40
1.0
 10
-6.163
 20
-9.7131
 30
0.0
 10
-6.163
 20
-9.7131
 30
0.0
 10
-6.163
 20
-12.1188
 30
0.0
 10
-6.163
 20
-12.1188
 30
0.0
  0
SPLINE
  5
C3
330
1F
100
AcDbEntity
  8
DEFAULT_1
 62
   250
100
AcDbSpline
210
0.0
220
0.0
230
1.0
 70
    24
 71
     3
 72
     8
 73
     4
 74
     0
 42
0.0000000001
 43
0.0000000001
 40
0.0
 40
0.0
 40
0.0
 40
0.0
 40
1.0
 40
1.0
 40
1.0
 40
1.0
 10
-12.0929
 20
-2.4135
 30
0.0
 10
-12.0929
 20
-2.4135
 30
0.0
 10
-11.0964
 20
-2.4135
 30
0.0
 10
-11.0964
 20
-2.4135
 30
0.0
  0
SPLINE
  5
C4
330
1F
100
AcDbEntity
  8
DEFAULT_1
 62
   250
100
AcDbSpline
210
0.0
220
0.0
230
1.0
 70
    24
 71
     3
 72
     8
 73
     4
 74
     0
 42
0.0000000001
 43
0.0000000001
 40
0.0
 40
0.0
 40
0.0
 40
0.0
 40
1.0
 40
1.0
 40
1.0
 40
1.0
 10
-6.163
 20
-12.61
 30
0.0
 10
-6.163
 20
-12.61
 30
0.0
 10
-6.163
 20
-13.6065
 30
0.0
 10
-6.163
 20
-13.6065
 30
0.0
  0
SPLINE
  5
C5
330
1F
100
AcDbEntity
  8
DEFAULT_1
 62
   250
100
AcDbSpline
210
0.0
220
0.0
230
1.0
 70
    24
 71
     3
 72
     8
 73
     4
 74
     0
 42
0.0000000001
 43
0.0000000001
 40
0.0
 40
0.0
 40
0.0
 40
0.0
 40
1.0
 40
1.0
 40
1.0
 40
1.0
 10
-11.0824
 20
-0.8504
 30
0.0
 10
-11.0824
 20
-0.8504
 30
0.0
 10
-11.169
 20
-0.8504
 30
0.0
 10
-11.169
 20
-0.8504
 30
0.0
  0
SPLINE
  5
C6
330
1F
100
AcDbEntity
  8
DEFAULT_1
 62
   250
100
AcDbSpline
210
0.0
220
0.0
230
1.0
 70
    24
 71
     3
 72
     8
 73
     4
 74
     0
 42
0.0000000001
 43
0.0000000001
 40
0.0
 40
0.0
 40
0.0
 40
0.0
 40
1.0
 40
1.0
 40
1.0
 40
1.0
 10
-4.5999
 20
-13.6205
 30
0.0
 10
-4.5999
 20
-13.6205
 30
0.0
 10
-4.5999
 20
-13.5339
 30
0.0
 10
-4.5999
 20
-13.5339
 30
0.0
  0
SPLINE
  5
C7
330
1F
100
AcDbEntity
  8
DEFAULT_1
 62
   250
100
AcDbSpline
210
0.0
220
0.0
230
1.0
 70
    24
 71
     3
 72
     8
 73
     4
 74
     0
 42
0.0000000001
 43
0.0000000001
 40
0.0
 40
0.0
 40
0.0
 40
0.0
 40
1.0
 40
1.0
 40
1.0
 40
1.0
 10
-19.592
 20
-0.8504
 30
0.0
 10
-19.592
 20
-0.8504
 30
0.0
 10
-19.5054
 20
-0.8504
 30
0.0
 10
-19.5054
 20
-0.8504
 30
0.0
  0
SPLINE
  5
C8
330
1F
100
AcDbEntity
  8
DEFAULT_1
 62
   250
100
AcDbSpline
210
0.0
220
0.0
230
1.0
 70
    24
 71
     3
 72
     8
 73
     4
 74
     0
 42
0.0000000001
 43
0.0000000001
 40
0.0
 40
0.0
 40
0.0
 40
0.0
 40
1.0
 40
1.0
 40
1.0
 40
1.0
 10
-4.5999
 20
-5.1109
 30
0.0
 10
-4.5999
 20
-5.1109
 30
0.0
 10
-4.5999
 20
-5.1975
 30
0.0
 10
-4.5999
 20
-5.1975
 30
0.0
  0
SPLINE
  5
C9
330
1F
100
AcDbEntity
  8
DEFAULT_1
 62
   250
100
AcDbSpline
210
0.0
220
0.0
230
1.0
 70
    24
 71
     3
 72
     8
 73
     4
 74
     0
 42
0.0000000001
 43
0.0000000001
 40
0.0
 40
0.0
 40
0.0
 40
0.0
 40
1.0
 40
1.0
 40
1.0
 40
1.0
 10
-11.5164
 20
-0.5031
 30
0.0
 10
-11.5164
 20
-0.5031
 30
0.0
 10
-19.158
 20
-0.5031
 30
0.0
 10
-19.158
 20
-0.5031
 30
0.0
  0
SPLINE
  5
CA
330
1F
100
AcDbEntity
  8
DEFAULT_1
 62
   250
100
AcDbSpline
210
0.0
220
0.0
230
1.0
 70
    24
 71
     3
 72
     8
 73
     4
 74
     0
 42
0.0000000001
 43
0.0000000001
 40
0.0
 40
0.0
 40
0.0
 40
0.0
 40
1.0
 40
1.0
 40
1.0
 40
1.0
 10
-4.2526
 20
-13.1865
 30
0.0
 10
-4.2526
 20
-13.1865
 30
0.0
 10
-4.2526
 20
-5.5449
 30
0.0
 10
-4.2526
 20
-5.5449
 30
0.0
  0
SPLINE
  5
CB
330
1F
100
AcDbEntity
  8
DEFAULT_1
 62
   250
100
AcDbSpline
210
0.0
220
0.0
230
1.0
 70
     8
 71
     3
 72
    12
 73
     8
 74
     0
 42
0.0000000001
 43
0.0000000001
 40
0.0
 40
0.0
 40
0.0
 40
0.0
 40
0.3333333333333333
 40
0.3333333333333333
 40
0.3333333333333333
 40
0.3333333333333333
 40
1.0
 40
1.0
 40
1.0
 40
1.0
 10
-14.9898
 20
-1.1978
 30
0.0
 10
-14.9898
 20
-1.0059
 30
0.0
 10
-15.1453
 20
-0.8504
 30
0.0
 10
-15.3372
 20
-0.8504
 30
0.0
 10
-15.3372
 20
-0.8504
 30
0.0
 10
-15.529
 20
-0.8504
 30
0.0
 10
-15.6845
 20
-1.0059
 30
0.0
 10
-15.6845
 20
-1.1978
 30
0.0
  0
SPLINE
  5
CC
330
1F
100
AcDbEntity
  8
DEFAULT_1
 62
   250
100
AcDbSpline
210
0.0
220
0.0
230
1.0
 70
     8
 71
     3
 72
    12
 73
     8
 74
     0
 42
0.0000000001
 43
0.0000000001
 40
0.0
 40
0.0
 40
0.0
 40
0.0
 40
0.3333333333333333
 40
0.3333333333333333
 40
0.3333333333333333
 40
0.3333333333333333
 40
1.0
 40
1.0
 40
1.0
 40
1.0
 10
-4.9473
 20
-9.7131
 30
0.0
 10
-4.7554
 20
-9.7131
 30
0.0
 10
-4.5999
 20
-9.5576
 30
0.0
 10
-4.5999
 20
-9.3657
 30
0.0
 10
-4.5999
 20
-9.3657
 30
0.0
 10
-4.5999
 20
-9.1739
 30
0.0
 10
-4.7554
 20
-9.0184
 30
0.0
 10
-4.9473
 20
-9.0184
 30
0.0
  0
SPLINE
  5
CD
330
1F
100
AcDbEntity
  8
DEFAULT_1
 62
   250
100
AcDbSpline
210
0.0
220
0.0
230
1.0
 70
     8
 71
     3
 72
     8
 73
     4
 74
     0
 42
0.0000000001
 43
0.0000000001
 40
0.0
 40
0.0
 40
0.0
 40
0.0
 40
1.0
 40
1.0
 40
1.0
 40
1.0
 10
-11.169
 20
-0.8504
 30
0.0
 10
-11.169
 20
-0.6586
 30
0.0
 10
-11.3245
 20
-0.5031
 30
0.0
 10
-11.5164
 20
-0.5031
 30
0.0
  0
SPLINE
  5
CE
330
1F
100
AcDbEntity
  8
DEFAULT_1
 62
   250
100
AcDbSpline
210
0.0
220
0.0
230
1.0
 70
     8
 71
     3
 72
     8
 73
     4
 74
     0
 42
0.0000000001
 43
0.0000000001
 40
0.0
 40
0.0
 40
0.0
 40
0.0
 40
1.0
 40
1.0
 40
1.0
 40
1.0
 10
-4.5999
 20
-13.5339
 30
0.0
 10
-4.4081
 20
-13.5339
 30
0.0
 10
-4.2526
 20
-13.3784
 30
0.0
 10
-4.2526
 20
-13.1865
 30
0.0
  0
SPLINE
  5
CF
330
1F
100
AcDbEntity
  8
DEFAULT_1
 62
   250
100
AcDbSpline
210
0.0
220
0.0
230
1.0
 70
     8
 71
     3
 72
     8
 73
     4
 74
     0
 42
0.0000000001
 43
0.0000000001
 40
0.0
 40
0.0
 40
0.0
 40
0.0
 40
1.0
 40
1.0
 40
1.0
 40
1.0
 10
-19.158
 20
-0.5031
 30
0.0
 10
-19.3498
 20
-0.5031
 30
0.0
 10
-19.5054
 20
-0.6586
 30
0.0
 10
-19.5054
 20
-0.8504
 30
0.0
  0
SPLINE
  5
D0
330
1F
100
AcDbEntity
  8
DEFAULT_1
 62
   250
100
AcDbSpline
210
0.0
220
0.0
230
1.0
 70
     8
 71
     3
 72
     8
 73
     4
 74
     0
 42
0.0000000001
 43
0.0000000001
 40
0.0
 40
0.0
 40
0.0
 40
0.0
 40
1.0
 40
1.0
 40
1.0
 40
1.0
 10
-4.2526
 20
-5.5449
 30
0.0
 10
-4.2526
 20
-5.3531
 30
0.0
 10
-4.4081
 20
-5.1975
 30
0.0
 10
-4.5999
 20
-5.1975
 30
0.0
  0
SPLINE
  5
D1
330
1F
100
AcDbEntity
  8
DEFAULT_1
 62
   250
100
AcDbSpline
210
0.0
220
0.0
230
1.0
 70
     8
 71
     3
 72
    12
 73
     8
 74
     0
 42
0.0000000001
 43
0.0000000001
 40
0.0
 40
0.0
 40
0.0
 40
0.0
 40
0.3333333333333333
 40
0.3333333333333333
 40
0.3333333333333333
 40
0.3333333333333333
 40
1.0
 40
1.0
 40
1.0
 40
1.0
 10
-14.0346
 20
-22.7333
 30
0.0
 10
-14.0346
 20
-22.9251
 30
0.0
 10
-13.8791
 20
-23.0806
 30
0.0
 10
-13.6873
 20
-23.0806
 30
0.0
 10
-13.6873
 20
-23.0806
 30
0.0
 10
-13.4954
 20
-23.0806
 30
0.0
 10
-13.3399
 20
-22.9251
 30
0.0
 10
-13.3399
 20
-22.7333
 30
0.0
  0
SPLINE
  5
D2
330
1F
100
AcDbEntity
  8
DEFAULT_1
 62
   250
100
AcDbSpline
210
0.0
220
0.0
230
1.0
 70
     8
 71
     3
 72
     8
 73
     4
 74
     0
 42
0.0000000001
 43
0.0000000001
 40
0.0
 40
0.0
 40
0.0
 40
0.0
 40
1.0
 40
1.0
 40
1.0
 40
1.0
 10
-18.8873
 20
-23.4063
 30
0.0
 10
-18.8988
 20
-23.2232
 30
0.0
 10
-19.0505
 20
-23.0806
 30
0.0
 10
-19.2339
 20
-23.0806
 30
0.0
  0
SPLINE
  5
D3
330
1F
100
AcDbEntity
  8
DEFAULT_1
 62
   250
100
AcDbSpline
210
0.0
220
0.0
230
1.0
 70
     8
 71
     3
 72
     8
 73
     4
 74
     0
 42
0.0000000001
 43
0.0000000001
 40
0.0
 40
0.0
 40
0.0
 40
0.0
 40
1.0
 40
1.0
 40
1.0
 40
1.0
 10
-8.1406
 20
-23.0806
 30
0.0
 10
-8.324
 20
-23.0806
 30
0.0
 10
-8.4758
 20
-23.2232
 30
0.0
 10
-8.4872
 20
-23.4063
 30
0.0
  0
SPLINE
  5
D4
330
1F
100
AcDbEntity
  8
DEFAULT_1
 62
   250
100
AcDbSpline
210
0.0
220
0.0
230
1.0
 70
     8
 71
     3
 72
    12
 73
     8
 74
     0
 42
0.0000000001
 43
0.0000000001
 40
0.0
 40
0.0
 40
0.0
 40
0.0
 40
0.3333333333333333
 40
0.3333333333333333
 40
0.3333333333333333
 40
0.3333333333333333
 40
1.0
 40
1.0
 40
1.0
 40
1.0
 10
-18.8873
 20
-23.4063
 30
0.0
 10
-18.7154
 20
-26.152
 30
0.0
 10
-16.4384
 20
-28.2908
 30
0.0
 10
-13.6873
 20
-28.2908
 30
0.0
 10
-13.6873
 20
-28.2908
 30
0.0
 10
-10.9362
 20
-28.2908
 30
0.0
 10
-8.6592
 20
-26.152
 30
0.0
 10
-8.4872
 20
-23.4063
 30
0.0
  0
SPLINE
  5
D5
330
1F
100
AcDbEntity
  8
DEFAULT_1
 62
   250
100
AcDbSpline
210
0.0
220
0.0
230
1.0
 70
     8
 71
     3
 72
     8
 73
     4
 74
     0
 42
0.0000000001
 43
0.0000000001
 40
0.0
 40
0.0
 40
0.0
 40
0.0
 40
1.0
 40
1.0
 40
1.0
 40
1.0
 10
-18.967
 20
-20.3887
 30
0.0
 10
-18.8231
 20
-20.3887
 30
0.0
 10
-18.7065
 20
-20.2721
 30
0.0
 10
-18.7065
 20
-20.1282
 30
0.0
  0
SPLINE
  5
D6
330
1F
100
AcDbEntity
  8
DEFAULT_1
 62
   250
100
AcDbSpline
210
0.0
220
0.0
230
1.0
 70
     8
 71
     3
 72
     8
 73
     4
 74
     0
 42
0.0000000001
 43
0.0000000001
 40
0.0
 40
0.0
 40
0.0
 40
0.0
 40
1.0
 40
1.0
 40
1.0
 40
1.0
 10
-8.6681
 20
-20.1282
 30
0.0
 10
-8.6681
 20
-20.2721
 30
0.0
 10
-8.5515
 20
-20.3887
 30
0.0
 10
-8.4076
 20
-20.3887
 30
0.0
  0
SPLINE
  5
D7
330
1F
100
AcDbEntity
  8
DEFAULT_1
 62
   250
100
AcDbSpline
210
0.0
220
0.0
230
1.0
 70
     8
 71
     3
 72
     8
 73
     4
 74
     0
 42
0.0000000001
 43
0.0000000001
 40
0.0
 40
0.0
 40
0.0
 40
0.0
 40
1.0
 40
1.0
 40
1.0
 40
1.0
 10
-18.9843
 20
-20.3887
 30
0.0
 10
-19.1762
 20
-20.3887
 30
0.0
 10
-19.3317
 20
-20.5442
 30
0.0
 10
-19.3317
 20
-20.736
 30
0.0
  0
SPLINE
  5
D8
330
1F
100
AcDbEntity
  8
DEFAULT_1
 62
   250
100
AcDbSpline
210
0.0
220
0.0
230
1.0
 70
     8
 71
     3
 72
     8
 73
     4
 74
     0
 42
0.0000000001
 43
0.0000000001
 40
0.0
 40
0.0
 40
0.0
 40
0.0
 40
1.0
 40
1.0
 40
1.0
 40
1.0
 10
-8.0429
 20
-20.736
 30
0.0
 10
-8.0429
 20
-20.5442
 30
0.0
 10
-8.1984
 20
-20.3887
 30
0.0
 10
-8.3902
 20
-20.3887
 30
0.0
  0
SPLINE
  5
D9
330
1F
100
AcDbEntity
  8
DEFAULT_1
 62
   250
100
AcDbSpline
210
0.0
220
0.0
230
1.0
 70
     8
 71
     3
 72
     8
 73
     4
 74
     0
 42
0.0000000001
 43
0.0000000001
 40
0.0
 40
0.0
 40
0.0
 40
0.0
 40
1.0
 40
1.0
 40
1.0
 40
1.0
 10
-9.0377
 20
-5.0234
 30
0.0
 10
-10.0895
 20
-4.8652
 30
0.0
 10
-11.1486
 20
-4.7608
 30
0.0
 10
-12.2111
 20
-4.7106
 30
0.0
  0
SPLINE
  5
DA
330
1F
100
AcDbEntity
  8
DEFAULT_1
 62
   250
100
AcDbSpline
210
0.0
220
0.0
230
1.0
 70
     8
 71
     3
 72
     8
 73
     4
 74
     0
 42
0.0000000001
 43
0.0000000001
 40
0.0
 40
0.0
 40
0.0
 40
0.0
 40
1.0
 40
1.0
 40
1.0
 40
1.0
 10
-18.4633
 20
-5.0629
 30
0.0
 10
-18.6121
 20
-5.1358
 30
0.0
 10
-18.7065
 20
-5.287
 30
0.0
 10
-18.7065
 20
-5.4528
 30
0.0
  0
SPLINE
  5
DB
330
1F
100
AcDbEntity
  8
DEFAULT_1
 62
   250
100
AcDbSpline
210
0.0
220
0.0
230
1.0
 70
     8
 71
     3
 72
     8
 73
     4
 74
     0
 42
0.0000000001
 43
0.0000000001
 40
0.0
 40
0.0
 40
0.0
 40
0.0
 40
1.0
 40
1.0
 40
1.0
 40
1.0
 10
-8.6681
 20
-5.4528
 30
0.0
 10
-8.6681
 20
-5.2379
 30
0.0
 10
-8.8253
 20
-5.0553
 30
0.0
 10
-9.0377
 20
-5.0234
 30
0.0
  0
SPLINE
  5
DC
330
1F
100
AcDbEntity
  8
DEFAULT_1
 62
   250
100
AcDbSpline
210
0.0
220
0.0
230
1.0
 70
     8
 71
     3
 72
    32
 73
    28
 74
     0
 42
0.0000000001
 43
0.0000000001
 40
0.0
 40
0.0
 40
0.0
 40
0.0
 40
0.125
 40
0.125
 40
0.125
 40
0.125
 40
0.25
 40
0.25
 40
0.25
 40
0.25
 40
0.375
 40
0.375
 40
0.375
 40
0.375
 40
0.5
 40
0.5
 40
0.5
 40
0.5
 40
0.625
 40
0.625
 40
0.625
 40
0.625
 40
0.75
 40
0.75
 40
0.75
 40
0.75
 40
1.0
 40
1.0
 40
1.0
 40
1.0
 10
-18.3459
 20
-0.8504
 30
0.0
 10
-18.3459
 20
-0.8504
 30
0.0
 10
-18.3753
 20
-0.8529
 30
0.0
 10
-18.3753
 20
-0.8529
 30
0.0
 10
-18.3753
 20
-0.8529
 30
0.0
 10
-18.3753
 20
-0.8529
 30
0.0
 10
-18.4317
 20
-0.8729
 30
0.0
 10
-18.4317
 20
-0.8729
 30
0.0
 10
-18.4317
 20
-0.8729
 30
0.0
 10
-18.4317
 20
-0.8729
 30
0.0
 10
-18.4822
 20
-0.9119
 30
0.0
 10
-18.4822
 20
-0.9119
 30
0.0
 10
-18.4822
 20
-0.9119
 30
0.0
 10
-18.4822
 20
-0.9119
 30
0.0
 10
-18.5241
 20
-0.9675
 30
0.0
 10
-18.5241
 20
-0.9675
 30
0.0
 10
-18.5241
 20
-0.9675
 30
0.0
 10
-18.5241
 20
-0.9675
 30
0.0
 10
-18.5556
 20
-1.0365
 30
0.0
 10
-18.5556
 20
-1.0365
 30
0.0
 10
-18.5556
 20
-1.0365
 30
0.0
 10
-18.5556
 20
-1.0365
 30
0.0
 10
-18.5749
 20
-1.1147
 30
0.0
 10
-18.5749
 20
-1.1147
 30
0.0
 10
-18.5749
 20
-1.1147
 30
0.0
 10
-18.5749
 20
-1.1147
 30
0.0
 10
-18.5815
 20
-1.1978
 30
0.0
 10
-18.5815
 20
-1.1978
 30
0.0
  0
SPLINE
  5
DD
330
1F
100
AcDbEntity
  8
DEFAULT_1
 62
   250
100
AcDbSpline
210
0.0
220
0.0
230
1.0
 70
     8
 71
     3
 72
    32
 73
    28
 74
     0
 42
0.0000000001
 43
0.0000000001
 40
0.0
 40
0.0
 40
0.0
 40
0.0
 40
0.125
 40
0.125
 40
0.125
 40
0.125
 40
0.25
 40
0.25
 40
0.25
 40
0.25
 40
0.375
 40
0.375
 40
0.375
 40
0.375
 40
0.5
 40
0.5
 40
0.5
 40
0.5
 40
0.625
 40
0.625
 40
0.625
 40
0.625
 40
0.75
 40
0.75
 40
0.75
 40
0.75
 40
1.0
 40
1.0
 40
1.0
 40
1.0
 10
-4.6
 20
-6.357
 30
0.0
 10
-4.6
 20
-6.357
 30
0.0
 10
-4.6024
 20
-6.3275
 30
0.0
 10
-4.6024
 20
-6.3275
 30
0.0
 10
-4.6024
 20
-6.3275
 30
0.0
 10
-4.6024
 20
-6.3275
 30
0.0
 10
-4.6224
 20
-6.2712
 30
0.0
 10
-4.6224
 20
-6.2712
 30
0.0
 10
-4.6224
 20
-6.2712
 30
0.0
 10
-4.6224
 20
-6.2712
 30
0.0
 10
-4.6614
 20
-6.2207
 30
0.0
 10
-4.6614
 20
-6.2207
 30
0.0
 10
-4.6614
 20
-6.2207
 30
0.0
 10
-4.6614
 20
-6.2207
 30
0.0
 10
-4.717
 20
-6.1787
 30
0.0
 10
-4.717
 20
-6.1787
 30
0.0
 10
-4.717
 20
-6.1787
 30
0.0
 10
-4.717
 20
-6.1787
 30
0.0
 10
-4.786
 20
-6.1473
 30
0.0
 10
-4.786
 20
-6.1473
 30
0.0
 10
-4.786
 20
-6.1473
 30
0.0
 10
-4.786
 20
-6.1473
 30
0.0
 10
-4.8642
 20
-6.1279
 30
0.0
 10
-4.8642
 20
-6.1279
 30
0.0
 10
-4.8642
 20
-6.1279
 30
0.0
 10
-4.8642
 20
-6.1279
 30
0.0
 10
-4.9473
 20
-6.1214
 30
0.0
 10
-4.9473
 20
-6.1214
 30
0.0
  0
SPLINE
  5
DE
330
1F
100
AcDbEntity
  8
DEFAULT_1
 62
   250
100
AcDbSpline
210
0.0
220
0.0
230
1.0
 70
     8
 71
     3
 72
    32
 73
    28
 74
     0
 42
0.0000000001
 43
0.0000000001
 40
0.0
 40
0.0
 40
0.0
 40
0.0
 40
0.125
 40
0.125
 40
0.125
 40
0.125
 40
0.25
 40
0.25
 40
0.25
 40
0.25
 40
0.375
 40
0.375
 40
0.375
 40
0.375
 40
0.5
 40
0.5
 40
0.5
 40
0.5
 40
0.625
 40
0.625
 40
0.625
 40
0.625
 40
0.75
 40
0.75
 40
0.75
 40
0.75
 40
1.0
 40
1.0
 40
1.0
 40
1.0
 10
-12.3284
 20
-0.8504
 30
0.0
 10
-12.3284
 20
-0.8504
 30
0.0
 10
-12.299
 20
-0.8529
 30
0.0
 10
-12.299
 20
-0.8529
 30
0.0
 10
-12.299
 20
-0.8529
 30
0.0
 10
-12.299
 20
-0.8529
 30
0.0
 10
-12.2427
 20
-0.8729
 30
0.0
 10
-12.2427
 20
-0.8729
 30
0.0
 10
-12.2427
 20
-0.8729
 30
0.0
 10
-12.2427
 20
-0.8729
 30
0.0
 10
-12.1922
 20
-0.9119
 30
0.0
 10
-12.1922
 20
-0.9119
 30
0.0
 10
-12.1922
 20
-0.9119
 30
0.0
 10
-12.1922
 20
-0.9119
 30
0.0
 10
-12.1502
 20
-0.9675
 30
0.0
 10
-12.1502
 20
-0.9675
 30
0.0
 10
-12.1502
 20
-0.9675
 30
0.0
 10
-12.1502
 20
-0.9675
 30
0.0
 10
-12.1188
 20
-1.0365
 30
0.0
 10
-12.1188
 20
-1.0365
 30
0.0
 10
-12.1188
 20
-1.0365
 30
0.0
 10
-12.1188
 20
-1.0365
 30
0.0
 10
-12.0994
 20
-1.1147
 30
0.0
 10
-12.0994
 20
-1.1147
 30
0.0
 10
-12.0994
 20
-1.1147
 30
0.0
 10
-12.0994
 20
-1.1147
 30
0.0
 10
-12.0929
 20
-1.1978
 30
0.0
 10
-12.0929
 20
-1.1978
 30
0.0
  0
SPLINE
  5
DF
330
1F
100
AcDbEntity
  8
DEFAULT_1
 62
   250
100
AcDbSpline
210
0.0
220
0.0
230
1.0
 70
     8
 71
     3
 72
    32
 73
    28
 74
     0
 42
0.0000000001
 43
0.0000000001
 40
0.0
 40
0.0
 40
0.0
 40
0.0
 40
0.125
 40
0.125
 40
0.125
 40
0.125
 40
0.25
 40
0.25
 40
0.25
 40
0.25
 40
0.375
 40
0.375
 40
0.375
 40
0.375
 40
0.5
 40
0.5
 40
0.5
 40
0.5
 40
0.625
 40
0.625
 40
0.625
 40
0.625
 40
0.75
 40
0.75
 40
0.75
 40
0.75
 40
1.0
 40
1.0
 40
1.0
 40
1.0
 10
-4.6
 20
-12.3745
 30
0.0
 10
-4.6
 20
-12.3745
 30
0.0
 10
-4.6024
 20
-12.4039
 30
0.0
 10
-4.6024
 20
-12.4039
 30
0.0
 10
-4.6024
 20
-12.4039
 30
0.0
 10
-4.6024
 20
-12.4039
 30
0.0
 10
-4.6224
 20
-12.4602
 30
0.0
 10
-4.6224
 20
-12.4602
 30
0.0
 10
-4.6224
 20
-12.4602
 30
0.0
 10
-4.6224
 20
-12.4602
 30
0.0
 10
-4.6614
 20
-12.5107
 30
0.0
 10
-4.6614
 20
-12.5107
 30
0.0
 10
-4.6614
 20
-12.5107
 30
0.0
 10
-4.6614
 20
-12.5107
 30
0.0
 10
-4.717
 20
-12.5527
 30
0.0
 10
-4.717
 20
-12.5527
 30
0.0
 10
-4.717
 20
-12.5527
 30
0.0
 10
-4.717
 20
-12.5527
 30
0.0
 10
-4.786
 20
-12.5841
 30
0.0
 10
-4.786
 20
-12.5841
 30
0.0
 10
-4.786
 20
-12.5841
 30
0.0
 10
-4.786
 20
-12.5841
 30
0.0
 10
-4.8642
 20
-12.6035
 30
0.0
 10
-4.8642
 20
-12.6035
 30
0.0
 10
-4.8642
 20
-12.6035
 30
0.0
 10
-4.8642
 20
-12.6035
 30
0.0
 10
-4.9473
 20
-12.61
 30
0.0
 10
-4.9473
 20
-12.61
 30
0.0
  0
SPLINE
  5
E0
330
1F
100
AcDbEntity
  8
DEFAULT_1
 62
   250
100
AcDbSpline
210
0.0
220
0.0
230
1.0
 70
     8
 71
     3
 72
    32
 73
    28
 74
     0
 42
0.0000000001
 43
0.0000000001
 40
0.0
 40
0.0
 40
0.0
 40
0.0
 40
0.125
 40
0.125
 40
0.125
 40
0.125
 40
0.25
 40
0.25
 40
0.25
 40
0.25
 40
0.375
 40
0.375
 40
0.375
 40
0.375
 40
0.5
 40
0.5
 40
0.5
 40
0.5
 40
0.625
 40
0.625
 40
0.625
 40
0.625
 40
0.75
 40
0.75
 40
0.75
 40
0.75
 40
1.0
 40
1.0
 40
1.0
 40
1.0
 10
-19.4909
 20
-1.1978
 30
0.0
 10
-19.4909
 20
-1.1978
 30
0.0
 10
-19.4915
 20
-1.121
 30
0.0
 10
-19.4915
 20
-1.121
 30
0.0
 10
-19.4915
 20
-1.121
 30
0.0
 10
-19.4915
 20
-1.121
 30
0.0
 10
-19.4936
 20
-1.0466
 30
0.0
 10
-19.4936
 20
-1.0466
 30
0.0
 10
-19.4936
 20
-1.0466
 30
0.0
 10
-19.4936
 20
-1.0466
 30
0.0
 10
-19.4965
 20
-0.9807
 30
0.0
 10
-19.4965
 20
-0.9807
 30
0.0
 10
-19.4965
 20
-0.9807
 30
0.0
 10
-19.4965
 20
-0.9807
 30
0.0
 10
-19.4997
 20
-0.9266
 30
0.0
 10
-19.4997
 20
-0.9266
 30
0.0
 10
-19.4997
 20
-0.9266
 30
0.0
 10
-19.4997
 20
-0.9266
 30
0.0
 10
-19.5026
 20
-0.8848
 30
0.0
 10
-19.5026
 20
-0.8848
 30
0.0
 10
-19.5026
 20
-0.8848
 30
0.0
 10
-19.5026
 20
-0.8848
 30
0.0
 10
-19.5046
 20
-0.859
 30
0.0
 10
-19.5046
 20
-0.859
 30
0.0
 10
-19.5046
 20
-0.859
 30
0.0
 10
-19.5046
 20
-0.859
 30
0.0
 10
-19.5054
 20
-0.8504
 30
0.0
 10
-19.5054
 20
-0.8504
 30
0.0
  0
SPLINE
  5
E1
330
1F
100
AcDbEntity
  8
DEFAULT_1
 62
   250
100
AcDbSpline
210
0.0
220
0.0
230
1.0
 70
     8
 71
     3
 72
    32
 73
    28
 74
     0
 42
0.0000000001
 43
0.0000000001
 40
0.0
 40
0.0
 40
0.0
 40
0.0
 40
0.125
 40
0.125
 40
0.125
 40
0.125
 40
0.25
 40
0.25
 40
0.25
 40
0.25
 40
0.375
 40
0.375
 40
0.375
 40
0.375
 40
0.5
 40
0.5
 40
0.5
 40
0.5
 40
0.625
 40
0.625
 40
0.625
 40
0.625
 40
0.75
 40
0.75
 40
0.75
 40
0.75
 40
1.0
 40
1.0
 40
1.0
 40
1.0
 10
-4.9473
 20
-5.212
 30
0.0
 10
-4.9473
 20
-5.212
 30
0.0
 10
-4.8705
 20
-5.2113
 30
0.0
 10
-4.8705
 20
-5.2113
 30
0.0
 10
-4.8705
 20
-5.2113
 30
0.0
 10
-4.8705
 20
-5.2113
 30
0.0
 10
-4.7961
 20
-5.2093
 30
0.0
 10
-4.7961
 20
-5.2093
 30
0.0
 10
-4.7961
 20
-5.2093
 30
0.0
 10
-4.7961
 20
-5.2093
 30
0.0
 10
-4.7302
 20
-5.2064
 30
0.0
 10
-4.7302
 20
-5.2064
 30
0.0
 10
-4.7302
 20
-5.2064
 30
0.0
 10
-4.7302
 20
-5.2064
 30
0.0
 10
-4.6761
 20
-5.2032
 30
0.0
 10
-4.6761
 20
-5.2032
 30
0.0
 10
-4.6761
 20
-5.2032
 30
0.0
 10
-4.6761
 20
-5.2032
 30
0.0
 10
-4.6343
 20
-5.2003
 30
0.0
 10
-4.6343
 20
-5.2003
 30
0.0
 10
-4.6343
 20
-5.2003
 30
0.0
 10
-4.6343
 20
-5.2003
 30
0.0
 10
-4.6085
 20
-5.1983
 30
0.0
 10
-4.6085
 20
-5.1983
 30
0.0
 10
-4.6085
 20
-5.1983
 30
0.0
 10
-4.6085
 20
-5.1983
 30
0.0
 10
-4.5999
 20
-5.1975
 30
0.0
 10
-4.5999
 20
-5.1975
 30
0.0
  0
SPLINE
  5
E2
330
1F
100
AcDbEntity
  8
DEFAULT_1
 62
   250
100
AcDbSpline
210
0.0
220
0.0
230
1.0
 70
     8
 71
     3
 72
    32
 73
    28
 74
     0
 42
0.0000000001
 43
0.0000000001
 40
0.0
 40
0.0
 40
0.0
 40
0.0
 40
0.125
 40
0.125
 40
0.125
 40
0.125
 40
0.25
 40
0.25
 40
0.25
 40
0.25
 40
0.375
 40
0.375
 40
0.375
 40
0.375
 40
0.5
 40
0.5
 40
0.5
 40
0.5
 40
0.625
 40
0.625
 40
0.625
 40
0.625
 40
0.75
 40
0.75
 40
0.75
 40
0.75
 40
1.0
 40
1.0
 40
1.0
 40
1.0
 10
-18.0903
 20
-1.1978
 30
0.0
 10
-18.0903
 20
-1.1978
 30
0.0
 10
-18.0979
 20
-1.1147
 30
0.0
 10
-18.0979
 20
-1.1147
 30
0.0
 10
-18.0979
 20
-1.1147
 30
0.0
 10
-18.0979
 20
-1.1147
 30
0.0
 10
-18.1205
 20
-1.0365
 30
0.0
 10
-18.1205
 20
-1.0365
 30
0.0
 10
-18.1205
 20
-1.0365
 30
0.0
 10
-18.1205
 20
-1.0365
 30
0.0
 10
-18.1564
 20
-0.9675
 30
0.0
 10
-18.1564
 20
-0.9675
 30
0.0
 10
-18.1564
 20
-0.9675
 30
0.0
 10
-18.1564
 20
-0.9675
 30
0.0
 10
-18.2032
 20
-0.9119
 30
0.0
 10
-18.2032
 20
-0.9119
 30
0.0
 10
-18.2032
 20
-0.9119
 30
0.0
 10
-18.2032
 20
-0.9119
 30
0.0
 10
-18.2576
 20
-0.8729
 30
0.0
 10
-18.2576
 20
-0.8729
 30
0.0
 10
-18.2576
 20
-0.8729
 30
0.0
 10
-18.2576
 20
-0.8729
 30
0.0
 10
-18.3162
 20
-0.8529
 30
0.0
 10
-18.3162
 20
-0.8529
 30
0.0
 10
-18.3162
 20
-0.8529
 30
0.0
 10
-18.3162
 20
-0.8529
 30
0.0
 10
-18.3459
 20
-0.8504
 30
0.0
 10
-18.3459
 20
-0.8504
 30
0.0
  0
SPLINE
  5
E3
330
1F
100
AcDbEntity
  8
DEFAULT_1
 62
   250
100
AcDbSpline
210
0.0
220
0.0
230
1.0
 70
     8
 71
     3
 72
    32
 73
    28
 74
     0
 42
0.0000000001
 43
0.0000000001
 40
0.0
 40
0.0
 40
0.0
 40
0.0
 40
0.125
 40
0.125
 40
0.125
 40
0.125
 40
0.25
 40
0.25
 40
0.25
 40
0.25
 40
0.375
 40
0.375
 40
0.375
 40
0.375
 40
0.5
 40
0.5
 40
0.5
 40
0.5
 40
0.625
 40
0.625
 40
0.625
 40
0.625
 40
0.75
 40
0.75
 40
0.75
 40
0.75
 40
1.0
 40
1.0
 40
1.0
 40
1.0
 10
-4.9473
 20
-6.6126
 30
0.0
 10
-4.9473
 20
-6.6126
 30
0.0
 10
-4.8642
 20
-6.6049
 30
0.0
 10
-4.8642
 20
-6.6049
 30
0.0
 10
-4.8642
 20
-6.6049
 30
0.0
 10
-4.8642
 20
-6.6049
 30
0.0
 10
-4.786
 20
-6.5824
 30
0.0
 10
-4.786
 20
-6.5824
 30
0.0
 10
-4.786
 20
-6.5824
 30
0.0
 10
-4.786
 20
-6.5824
 30
0.0
 10
-4.717
 20
-6.5465
 30
0.0
 10
-4.717
 20
-6.5465
 30
0.0
 10
-4.717
 20
-6.5465
 30
0.0
 10
-4.717
 20
-6.5465
 30
0.0
 10
-4.6614
 20
-6.4997
 30
0.0
 10
-4.6614
 20
-6.4997
 30
0.0
 10
-4.6614
 20
-6.4997
 30
0.0
 10
-4.6614
 20
-6.4997
 30
0.0
 10
-4.6224
 20
-6.4453
 30
0.0
 10
-4.6224
 20
-6.4453
 30
0.0
 10
-4.6224
 20
-6.4453
 30
0.0
 10
-4.6224
 20
-6.4453
 30
0.0
 10
-4.6024
 20
-6.3867
 30
0.0
 10
-4.6024
 20
-6.3867
 30
0.0
 10
-4.6024
 20
-6.3867
 30
0.0
 10
-4.6024
 20
-6.3867
 30
0.0
 10
-4.6
 20
-6.357
 30
0.0
 10
-4.6
 20
-6.357
 30
0.0
  0
SPLINE
  5
E4
330
1F
100
AcDbEntity
  8
DEFAULT_1
 62
   250
100
AcDbSpline
210
0.0
220
0.0
230
1.0
 70
     8
 71
     3
 72
    32
 73
    28
 74
     0
 42
0.0000000001
 43
0.0000000001
 40
0.0
 40
0.0
 40
0.0
 40
0.0
 40
0.125
 40
0.125
 40
0.125
 40
0.125
 40
0.25
 40
0.25
 40
0.25
 40
0.25
 40
0.375
 40
0.375
 40
0.375
 40
0.375
 40
0.5
 40
0.5
 40
0.5
 40
0.5
 40
0.625
 40
0.625
 40
0.625
 40
0.625
 40
0.75
 40
0.75
 40
0.75
 40
0.75
 40
1.0
 40
1.0
 40
1.0
 40
1.0
 10
-12.5841
 20
-1.1978
 30
0.0
 10
-12.5841
 20
-1.1978
 30
0.0
 10
-12.5764
 20
-1.1147
 30
0.0
 10
-12.5764
 20
-1.1147
 30
0.0
 10
-12.5764
 20
-1.1147
 30
0.0
 10
-12.5764
 20
-1.1147
 30
0.0
 10
-12.5538
 20
-1.0365
 30
0.0
 10
-12.5538
 20
-1.0365
 30
0.0
 10
-12.5538
 20
-1.0365
 30
0.0
 10
-12.5538
 20
-1.0365
 30
0.0
 10
-12.5179
 20
-0.9675
 30
0.0
 10
-12.5179
 20
-0.9675
 30
0.0
 10
-12.5179
 20
-0.9675
 30
0.0
 10
-12.5179
 20
-0.9675
 30
0.0
 10
-12.4711
 20
-0.9119
 30
0.0
 10
-12.4711
 20
-0.9119
 30
0.0
 10
-12.4711
 20
-0.9119
 30
0.0
 10
-12.4711
 20
-0.9119
 30
0.0
 10
-12.4167
 20
-0.8729
 30
0.0
 10
-12.4167
 20
-0.8729
 30
0.0
 10
-12.4167
 20
-0.8729
 30
0.0
 10
-12.4167
 20
-0.8729
 30
0.0
 10
-12.3582
 20
-0.8529
 30
0.0
 10
-12.3582
 20
-0.8529
 30
0.0
 10
-12.3582
 20
-0.8529
 30
0.0
 10
-12.3582
 20
-0.8529
 30
0.0
 10
-12.3284
 20
-0.8504
 30
0.0
 10
-12.3284
 20
-0.8504
 30
0.0
  0
SPLINE
  5
E5
330
1F
100
AcDbEntity
  8
DEFAULT_1
 62
   250
100
AcDbSpline
210
0.0
220
0.0
230
1.0
 70
     8
 71
     3
 72
    32
 73
    28
 74
     0
 42
0.0000000001
 43
0.0000000001
 40
0.0
 40
0.0
 40
0.0
 40
0.0
 40
0.125
 40
0.125
 40
0.125
 40
0.125
 40
0.25
 40
0.25
 40
0.25
 40
0.25
 40
0.375
 40
0.375
 40
0.375
 40
0.375
 40
0.5
 40
0.5
 40
0.5
 40
0.5
 40
0.625
 40
0.625
 40
0.625
 40
0.625
 40
0.75
 40
0.75
 40
0.75
 40
0.75
 40
1.0
 40
1.0
 40
1.0
 40
1.0
 10
-4.9473
 20
-12.1188
 30
0.0
 10
-4.9473
 20
-12.1188
 30
0.0
 10
-4.8642
 20
-12.1265
 30
0.0
 10
-4.8642
 20
-12.1265
 30
0.0
 10
-4.8642
 20
-12.1265
 30
0.0
 10
-4.8642
 20
-12.1265
 30
0.0
 10
-4.786
 20
-12.1491
 30
0.0
 10
-4.786
 20
-12.1491
 30
0.0
 10
-4.786
 20
-12.1491
 30
0.0
 10
-4.786
 20
-12.1491
 30
0.0
 10
-4.717
 20
-12.185
 30
0.0
 10
-4.717
 20
-12.185
 30
0.0
 10
-4.717
 20
-12.185
 30
0.0
 10
-4.717
 20
-12.185
 30
0.0
 10
-4.6614
 20
-12.2318
 30
0.0
 10
-4.6614
 20
-12.2318
 30
0.0
 10
-4.6614
 20
-12.2318
 30
0.0
 10
-4.6614
 20
-12.2318
 30
0.0
 10
-4.6224
 20
-12.2862
 30
0.0
 10
-4.6224
 20
-12.2862
 30
0.0
 10
-4.6224
 20
-12.2862
 30
0.0
 10
-4.6224
 20
-12.2862
 30
0.0
 10
-4.6024
 20
-12.3447
 30
0.0
 10
-4.6024
 20
-12.3447
 30
0.0
 10
-4.6024
 20
-12.3447
 30
0.0
 10
-4.6024
 20
-12.3447
 30
0.0
 10
-4.6
 20
-12.3745
 30
0.0
 10
-4.6
 20
-12.3745
 30
0.0
  0
SPLINE
  5
E6
330
1F
100
AcDbEntity
  8
DEFAULT_1
 62
   250
100
AcDbSpline
210
0.0
220
0.0
230
1.0
 70
     8
 71
     3
 72
    32
 73
    28
 74
     0
 42
0.0000000001
 43
0.0000000001
 40
0.0
 40
0.0
 40
0.0
 40
0.0
 40
0.125
 40
0.125
 40
0.125
 40
0.125
 40
0.25
 40
0.25
 40
0.25
 40
0.25
 40
0.375
 40
0.375
 40
0.375
 40
0.375
 40
0.5
 40
0.5
 40
0.5
 40
0.5
 40
0.625
 40
0.625
 40
0.625
 40
0.625
 40
0.75
 40
0.75
 40
0.75
 40
0.75
 40
1.0
 40
1.0
 40
1.0
 40
1.0
 10
-11.169
 20
-0.8504
 30
0.0
 10
-11.169
 20
-0.8504
 30
0.0
 10
-11.1697
 20
-0.859
 30
0.0
 10
-11.1697
 20
-0.859
 30
0.0
 10
-11.1697
 20
-0.859
 30
0.0
 10
-11.1697
 20
-0.859
 30
0.0
 10
-11.1718
 20
-0.8849
 30
0.0
 10
-11.1718
 20
-0.8849
 30
0.0
 10
-11.1718
 20
-0.8849
 30
0.0
 10
-11.1718
 20
-0.8849
 30
0.0
 10
-11.1747
 20
-0.9266
 30
0.0
 10
-11.1747
 20
-0.9266
 30
0.0
 10
-11.1747
 20
-0.9266
 30
0.0
 10
-11.1747
 20
-0.9266
 30
0.0
 10
-11.1778
 20
-0.9807
 30
0.0
 10
-11.1778
 20
-0.9807
 30
0.0
 10
-11.1778
 20
-0.9807
 30
0.0
 10
-11.1778
 20
-0.9807
 30
0.0
 10
-11.1807
 20
-1.0466
 30
0.0
 10
-11.1807
 20
-1.0466
 30
0.0
 10
-11.1807
 20
-1.0466
 30
0.0
 10
-11.1807
 20
-1.0466
 30
0.0
 10
-11.1828
 20
-1.1211
 30
0.0
 10
-11.1828
 20
-1.1211
 30
0.0
 10
-11.1828
 20
-1.1211
 30
0.0
 10
-11.1828
 20
-1.1211
 30
0.0
 10
-11.1835
 20
-1.1978
 30
0.0
 10
-11.1835
 20
-1.1978
 30
0.0
  0
SPLINE
  5
E7
330
1F
100
AcDbEntity
  8
DEFAULT_1
 62
   250
100
AcDbSpline
210
0.0
220
0.0
230
1.0
 70
     8
 71
     3
 72
    32
 73
    28
 74
     0
 42
0.0000000001
 43
0.0000000001
 40
0.0
 40
0.0
 40
0.0
 40
0.0
 40
0.125
 40
0.125
 40
0.125
 40
0.125
 40
0.25
 40
0.25
 40
0.25
 40
0.25
 40
0.375
 40
0.375
 40
0.375
 40
0.375
 40
0.5
 40
0.5
 40
0.5
 40
0.5
 40
0.625
 40
0.625
 40
0.625
 40
0.625
 40
0.75
 40
0.75
 40
0.75
 40
0.75
 40
1.0
 40
1.0
 40
1.0
 40
1.0
 10
-4.5999
 20
-13.5339
 30
0.0
 10
-4.5999
 20
-13.5339
 30
0.0
 10
-4.6085
 20
-13.5332
 30
0.0
 10
-4.6085
 20
-13.5332
 30
0.0
 10
-4.6085
 20
-13.5332
 30
0.0
 10
-4.6085
 20
-13.5332
 30
0.0
 10
-4.6344
 20
-13.5311
 30
0.0
 10
-4.6344
 20
-13.5311
 30
0.0
 10
-4.6344
 20
-13.5311
 30
0.0
 10
-4.6344
 20
-13.5311
 30
0.0
 10
-4.6761
 20
-13.5282
 30
0.0
 10
-4.6761
 20
-13.5282
 30
0.0
 10
-4.6761
 20
-13.5282
 30
0.0
 10
-4.6761
 20
-13.5282
 30
0.0
 10
-4.7302
 20
-13.5251
 30
0.0
 10
-4.7302
 20
-13.5251
 30
0.0
 10
-4.7302
 20
-13.5251
 30
0.0
 10
-4.7302
 20
-13.5251
 30
0.0
 10
-4.7961
 20
-13.5221
 30
0.0
 10
-4.7961
 20
-13.5221
 30
0.0
 10
-4.7961
 20
-13.5221
 30
0.0
 10
-4.7961
 20
-13.5221
 30
0.0
 10
-4.8706
 20
-13.5201
 30
0.0
 10
-4.8706
 20
-13.5201
 30
0.0
 10
-4.8706
 20
-13.5201
 30
0.0
 10
-4.8706
 20
-13.5201
 30
0.0
 10
-4.9473
 20
-13.5194
 30
0.0
 10
-4.9473
 20
-13.5194
 30
0.0
  0
SPLINE
  5
E8
330
1F
100
AcDbEntity
  8
DEFAULT_1
 62
   250
100
AcDbSpline
210
0.0
220
0.0
230
1.0
 70
     8
 71
     3
 72
    28
 73
    24
 74
     0
 42
0.0000000001
 43
0.0000000001
 40
0.0
 40
0.0
 40
0.0
 40
0.0
 40
0.1428571428571428
 40
0.1428571428571428
 40
0.1428571428571428
 40
0.1428571428571428
 40
0.2857142857142857
 40
0.2857142857142857
 40
0.2857142857142857
 40
0.2857142857142857
 40
0.4285714285714285
 40
0.4285714285714285
 40
0.4285714285714285
 40
0.4285714285714285
 40
0.5714285714285714
 40
0.5714285714285714
 40
0.5714285714285714
 40
0.5714285714285714
 40
0.7142857142857143
 40
0.7142857142857143
 40
0.7142857142857143
 40
0.7142857142857143
 40
1.0
 40
1.0
 40
1.0
 40
1.0
 10
-9.6961
 20
-23.0806
 30
0.0
 10
-9.6961
 20
-23.0806
 30
0.0
 10
-9.6331
 20
-23.0688
 30
0.0
 10
-9.6331
 20
-23.0688
 30
0.0
 10
-9.6331
 20
-23.0688
 30
0.0
 10
-9.6331
 20
-23.0688
 30
0.0
 10
-9.5752
 20
-23.0341
 30
0.0
 10
-9.5752
 20
-23.0341
 30
0.0
 10
-9.5752
 20
-23.0341
 30
0.0
 10
-9.5752
 20
-23.0341
 30
0.0
 10
-9.5262
 20
-22.9789
 30
0.0
 10
-9.5262
 20
-22.9789
 30
0.0
 10
-9.5262
 20
-22.9789
 30
0.0
 10
-9.5262
 20
-22.9789
 30
0.0
 10
-9.489
 20
-22.9069
 30
0.0
 10
-9.489
 20
-22.9069
 30
0.0
 10
-9.489
 20
-22.9069
 30
0.0
 10
-9.489
 20
-22.9069
 30
0.0
 10
-9.4659
 20
-22.8232
 30
0.0
 10
-9.4659
 20
-22.8232
 30
0.0
 10
-9.4659
 20
-22.8232
 30
0.0
 10
-9.4659
 20
-22.8232
 30
0.0
 10
-9.458
 20
-22.7333
 30
0.0
 10
-9.458
 20
-22.7333
 30
0.0
  0
SPLINE
  5
E9
330
1F
100
AcDbEntity
  8
DEFAULT_1
 62
   250
100
AcDbSpline
210
0.0
220
0.0
230
1.0
 70
     8
 71
     3
 72
    28
 73
    24
 74
     0
 42
0.0000000001
 43
0.0000000001
 40
0.0
 40
0.0
 40
0.0
 40
0.0
 40
0.1428571428571428
 40
0.1428571428571428
 40
0.1428571428571428
 40
0.1428571428571428
 40
0.2857142857142857
 40
0.2857142857142857
 40
0.2857142857142857
 40
0.2857142857142857
 40
0.4285714285714285
 40
0.4285714285714285
 40
0.4285714285714285
 40
0.4285714285714285
 40
0.5714285714285714
 40
0.5714285714285714
 40
0.5714285714285714
 40
0.5714285714285714
 40
0.7142857142857143
 40
0.7142857142857143
 40
0.7142857142857143
 40
0.7142857142857143
 40
1.0
 40
1.0
 40
1.0
 40
1.0
 10
-17.6784
 20
-23.0806
 30
0.0
 10
-17.6784
 20
-23.0806
 30
0.0
 10
-17.7414
 20
-23.0689
 30
0.0
 10
-17.7414
 20
-23.0689
 30
0.0
 10
-17.7414
 20
-23.0689
 30
0.0
 10
-17.7414
 20
-23.0689
 30
0.0
 10
-17.7993
 20
-23.0342
 30
0.0
 10
-17.7993
 20
-23.0342
 30
0.0
 10
-17.7993
 20
-23.0342
 30
0.0
 10
-17.7993
 20
-23.0342
 30
0.0
 10
-17.8483
 20
-22.979
 30
0.0
 10
-17.8483
 20
-22.979
 30
0.0
 10
-17.8483
 20
-22.979
 30
0.0
 10
-17.8483
 20
-22.979
 30
0.0
 10
-17.8855
 20
-22.9069
 30
0.0
 10
-17.8855
 20
-22.9069
 30
0.0
 10
-17.8855
 20
-22.9069
 30
0.0
 10
-17.8855
 20
-22.9069
 30
0.0
 10
-17.9086
 20
-22.8232
 30
0.0
 10
-17.9086
 20
-22.8232
 30
0.0
 10
-17.9086
 20
-22.8232
 30
0.0
 10
-17.9086
 20
-22.8232
 30
0.0
 10
-17.9165
 20
-22.7333
 30
0.0
 10
-17.9165
 20
-22.7333
 30
0.0
  0
SPLINE
  5
EA
330
1F
100
AcDbEntity
  8
DEFAULT_1
 62
   250
100
AcDbSpline
210
0.0
220
0.0
230
1.0
 70
    24
 71
     3
 72
     8
 73
     4
 74
     0
 42
0.0000000001
 43
0.0000000001
 40
0.0
 40
0.0
 40
0.0
 40
0.0
 40
1.0
 40
1.0
 40
1.0
 40
1.0
 10
-19.2448
 20
-23.0806
 30
0.0
 10
-19.2448
 20
-23.0806
 30
0.0
 10
-19.2441
 20
-23.0682
 30
0.0
 10
-19.2441
 20
-23.0682
 30
0.0
  0
SPLINE
  5
EB
330
1F
100
AcDbEntity
  8
DEFAULT_1
 62
   250
100
AcDbSpline
210
0.0
220
0.0
230
1.0
 70
     8
 71
     3
 72
    24
 73
    20
 74
     0
 42
0.0000000001
 43
0.0000000001
 40
0.0
 40
0.0
 40
0.0
 40
0.0
 40
0.1666666666666667
 40
0.1666666666666667
 40
0.1666666666666667
 40
0.1666666666666667
 40
0.3333333333333333
 40
0.3333333333333333
 40
0.3333333333333333
 40
0.3333333333333333
 40
0.5
 40
0.5
 40
0.5
 40
0.5
 40
0.6666666666666666
 40
0.6666666666666666
 40
0.6666666666666666
 40
0.6666666666666666
 40
1.0
 40
1.0
 40
1.0
 40
1.0
 10
-19.2441
 20
-23.0682
 30
0.0
 10
-19.2441
 20
-23.0682
 30
0.0
 10
-19.2421
 20
-23.0328
 30
0.0
 10
-19.2421
 20
-23.0328
 30
0.0
 10
-19.2421
 20
-23.0328
 30
0.0
 10
-19.2421
 20
-23.0328
 30
0.0
 10
-19.2393
 20
-22.9774
 30
0.0
 10
-19.2393
 20
-22.9774
 30
0.0
 10
-19.2393
 20
-22.9774
 30
0.0
 10
-19.2393
 20
-22.9774
 30
0.0
 10
-19.2366
 20
-22.9056
 30
0.0
 10
-19.2366
 20
-22.9056
 30
0.0
 10
-19.2366
 20
-22.9056
 30
0.0
 10
-19.2366
 20
-22.9056
 30
0.0
 10
-19.2347
 20
-22.8221
 30
0.0
 10
-19.2347
 20
-22.8221
 30
0.0
 10
-19.2347
 20
-22.8221
 30
0.0
 10
-19.2347
 20
-22.8221
 30
0.0
 10
-19.2339
 20
-22.7333
 30
0.0
 10
-19.2339
 20
-22.7333
 30
0.0
  0
SPLINE
  5
EC
330
1F
100
AcDbEntity
  8
DEFAULT_1
 62
   250
100
AcDbSpline
210
0.0
220
0.0
230
1.0
 70
     8
 71
     3
 72
    24
 73
    20
 74
     0
 42
0.0000000001
 43
0.0000000001
 40
0.0
 40
0.0
 40
0.0
 40
0.0
 40
0.1666666666666667
 40
0.1666666666666667
 40
0.1666666666666667
 40
0.1666666666666667
 40
0.3333333333333333
 40
0.3333333333333333
 40
0.3333333333333333
 40
0.3333333333333333
 40
0.5
 40
0.5
 40
0.5
 40
0.5
 40
0.6666666666666666
 40
0.6666666666666666
 40
0.6666666666666666
 40
0.6666666666666666
 40
1.0
 40
1.0
 40
1.0
 40
1.0
 10
-17.4253
 20
-22.7333
 30
0.0
 10
-17.4253
 20
-22.7333
 30
0.0
 10
-17.4341
 20
-22.8231
 30
0.0
 10
-17.4341
 20
-22.8231
 30
0.0
 10
-17.4341
 20
-22.8231
 30
0.0
 10
-17.4341
 20
-22.8231
 30
0.0
 10
-17.46
 20
-22.9068
 30
0.0
 10
-17.46
 20
-22.9068
 30
0.0
 10
-17.46
 20
-22.9068
 30
0.0
 10
-17.46
 20
-22.9068
 30
0.0
 10
-17.5009
 20
-22.9788
 30
0.0
 10
-17.5009
 20
-22.9788
 30
0.0
 10
-17.5009
 20
-22.9788
 30
0.0
 10
-17.5009
 20
-22.9788
 30
0.0
 10
-17.5537
 20
-23.0341
 30
0.0
 10
-17.5537
 20
-23.0341
 30
0.0
 10
-17.5537
 20
-23.0341
 30
0.0
 10
-17.5537
 20
-23.0341
 30
0.0
 10
-17.6143
 20
-23.0688
 30
0.0
 10
-17.6143
 20
-23.0688
 30
0.0
  0
SPLINE
  5
ED
330
1F
100
AcDbEntity
  8
DEFAULT_1
 62
   250
100
AcDbSpline
210
0.0
220
0.0
230
1.0
 70
     8
 71
     3
 72
    24
 73
    20
 74
     0
 42
0.0000000001
 43
0.0000000001
 40
0.0
 40
0.0
 40
0.0
 40
0.0
 40
0.1666666666666667
 40
0.1666666666666667
 40
0.1666666666666667
 40
0.1666666666666667
 40
0.3333333333333333
 40
0.3333333333333333
 40
0.3333333333333333
 40
0.3333333333333333
 40
0.5
 40
0.5
 40
0.5
 40
0.5
 40
0.6666666666666666
 40
0.6666666666666666
 40
0.6666666666666666
 40
0.6666666666666666
 40
1.0
 40
1.0
 40
1.0
 40
1.0
 10
-8.1406
 20
-22.7333
 30
0.0
 10
-8.1406
 20
-22.7333
 30
0.0
 10
-8.1399
 20
-22.8227
 30
0.0
 10
-8.1399
 20
-22.8227
 30
0.0
 10
-8.1399
 20
-22.8227
 30
0.0
 10
-8.1399
 20
-22.8227
 30
0.0
 10
-8.1379
 20
-22.9066
 30
0.0
 10
-8.1379
 20
-22.9066
 30
0.0
 10
-8.1379
 20
-22.9066
 30
0.0
 10
-8.1379
 20
-22.9066
 30
0.0
 10
-8.1352
 20
-22.9787
 30
0.0
 10
-8.1352
 20
-22.9787
 30
0.0
 10
-8.1352
 20
-22.9787
 30
0.0
 10
-8.1352
 20
-22.9787
 30
0.0
 10
-8.1324
 20
-23.0339
 30
0.0
 10
-8.1324
 20
-23.0339
 30
0.0
 10
-8.1324
 20
-23.0339
 30
0.0
 10
-8.1324
 20
-23.0339
 30
0.0
 10
-8.1305
 20
-23.0686
 30
0.0
 10
-8.1305
 20
-23.0686
 30
0.0
  0
SPLINE
  5
EE
330
1F
100
AcDbEntity
  8
DEFAULT_1
 62
   250
100
AcDbSpline
210
0.0
220
0.0
230
1.0
 70
    24
 71
     3
 72
     8
 73
     4
 74
     0
 42
0.0000000001
 43
0.0000000001
 40
0.0
 40
0.0
 40
0.0
 40
0.0
 40
1.0
 40
1.0
 40
1.0
 40
1.0
 10
-8.1305
 20
-23.0686
 30
0.0
 10
-8.1305
 20
-23.0686
 30
0.0
 10
-8.1297
 20
-23.0806
 30
0.0
 10
-8.1297
 20
-23.0806
 30
0.0
  0
SPLINE
  5
EF
330
1F
100
AcDbEntity
  8
DEFAULT_1
 62
   250
100
AcDbSpline
210
0.0
220
0.0
230
1.0
 70
     8
 71
     3
 72
    24
 73
    20
 74
     0
 42
0.0000000001
 43
0.0000000001
 40
0.0
 40
0.0
 40
0.0
 40
0.0
 40
0.1666666666666667
 40
0.1666666666666667
 40
0.1666666666666667
 40
0.1666666666666667
 40
0.3333333333333333
 40
0.3333333333333333
 40
0.3333333333333333
 40
0.3333333333333333
 40
0.5
 40
0.5
 40
0.5
 40
0.5
 40
0.6666666666666666
 40
0.6666666666666666
 40
0.6666666666666666
 40
0.6666666666666666
 40
1.0
 40
1.0
 40
1.0
 40
1.0
 10
-9.9493
 20
-22.7333
 30
0.0
 10
-9.9493
 20
-22.7333
 30
0.0
 10
-9.9404
 20
-22.8232
 30
0.0
 10
-9.9404
 20
-22.8232
 30
0.0
 10
-9.9404
 20
-22.8232
 30
0.0
 10
-9.9404
 20
-22.8232
 30
0.0
 10
-9.9145
 20
-22.9069
 30
0.0
 10
-9.9145
 20
-22.9069
 30
0.0
 10
-9.9145
 20
-22.9069
 30
0.0
 10
-9.9145
 20
-22.9069
 30
0.0
 10
-9.8735
 20
-22.9789
 30
0.0
 10
-9.8735
 20
-22.9789
 30
0.0
 10
-9.8735
 20
-22.9789
 30
0.0
 10
-9.8735
 20
-22.9789
 30
0.0
 10
-9.8208
 20
-23.0341
 30
0.0
 10
-9.8208
 20
-23.0341
 30
0.0
 10
-9.8208
 20
-23.0341
 30
0.0
 10
-9.8208
 20
-23.0341
 30
0.0
 10
-9.7601
 20
-23.0688
 30
0.0
 10
-9.7601
 20
-23.0688
 30
0.0
  0
SPLINE
  5
F0
330
1F
100
AcDbEntity
  8
DEFAULT_1
 62
   250
100
AcDbSpline
210
0.0
220
0.0
230
1.0
 70
     8
 71
     3
 72
    84
 73
    80
 74
     0
 42
0.0000000001
 43
0.0000000001
 40
0.0
 40
0.0
 40
0.0
 40
0.0
 40
0.0476190476190476
 40
0.0476190476190476
 40
0.0476190476190476
 40
0.0476190476190476
 40
0.0952380952380952
 40
0.0952380952380952
 40
0.0952380952380952
 40
0.0952380952380952
 40
0.1428571428571428
 40
0.1428571428571428
 40
0.1428571428571428
 40
0.1428571428571428
 40
0.1904761904761905
 40
0.1904761904761905
 40
0.1904761904761905
 40
0.1904761904761905
 40
0.2380952380952381
 40
0.2380952380952381
 40
0.2380952380952381
 40
0.2380952380952381
 40
0.2857142857142857
 40
0.2857142857142857
 40
0.2857142857142857
 40
0.2857142857142857
 40
0.3333333333333333
 40
0.3333333333333333
 40
0.3333333333333333
 40
0.3333333333333333
 40
0.3809523809523809
 40
0.3809523809523809
 40
0.3809523809523809
 40
0.3809523809523809
 40
0.4285714285714285
 40
0.4285714285714285
 40
0.4285714285714285
 40
0.4285714285714285
 40
0.4761904761904762
 40
0.4761904761904762
 40
0.4761904761904762
 40
0.4761904761904762
 40
0.5238095238095238
 40
0.5238095238095238
 40
0.5238095238095238
 40
0.5238095238095238
 40
0.5714285714285714
 40
0.5714285714285714
 40
0.5714285714285714
 40
0.5714285714285714
 40
0.6190476190476191
 40
0.6190476190476191
 40
0.6190476190476191
 40
0.6190476190476191
 40
0.6666666666666666
 40
0.6666666666666666
 40
0.6666666666666666
 40
0.6666666666666666
 40
0.7142857142857143
 40
0.7142857142857143
 40
0.7142857142857143
 40
0.7142857142857143
 40
0.7619047619047619
 40
0.7619047619047619
 40
0.7619047619047619
 40
0.7619047619047619
 40
0.8095238095238095
 40
0.8095238095238095
 40
0.8095238095238095
 40
0.8095238095238095
 40
0.8571428571428571
 40
0.8571428571428571
 40
0.8571428571428571
 40
0.8571428571428571
 40
0.9047619047619048
 40
0.9047619047619048
 40
0.9047619047619048
 40
0.9047619047619048
 40
1.0
 40
1.0
 40
1.0
 40
1.0
 10
-8.6681
 20
-6.1457
 30
0.0
 10
-8.6681
 20
-6.1457
 30
0.0
 10
-8.685
 20
-6.1704
 30
0.0
 10
-8.685
 20
-6.1704
 30
0.0
 10
-8.685
 20
-6.1704
 30
0.0
 10
-8.685
 20
-6.1704
 30
0.0
 10
-8.7509
 20
-6.2677
 30
0.0
 10
-8.7509
 20
-6.2677
 30
0.0
 10
-8.7509
 20
-6.2677
 30
0.0
 10
-8.7509
 20
-6.2677
 30
0.0
 10
-8.8779
 20
-6.4589
 30
0.0
 10
-8.8779
 20
-6.4589
 30
0.0
 10
-8.8779
 20
-6.4589
 30
0.0
 10
-8.8779
 20
-6.4589
 30
0.0
 10
-9.0568
 20
-6.7389
 30
0.0
 10
-9.0568
 20
-6.7389
 30
0.0
 10
-9.0568
 20
-6.7389
 30
0.0
 10
-9.0568
 20
-6.7389
 30
0.0
 10
-9.2654
 20
-7.0872
 30
0.0
 10
-9.2654
 20
-7.0872
 30
0.0
 10
-9.2654
 20
-7.0872
 30
0.0
 10
-9.2654
 20
-7.0872
 30
0.0
 10
-9.4806
 20
-7.4843
 30
0.0
 10
-9.4806
 20
-7.4843
 30
0.0
 10
-9.4806
 20
-7.4843
 30
0.0
 10
-9.4806
 20
-7.4843
 30
0.0
 10
-9.6799
 20
-7.9137
 30
0.0
 10
-9.6799
 20
-7.9137
 30
0.0
 10
-9.6799
 20
-7.9137
 30
0.0
 10
-9.6799
 20
-7.9137
 30
0.0
 10
-9.8424
 20
-8.362
 30
0.0
 10
-9.8424
 20
-8.362
 30
0.0
 10
-9.8424
 20
-8.362
 30
0.0
 10
-9.8424
 20
-8.362
 30
0.0
 10
-9.9528
 20
-8.8323
 30
0.0
 10
-9.9528
 20
-8.8323
 30
0.0
 10
-9.9528
 20
-8.8323
 30
0.0
 10
-9.9528
 20
-8.8323
 30
0.0
 10
-9.9935
 20
-9.327
 30
0.0
 10
-9.9935
 20
-9.327
 30
0.0
 10
-9.9935
 20
-9.327
 30
0.0
 10
-9.9935
 20
-9.327
 30
0.0
 10
-9.9532
 20
-9.8223
 30
0.0
 10
-9.9532
 20
-9.8223
 30
0.0
 10
-9.9532
 20
-9.8223
 30
0.0
 10
-9.9532
 20
-9.8223
 30
0.0
 10
-9.8426
 20
-10.2943
 30
0.0
 10
-9.8426
 20
-10.2943
 30
0.0
 10
-9.8426
 20
-10.2943
 30
0.0
 10
-9.8426
 20
-10.2943
 30
0.0
 10
-9.6796
 20
-10.7438
 30
0.0
 10
-9.6796
 20
-10.7438
 30
0.0
 10
-9.6796
 20
-10.7438
 30
0.0
 10
-9.6796
 20
-10.7438
 30
0.0
 10
-9.4798
 20
-11.174
 30
0.0
 10
-9.4798
 20
-11.174
 30
0.0
 10
-9.4798
 20
-11.174
 30
0.0
 10
-9.4798
 20
-11.174
 30
0.0
 10
-9.2645
 20
-11.5711
 30
0.0
 10
-9.2645
 20
-11.5711
 30
0.0
 10
-9.2645
 20
-11.5711
 30
0.0
 10
-9.2645
 20
-11.5711
 30
0.0
 10
-9.0563
 20
-11.9186
 30
0.0
 10
-9.0563
 20
-11.9186
 30
0.0
 10
-9.0563
 20
-11.9186
 30
0.0
 10
-9.0563
 20
-11.9186
 30
0.0
 10
-8.8782
 20
-12.1975
 30
0.0
 10
-8.8782
 20
-12.1975
 30
0.0
 10
-8.8782
 20
-12.1975
 30
0.0
 10
-8.8782
 20
-12.1975
 30
0.0
 10
-8.7514
 20
-12.3885
 30
0.0
 10
-8.7514
 20
-12.3885
 30
0.0
 10
-8.7514
 20
-12.3885
 30
0.0
 10
-8.7514
 20
-12.3885
 30
0.0
 10
-8.6852
 20
-12.4861
 30
0.0
 10
-8.6852
 20
-12.4861
 30
0.0
 10
-8.6852
 20
-12.4861
 30
0.0
 10
-8.6852
 20
-12.4861
 30
0.0
 10
-8.6681
 20
-12.5111
 30
0.0
 10
-8.6681
 20
-12.5111
 30
0.0
  0
SPLINE
  5
F1
330
1F
100
AcDbEntity
  8
DEFAULT_1
 62
   250
100
AcDbSpline
210
0.0
220
0.0
230
1.0
 70
     8
 71
     3
 72
    68
 73
    64
 74
     0
 42
0.0000000001
 43
0.0000000001
 40
0.0
 40
0.0
 40
0.0
 40
0.0
 40
0.0588235294117647
 40
0.0588235294117647
 40
0.0588235294117647
 40
0.0588235294117647
 40
0.1176470588235294
 40
0.1176470588235294
 40
0.1176470588235294
 40
0.1176470588235294
 40
0.1764705882352941
 40
0.1764705882352941
 40
0.1764705882352941
 40
0.1764705882352941
 40
0.2352941176470588
 40
0.2352941176470588
 40
0.2352941176470588
 40
0.2352941176470588
 40
0.2941176470588235
 40
0.2941176470588235
 40
0.2941176470588235
 40
0.2941176470588235
 40
0.3529411764705883
 40
0.3529411764705883
 40
0.3529411764705883
 40
0.3529411764705883
 40
0.4117647058823529
 40
0.4117647058823529
 40
0.4117647058823529
 40
0.4117647058823529
 40
0.4705882352941176
 40
0.4705882352941176
 40
0.4705882352941176
 40
0.4705882352941176
 40
0.5294117647058824
 40
0.5294117647058824
 40
0.5294117647058824
 40
0.5294117647058824
 40
0.5882352941176471
 40
0.5882352941176471
 40
0.5882352941176471
 40
0.5882352941176471
 40
0.6470588235294118
 40
0.6470588235294118
 40
0.6470588235294118
 40
0.6470588235294118
 40
0.7058823529411765
 40
0.7058823529411765
 40
0.7058823529411765
 40
0.7058823529411765
 40
0.7647058823529411
 40
0.7647058823529411
 40
0.7647058823529411
 40
0.7647058823529411
 40
0.8235294117647058
 40
0.8235294117647058
 40
0.8235294117647058
 40
0.8235294117647058
 40
0.8823529411764706
 40
0.8823529411764706
 40
0.8823529411764706
 40
0.8823529411764706
 40
1.0
 40
1.0
 40
1.0
 40
1.0
 10
-18.1021
 20
-5.0234
 30
0.0
 10
-18.1021
 20
-5.0234
 30
0.0
 10
-17.8245
 20
-5.0086
 30
0.0
 10
-17.8245
 20
-5.0086
 30
0.0
 10
-17.8245
 20
-5.0086
 30
0.0
 10
-17.8245
 20
-5.0086
 30
0.0
 10
-17.4785
 20
-4.9901
 30
0.0
 10
-17.4785
 20
-4.9901
 30
0.0
 10
-17.4785
 20
-4.9901
 30
0.0
 10
-17.4785
 20
-4.9901
 30
0.0
 10
-17.0736
 20
-4.9686
 30
0.0
 10
-17.0736
 20
-4.9686
 30
0.0
 10
-17.0736
 20
-4.9686
 30
0.0
 10
-17.0736
 20
-4.9686
 30
0.0
 10
-16.6212
 20
-4.9445
 30
0.0
 10
-16.6212
 20
-4.9445
 30
0.0
 10
-16.6212
 20
-4.9445
 30
0.0
 10
-16.6212
 20
-4.9445
 30
0.0
 10
-16.1328
 20
-4.9185
 30
0.0
 10
-16.1328
 20
-4.9185
 30
0.0
 10
-16.1328
 20
-4.9185
 30
0.0
 10
-16.1328
 20
-4.9185
 30
0.0
 10
-15.6195
 20
-4.8912
 30
0.0
 10
-15.6195
 20
-4.8912
 30
0.0
 10
-15.6195
 20
-4.8912
 30
0.0
 10
-15.6195
 20
-4.8912
 30
0.0
 10
-15.0962
 20
-4.8634
 30
0.0
 10
-15.0962
 20
-4.8634
 30
0.0
 10
-15.0962
 20
-4.8634
 30
0.0
 10
-15.0962
 20
-4.8634
 30
0.0
 10
-14.5841
 20
-4.8362
 30
0.0
 10
-14.5841
 20
-4.8362
 30
0.0
 10
-14.5841
 20
-4.8362
 30
0.0
 10
-14.5841
 20
-4.8362
 30
0.0
 10
-14.0946
 20
-4.8102
 30
0.0
 10
-14.0946
 20
-4.8102
 30
0.0
 10
-14.0946
 20
-4.8102
 30
0.0
 10
-14.0946
 20
-4.8102
 30
0.0
 10
-13.6342
 20
-4.7858
 30
0.0
 10
-13.6342
 20
-4.7858
 30
0.0
 10
-13.6342
 20
-4.7858
 30
0.0
 10
-13.6342
 20
-4.7858
 30
0.0
 10
-13.2212
 20
-4.764
 30
0.0
 10
-13.2212
 20
-4.764
 30
0.0
 10
-13.2212
 20
-4.764
 30
0.0
 10
-13.2212
 20
-4.764
 30
0.0
 10
-12.8709
 20
-4.7455
 30
0.0
 10
-12.8709
 20
-4.7455
 30
0.0
 10
-12.8709
 20
-4.7455
 30
0.0
 10
-12.8709
 20
-4.7455
 30
0.0
 10
-12.5884
 20
-4.7305
 30
0.0
 10
-12.5884
 20
-4.7305
 30
0.0
 10
-12.5884
 20
-4.7305
 30
0.0
 10
-12.5884
 20
-4.7305
 30
0.0
 10
-12.3806
 20
-4.7195
 30
0.0
 10
-12.3806
 20
-4.7195
 30
0.0
 10
-12.3806
 20
-4.7195
 30
0.0
 10
-12.3806
 20
-4.7195
 30
0.0
 10
-12.2537
 20
-4.7128
 30
0.0
 10
-12.2537
 20
-4.7128
 30
0.0
 10
-12.2537
 20
-4.7128
 30
0.0
 10
-12.2537
 20
-4.7128
 30
0.0
 10
-12.2111
 20
-4.7106
 30
0.0
 10
-12.2111
 20
-4.7106
 30
0.0
  0
SPLINE
  5
F2
330
1F
100
AcDbEntity
  8
DEFAULT_1
 62
   250
100
AcDbSpline
210
0.0
220
0.0
230
1.0
 70
     8
 71
     3
 72
    20
 73
    16
 74
     0
 42
0.0000000001
 43
0.0000000001
 40
0.0
 40
0.0
 40
0.0
 40
0.0
 40
0.2
 40
0.2
 40
0.2
 40
0.2
 40
0.4
 40
0.4
 40
0.4
 40
0.4
 40
0.6
 40
0.6
 40
0.6
 40
0.6
 40
1.0
 40
1.0
 40
1.0
 40
1.0
 10
-18.4633
 20
-5.0629
 30
0.0
 10
-18.4633
 20
-5.0629
 30
0.0
 10
-18.4401
 20
-5.059
 30
0.0
 10
-18.4401
 20
-5.059
 30
0.0
 10
-18.4401
 20
-5.059
 30
0.0
 10
-18.4401
 20
-5.059
 30
0.0
 10
-18.3712
 20
-5.0488
 30
0.0
 10
-18.3712
 20
-5.0488
 30
0.0
 10
-18.3712
 20
-5.0488
 30
0.0
 10
-18.3712
 20
-5.0488
 30
0.0
 10
-18.2579
 20
-5.0354
 30
0.0
 10
-18.2579
 20
-5.0354
 30
0.0
 10
-18.2579
 20
-5.0354
 30
0.0
 10
-18.2579
 20
-5.0354
 30
0.0
 10
-18.1021
 20
-5.0234
 30
0.0
 10
-18.1021
 20
-5.0234
 30
0.0
  0
SPLINE
  5
F3
330
1F
100
AcDbEntity
  8
DEFAULT_1
  6
NEW_LINE3
 62
   250
100
AcDbSpline
210
0.0
220
0.0
230
1.0
 70
    24
 71
     3
 72
     8
 73
     4
 74
     0
 42
0.0000000001
 43
0.0000000001
 40
0.0
 40
0.0
 40
0.0
 40
0.0
 40
1.0
 40
1.0
 40
1.0
 40
1.0
 10
-13.6873
 20
-8.8909
 30
0.0
 10
-13.6873
 20
-8.8909
 30
0.0
 10
-13.6873
 20
-29.1592
 30
0.0
 10
-13.6873
 20
-29.1592
 30
0.0
  0
SPLINE
  5
F5
330
1F
100
AcDbEntity
  8
DEFAULT_1
 62
   250
100
AcDbSpline
210
0.0
220
0.0
230
1.0
 70
    24
 71
     3
 72
     8
 73
     4
 74
     0
 42
0.0000000001
 43
0.0000000001
 40
0.0
 40
0.0
 40
0.0
 40
0.0
 40
1.0
 40
1.0
 40
1.0
 40
1.0
 10
18.2499
 20
-14.787
 30
0.0
 10
18.2499
 20
-14.787
 30
0.0
 10
19.0126
 20
-14.787
 30
0.0
 10
19.0126
 20
-14.787
 30
0.0
  0
SPLINE
  5
F6
330
1F
100
AcDbEntity
  8
DEFAULT_1
 62
   250
100
AcDbSpline
210
0.0
220
0.0
230
1.0
 70
    24
 71
     3
 72
     8
 73
     4
 74
     0
 42
0.0000000001
 43
0.0000000001
 40
0.0
 40
0.0
 40
0.0
 40
0.0
 40
1.0
 40
1.0
 40
1.0
 40
1.0
 10
18.2499
 20
-3.8039
 30
0.0
 10
18.2499
 20
-3.8039
 30
0.0
 10
19.0126
 20
-3.8039
 30
0.0
 10
19.0126
 20
-3.8039
 30
0.0
  0
SPLINE
  5
F7
330
1F
100
AcDbEntity
  8
DEFAULT_1
 62
   250
100
AcDbSpline
210
0.0
220
0.0
230
1.0
 70
    24
 71
     3
 72
     8
 73
     4
 74
     0
 42
0.0000000001
 43
0.0000000001
 40
0.0
 40
0.0
 40
0.0
 40
0.0
 40
1.0
 40
1.0
 40
1.0
 40
1.0
 10
19.0126
 20
-14.787
 30
0.0
 10
19.0126
 20
-14.787
 30
0.0
 10
19.3939
 20
-15.1683
 30
0.0
 10
19.3939
 20
-15.1683
 30
0.0
  0
SPLINE
  5
F8
330
1F
100
AcDbEntity
  8
DEFAULT_1
 62
   250
100
AcDbSpline
210
0.0
220
0.0
230
1.0
 70
    24
 71
     3
 72
     8
 73
     4
 74
     0
 42
0.0000000001
 43
0.0000000001
 40
0.0
 40
0.0
 40
0.0
 40
0.0
 40
1.0
 40
1.0
 40
1.0
 40
1.0
 10
15.5041
 20
-6.5497
 30
0.0
 10
15.5041
 20
-6.5497
 30
0.0
 10
15.5041
 20
-12.0412
 30
0.0
 10
15.5041
 20
-12.0412
 30
0.0
  0
SPLINE
  5
F9
330
1F
100
AcDbEntity
  8
DEFAULT_1
 62
   250
100
AcDbSpline
210
0.0
220
0.0
230
1.0
 70
    24
 71
     3
 72
     8
 73
     4
 74
     0
 42
0.0000000001
 43
0.0000000001
 40
0.0
 40
0.0
 40
0.0
 40
0.0
 40
1.0
 40
1.0
 40
1.0
 40
1.0
 10
19.0126
 20
-3.8039
 30
0.0
 10
19.0126
 20
-3.8039
 30
0.0
 10
19.3939
 20
-3.4225
 30
0.0
 10
19.3939
 20
-3.4225
 30
0.0
  0
SPLINE
  5
FA
330
1F
100
AcDbEntity
  8
DEFAULT_1
 62
   250
100
AcDbSpline
210
0.0
220
0.0
230
1.0
 70
    24
 71
     3
 72
     8
 73
     4
 74
     0
 42
0.0000000001
 43
0.0000000001
 40
0.0
 40
0.0
 40
0.0
 40
0.0
 40
1.0
 40
1.0
 40
1.0
 40
1.0
 10
19.0126
 20
-3.8039
 30
0.0
 10
19.0126
 20
-3.8039
 30
0.0
 10
19.0126
 20
-14.787
 30
0.0
 10
19.0126
 20
-14.787
 30
0.0
  0
SPLINE
  5
FB
330
1F
100
AcDbEntity
  8
DEFAULT_1
 62
   250
100
AcDbSpline
210
0.0
220
0.0
230
1.0
 70
    24
 71
     3
 72
     8
 73
     4
 74
     0
 42
0.0000000001
 43
0.0000000001
 40
0.0
 40
0.0
 40
0.0
 40
0.0
 40
1.0
 40
1.0
 40
1.0
 40
1.0
 10
19.3939
 20
-3.4225
 30
0.0
 10
19.3939
 20
-3.4225
 30
0.0
 10
19.3939
 20
-15.1683
 30
0.0
 10
19.3939
 20
-15.1683
 30
0.0
  0
SPLINE
  5
FC
330
1F
100
AcDbEntity
  8
DEFAULT_1
 62
   250
100
AcDbSpline
210
0.0
220
0.0
230
1.0
 70
     8
 71
     3
 72
     8
 73
     4
 74
     0
 42
0.0000000001
 43
0.0000000001
 40
0.0
 40
0.0
 40
0.0
 40
0.0
 40
1.0
 40
1.0
 40
1.0
 40
1.0
 10
18.2499
 20
-3.8039
 30
0.0
 10
16.7334
 20
-3.8039
 30
0.0
 10
15.5041
 20
-5.0332
 30
0.0
 10
15.5041
 20
-6.5497
 30
0.0
  0
SPLINE
  5
FD
330
1F
100
AcDbEntity
  8
DEFAULT_1
 62
   250
100
AcDbSpline
210
0.0
220
0.0
230
1.0
 70
     8
 71
     3
 72
     8
 73
     4
 74
     0
 42
0.0000000001
 43
0.0000000001
 40
0.0
 40
0.0
 40
0.0
 40
0.0
 40
1.0
 40
1.0
 40
1.0
 40
1.0
 10
15.5041
 20
-12.0412
 30
0.0
 10
15.5041
 20
-13.5577
 30
0.0
 10
16.7334
 20
-14.787
 30
0.0
 10
18.2499
 20
-14.787
 30
0.0
  0
SPLINE
  5
FE
330
1F
100
AcDbEntity
  8
DEFAULT_1
  6
NEW_LINE4
 62
   250
100
AcDbSpline
210
0.0
220
0.0
230
1.0
 70
    24
 71
     3
 72
     8
 73
     4
 74
     0
 42
0.0000000001
 43
0.0000000001
 40
0.0
 40
0.0
 40
0.0
 40
0.0
 40
1.0
 40
1.0
 40
1.0
 40
1.0
 10
-15.4788
 20
-9.3408
 30
0.0
 10
-15.4788
 20
-9.3408
 30
0.0
 10
27.8157
 20
-9.3408
 30
0.0
 10
27.8157
 20
-9.3408
 30
0.0
  0
SPLINE
  5
100
330
1F
100
AcDbEntity
  8
DEFAULT_1
 62
   250
100
AcDbSpline
210
0.0
220
0.0
230
1.0
 70
    27
 71
     3
 72
    12
 73
     8
 74
     0
 42
0.0000000001
 43
0.0000000001
 40
0.0
 40
0.0
 40
0.0
 40
0.0
 40
0.3333333333333333
 40
0.3333333333333333
 40
0.3333333333333333
 40
0.3333333333333333
 40
1.0
 40
1.0
 40
1.0
 40
1.0
 10
-4.2526
 20
-11.7361
 30
0.0
 10
-4.2526
 20
-11.7361
 30
0.0
 10
15.5041
 20
-11.7361
 30
0.0
 10
15.5041
 20
-11.7361
 30
0.0
 10
15.5041
 20
-11.7361
 30
0.0
 10
15.5041
 20
-11.7361
 30
0.0
 10
-4.2526
 20
-11.7361
 30
0.0
 10
-4.2526
 20
-11.7361
 30
0.0
  0
SPLINE
  5
101
330
1F
100
AcDbEntity
  8
DEFAULT_1
 62
   250
100
AcDbSpline
210
0.0
220
0.0
230
1.0
 70
    27
 71
     3
 72
    12
 73
     8
 74
     0
 42
0.0000000001
 43
0.0000000001
 40
0.0
 40
0.0
 40
0.0
 40
0.0
 40
0.3333333333333333
 40
0.3333333333333333
 40
0.3333333333333333
 40
0.3333333333333333
 40
1.0
 40
1.0
 40
1.0
 40
1.0
 10
-4.2526
 20
-6.8548
 30
0.0
 10
-4.2526
 20
-6.8548
 30
0.0
 10
15.5041
 20
-6.8548
 30
0.0
 10
15.5041
 20
-6.8548
 30
0.0
 10
15.5041
 20
-6.8548
 30
0.0
 10
15.5041
 20
-6.8548
 30
0.0
 10
-4.2526
 20
-6.8548
 30
0.0
 10
-4.2526
 20
-6.8548
 30
0.0
  0
SPLINE
  5
102
330
1F
100
AcDbEntity
  8
DEFAULT_1
 62
   250
100
AcDbSpline
210
0.0
220
0.0
230
1.0
 70
     8
 71
     3
 72
    16
 73
    12
 74
     0
 42
0.0000000001
 43
0.0000000001
 40
0.0
 40
0.0
 40
0.0
 40
0.0
 40
0.25
 40
0.25
 40
0.25
 40
0.25
 40
0.5
 40
0.5
 40
0.5
 40
0.5
 40
1.0
 40
1.0
 40
1.0
 40
1.0
 10
19.4702
 20
-6.8548
 30
0.0
 10
19.4702
 20
-6.8548
 30
0.0
 10
26.4419
 20
-6.8548
 30
0.0
 10
26.4419
 20
-6.8548
 30
0.0
 10
26.4419
 20
-6.8548
 30
0.0
 10
26.4419
 20
-6.8548
 30
0.0
 10
26.4334
 20
-11.7331
 30
0.0
 10
26.4334
 20
-11.7331
 30
0.0
 10
26.4334
 20
-11.7331
 30
0.0
 10
26.4334
 20
-11.7331
 30
0.0
 10
19.4368
 20
-11.7331
 30
0.0
 10
19.4368
 20
-11.7331
 30
0.0
  0
SPLINE
  5
103
330
1F
100
AcDbEntity
  8
DEFAULT_1
 62
   250
100
AcDbSpline
210
0.0
220
0.0
230
1.0
 70
    24
 71
     3
 72
     8
 73
     4
 74
     0
 42
0.0000000001
 43
0.0000000001
 40
0.0
 40
0.0
 40
0.0
 40
0.0
 40
1.0
 40
1.0
 40
1.0
 40
1.0
 10
10.472
 20
-16.467
 30
0.0
 10
10.472
 20
-16.467
 30
0.0
 10
10.472
 20
1.558
 30
0.0
 10
10.472
 20
1.558
 30
0.0
  0
SPLINE
  5
104
330
1F
100
AcDbEntity
  8
DEFAULT_1
 62
   250
100
AcDbSpline
210
0.0
220
0.0
230
1.0
 70
    11
 71
     3
 72
    84
 73
    80
 74
     0
 42
0.0000000001
 43
0.0000000001
 40
0.0
 40
0.0
 40
0.0
 40
0.0
 40
0.0476190476190476
 40
0.0476190476190476
 40
0.0476190476190476
 40
0.0476190476190476
 40
0.0952380952380952
 40
0.0952380952380952
 40
0.0952380952380952
 40
0.0952380952380952
 40
0.1428571428571428
 40
0.1428571428571428
 40
0.1428571428571428
 40
0.1428571428571428
 40
0.1904761904761905
 40
0.1904761904761905
 40
0.1904761904761905
 40
0.1904761904761905
 40
0.2380952380952381
 40
0.2380952380952381
 40
0.2380952380952381
 40
0.2380952380952381
 40
0.2857142857142857
 40
0.2857142857142857
 40
0.2857142857142857
 40
0.2857142857142857
 40
0.3333333333333333
 40
0.3333333333333333
 40
0.3333333333333333
 40
0.3333333333333333
 40
0.3809523809523809
 40
0.3809523809523809
 40
0.3809523809523809
 40
0.3809523809523809
 40
0.4285714285714285
 40
0.4285714285714285
 40
0.4285714285714285
 40
0.4285714285714285
 40
0.4761904761904762
 40
0.4761904761904762
 40
0.4761904761904762
 40
0.4761904761904762
 40
0.5238095238095238
 40
0.5238095238095238
 40
0.5238095238095238
 40
0.5238095238095238
 40
0.5714285714285714
 40
0.5714285714285714
 40
0.5714285714285714
 40
0.5714285714285714
 40
0.6190476190476191
 40
0.6190476190476191
 40
0.6190476190476191
 40
0.6190476190476191
 40
0.6666666666666666
 40
0.6666666666666666
 40
0.6666666666666666
 40
0.6666666666666666
 40
0.7142857142857143
 40
0.7142857142857143
 40
0.7142857142857143
 40
0.7142857142857143
 40
0.7619047619047619
 40
0.7619047619047619
 40
0.7619047619047619
 40
0.7619047619047619
 40
0.8095238095238095
 40
0.8095238095238095
 40
0.8095238095238095
 40
0.8095238095238095
 40
0.8571428571428571
 40
0.8571428571428571
 40
0.8571428571428571
 40
0.8571428571428571
 40
0.9047619047619048
 40
0.9047619047619048
 40
0.9047619047619048
 40
0.9047619047619048
 40
1.0
 40
1.0
 40
1.0
 40
1.0
 10
7.8585
 20
-2.379
 30
0.0
 10
7.8585
 20
-2.379
 30
0.0
 10
7.5993
 20
-2.1475
 30
0.0
 10
7.5993
 20
-2.1475
 30
0.0
 10
7.5993
 20
-2.1475
 30
0.0
 10
7.5993
 20
-2.1475
 30
0.0
 10
7.715
 20
-2.0112
 30
0.0
 10
7.715
 20
-2.0112
 30
0.0
 10
7.715
 20
-2.0112
 30
0.0
 10
7.715
 20
-2.0112
 30
0.0
 10
7.9879
 20
-2.2534
 30
0.0
 10
7.9879
 20
-2.2534
 30
0.0
 10
7.9879
 20
-2.2534
 30
0.0
 10
8.1054
 20
-2.1744
 30
0.0
 10
8.2084
 20
-2.1212
 30
0.0
 10
8.2965
 20
-2.0935
 30
0.0
 10
8.2965
 20
-2.0935
 30
0.0
 10
8.4122
 20
-2.0567
 30
0.0
 10
8.5419
 20
-2.0384
 30
0.0
 10
8.6849
 20
-2.0384
 30
0.0
 10
8.6849
 20
-2.0384
 30
0.0
 10
8.8919
 20
-2.0384
 30
0.0
 10
9.0763
 20
-2.0803
 30
0.0
 10
9.2376
 20
-2.1641
 30
0.0
 10
9.2376
 20
-2.1641
 30
0.0
 10
9.3995
 20
-2.2478
 30
0.0
 10
9.5218
 20
-2.3648
 30
0.0
 10
9.6045
 20
-2.5159
 30
0.0
 10
9.6045
 20
-2.5159
 30
0.0
 10
9.6868
 20
-2.6673
 30
0.0
 10
9.7283
 20
-2.8277
 30
0.0
 10
9.7283
 20
-2.9975
 30
0.0
 10
9.7283
 20
-2.9975
 30
0.0
 10
9.7283
 20
-3.1245
 30
0.0
 10
9.7103
 20
-3.2393
 30
0.0
 10
9.6746
 20
-3.3423
 30
0.0
 10
9.6746
 20
-3.3423
 30
0.0
 10
9.6468
 20
-3.4213
 30
0.0
 10
9.5941
 20
-3.5136
 30
0.0
 10
9.5161
 20
-3.6194
 30
0.0
 10
9.5161
 20
-3.6194
 30
0.0
 10
9.5161
 20
-3.6194
 30
0.0
 10
9.7752
 20
-3.8508
 30
0.0
 10
9.7752
 20
-3.8508
 30
0.0
 10
9.7752
 20
-3.8508
 30
0.0
 10
9.7752
 20
-3.8508
 30
0.0
 10
9.6595
 20
-3.9872
 30
0.0
 10
9.6595
 20
-3.9872
 30
0.0
 10
9.6595
 20
-3.9872
 30
0.0
 10
9.6595
 20
-3.9872
 30
0.0
 10
9.3882
 20
-3.7445
 30
0.0
 10
9.3882
 20
-3.7445
 30
0.0
 10
9.3882
 20
-3.7445
 30
0.0
 10
9.2513
 20
-3.8347
 30
0.0
 10
9.1341
 20
-3.895
 30
0.0
 10
9.0372
 20
-3.9252
 30
0.0
 10
9.0372
 20
-3.9252
 30
0.0
 10
8.9403
 20
-3.9552
 30
0.0
 10
8.8238
 20
-3.9707
 30
0.0
 10
8.6878
 20
-3.9707
 30
0.0
 10
8.6878
 20
-3.9707
 30
0.0
 10
8.4803
 20
-3.9707
 30
0.0
 10
8.2955
 20
-3.9294
 30
0.0
 10
8.1332
 20
-3.8466
 30
0.0
 10
8.1332
 20
-3.8466
 30
0.0
 10
7.9709
 20
-3.7638
 30
0.0
 10
7.8481
 20
-3.6481
 30
0.0
 10
7.7645
 20
-3.4985
 30
0.0
 10
7.7645
 20
-3.4985
 30
0.0
 10
7.6811
 20
-3.3494
 30
0.0
 10
7.6393
 20
-3.1833
 30
0.0
 10
7.6393
 20
-3.0003
 30
0.0
 10
7.6393
 20
-3.0003
 30
0.0
 10
7.6393
 20
-2.8771
 30
0.0
 10
7.6552
 20
-2.7695
 30
0.0
 10
7.6882
 20
-2.6772
 30
0.0
 10
7.6882
 20
-2.6772
 30
0.0
 10
7.7206
 20
-2.585
 30
0.0
 10
7.7777
 20
-2.4853
 30
0.0
 10
7.8585
 20
-2.379
 30
0.0
  0
SPLINE
  5
105
330
1F
100
AcDbEntity
  8
DEFAULT_1
 62
   250
100
AcDbSpline
210
0.0
220
0.0
230
1.0
 70
    11
 71
     3
 72
    32
 73
    28
 74
     0
 42
0.0000000001
 43
0.0000000001
 40
0.0
 40
0.0
 40
0.0
 40
0.0
 40
0.125
 40
0.125
 40
0.125
 40
0.125
 40
0.25
 40
0.25
 40
0.25
 40
0.25
 40
0.375
 40
0.375
 40
0.375
 40
0.375
 40
0.5
 40
0.5
 40
0.5
 40
0.5
 40
0.625
 40
0.625
 40
0.625
 40
0.625
 40
0.75
 40
0.75
 40
0.75
 40
0.75
 40
1.0
 40
1.0
 40
1.0
 40
1.0
 10
8.0443
 20
-2.544
 30
0.0
 10
7.9765
 20
-2.6306
 30
0.0
 10
7.93
 20
-2.7063
 30
0.0
 10
7.9051
 20
-2.7708
 30
0.0
 10
7.9051
 20
-2.7708
 30
0.0
 10
7.8806
 20
-2.8357
 30
0.0
 10
7.8679
 20
-2.9119
 30
0.0
 10
7.8679
 20
-2.999
 30
0.0
 10
7.8679
 20
-2.999
 30
0.0
 10
7.8679
 20
-3.2002
 30
0.0
 10
7.9361
 20
-3.3664
 30
0.0
 10
8.0726
 20
-3.498
 30
0.0
 10
8.0726
 20
-3.498
 30
0.0
 10
8.2089
 20
-3.6293
 30
0.0
 10
8.4125
 20
-3.6951
 30
0.0
 10
8.684
 20
-3.6951
 30
0.0
 10
8.684
 20
-3.6951
 30
0.0
 10
8.7903
 20
-3.6951
 30
0.0
 10
8.8849
 20
-3.6848
 30
0.0
 10
8.9676
 20
-3.6645
 30
0.0
 10
8.9676
 20
-3.6645
 30
0.0
 10
9.0292
 20
-3.6499
 30
0.0
 10
9.105
 20
-3.6194
 30
0.0
 10
9.1949
 20
-3.5723
 30
0.0
 10
9.1949
 20
-3.5723
 30
0.0
 10
9.1949
 20
-3.5723
 30
0.0
 10
8.0443
 20
-2.544
 30
0.0
 10
8.0443
 20
-2.544
 30
0.0
  0
SPLINE
  5
106
330
1F
100
AcDbEntity
  8
DEFAULT_1
 62
   250
100
AcDbSpline
210
0.0
220
0.0
230
1.0
 70
    11
 71
     3
 72
    28
 73
    24
 74
     0
 42
0.0000000001
 43
0.0000000001
 40
0.0
 40
0.0
 40
0.0
 40
0.0
 40
0.1428571428571428
 40
0.1428571428571428
 40
0.1428571428571428
 40
0.1428571428571428
 40
0.2857142857142857
 40
0.2857142857142857
 40
0.2857142857142857
 40
0.2857142857142857
 40
0.4285714285714285
 40
0.4285714285714285
 40
0.4285714285714285
 40
0.4285714285714285
 40
0.5714285714285714
 40
0.5714285714285714
 40
0.5714285714285714
 40
0.5714285714285714
 40
0.7142857142857143
 40
0.7142857142857143
 40
0.7142857142857143
 40
0.7142857142857143
 40
1.0
 40
1.0
 40
1.0
 40
1.0
 10
8.1864
 20
-2.4312
 30
0.0
 10
8.1864
 20
-2.4312
 30
0.0
 10
9.3326
 20
-3.4552
 30
0.0
 10
9.3326
 20
-3.4552
 30
0.0
 10
9.3326
 20
-3.4552
 30
0.0
 10
9.3905
 20
-3.3847
 30
0.0
 10
9.431
 20
-3.3193
 30
0.0
 10
9.454
 20
-3.2595
 30
0.0
 10
9.454
 20
-3.2595
 30
0.0
 10
9.4846
 20
-3.1814
 30
0.0
 10
9.4996
 20
-3.0967
 30
0.0
 10
9.4996
 20
-3.006
 30
0.0
 10
9.4996
 20
-3.006
 30
0.0
 10
9.4996
 20
-2.8056
 30
0.0
 10
9.4291
 20
-2.6406
 30
0.0
 10
9.2875
 20
-2.5098
 30
0.0
 10
9.2875
 20
-2.5098
 30
0.0
 10
9.1459
 20
-2.3794
 30
0.0
 10
8.9474
 20
-2.314
 30
0.0
 10
8.692
 20
-2.314
 30
0.0
 10
8.692
 20
-2.314
 30
0.0
 10
8.5011
 20
-2.314
 30
0.0
 10
8.3322
 20
-2.3531
 30
0.0
 10
8.1864
 20
-2.4312
 30
0.0
  0
SPLINE
  5
107
330
1F
100
AcDbEntity
  8
DEFAULT_1
 62
   250
100
AcDbSpline
210
0.0
220
0.0
230
1.0
 70
    11
 71
     3
 72
   124
 73
   120
 74
     0
 42
0.0000000001
 43
0.0000000001
 40
0.0
 40
0.0
 40
0.0
 40
0.0
 40
0.032258064516129
 40
0.032258064516129
 40
0.032258064516129
 40
0.032258064516129
 40
0.0645161290322581
 40
0.0645161290322581
 40
0.0645161290322581
 40
0.0645161290322581
 40
0.0967741935483871
 40
0.0967741935483871
 40
0.0967741935483871
 40
0.0967741935483871
 40
0.1290322580645161
 40
0.1290322580645161
 40
0.1290322580645161
 40
0.1290322580645161
 40
0.1612903225806452
 40
0.1612903225806452
 40
0.1612903225806452
 40
0.1612903225806452
 40
0.1935483870967742
 40
0.1935483870967742
 40
0.1935483870967742
 40
0.1935483870967742
 40
0.2258064516129032
 40
0.2258064516129032
 40
0.2258064516129032
 40
0.2258064516129032
 40
0.2580645161290323
 40
0.2580645161290323
 40
0.2580645161290323
 40
0.2580645161290323
 40
0.2903225806451613
 40
0.2903225806451613
 40
0.2903225806451613
 40
0.2903225806451613
 40
0.3225806451612903
 40
0.3225806451612903
 40
0.3225806451612903
 40
0.3225806451612903
 40
0.3548387096774194
 40
0.3548387096774194
 40
0.3548387096774194
 40
0.3548387096774194
 40
0.3870967741935484
 40
0.3870967741935484
 40
0.3870967741935484
 40
0.3870967741935484
 40
0.4193548387096774
 40
0.4193548387096774
 40
0.4193548387096774
 40
0.4193548387096774
 40
0.4516129032258064
 40
0.4516129032258064
 40
0.4516129032258064
 40
0.4516129032258064
 40
0.4838709677419355
 40
0.4838709677419355
 40
0.4838709677419355
 40
0.4838709677419355
 40
0.5161290322580645
 40
0.5161290322580645
 40
0.5161290322580645
 40
0.5161290322580645
 40
0.5483870967741935
 40
0.5483870967741935
 40
0.5483870967741935
 40
0.5483870967741935
 40
0.5806451612903226
 40
0.5806451612903226
 40
0.5806451612903226
 40
0.5806451612903226
 40
0.6129032258064516
 40
0.6129032258064516
 40
0.6129032258064516
 40
0.6129032258064516
 40
0.6451612903225806
 40
0.6451612903225806
 40
0.6451612903225806
 40
0.6451612903225806
 40
0.6774193548387096
 40
0.6774193548387096
 40
0.6774193548387096
 40
0.6774193548387096
 40
0.7096774193548387
 40
0.7096774193548387
 40
0.7096774193548387
 40
0.7096774193548387
 40
0.7419354838709677
 40
0.7419354838709677
 40
0.7419354838709677
 40
0.7419354838709677
 40
0.7741935483870968
 40
0.7741935483870968
 40
0.7741935483870968
 40
0.7741935483870968
 40
0.8064516129032258
 40
0.8064516129032258
 40
0.8064516129032258
 40
0.8064516129032258
 40
0.8387096774193549
 40
0.8387096774193549
 40
0.8387096774193549
 40
0.8387096774193549
 40
0.8709677419354839
 40
0.8709677419354839
 40
0.8709677419354839
 40
0.8709677419354839
 40
0.9032258064516129
 40
0.9032258064516129
 40
0.9032258064516129
 40
0.9032258064516129
 40
0.9354838709677419
 40
0.9354838709677419
 40
0.9354838709677419
 40
0.9354838709677419
 40
1.0
 40
1.0
 40
1.0
 40
1.0
 10
9.1605
 20
-1.7877
 30
0.0
 10
9.1605
 20
-1.7877
 30
0.0
 10
9.1275
 20
-1.5399
 30
0.0
 10
9.1275
 20
-1.5399
 30
0.0
 10
9.1275
 20
-1.5399
 30
0.0
 10
9.2682
 20
-1.5111
 30
0.0
 10
9.3694
 20
-1.4627
 30
0.0
 10
9.4314
 20
-1.3946
 30
0.0
 10
9.4314
 20
-1.3946
 30
0.0
 10
9.4935
 20
-1.3258
 30
0.0
 10
9.5245
 20
-1.2426
 30
0.0
 10
9.5245
 20
-1.1442
 30
0.0
 10
9.5245
 20
-1.1442
 30
0.0
 10
9.5245
 20
-1.0277
 30
0.0
 10
9.4841
 20
-0.9288
 30
0.0
 10
9.4032
 20
-0.8485
 30
0.0
 10
9.4032
 20
-0.8485
 30
0.0
 10
9.3223
 20
-0.7684
 30
0.0
 10
9.2222
 20
-0.728
 30
0.0
 10
9.1026
 20
-0.728
 30
0.0
 10
9.1026
 20
-0.728
 30
0.0
 10
8.9888
 20
-0.728
 30
0.0
 10
8.8947
 20
-0.7652
 30
0.0
 10
8.8209
 20
-0.8395
 30
0.0
 10
8.8209
 20
-0.8395
 30
0.0
 10
8.747
 20
-0.9142
 30
0.0
 10
8.7099
 20
-1.0088
 30
0.0
 10
8.7099
 20
-1.1236
 30
0.0
 10
8.7099
 20
-1.1236
 30
0.0
 10
8.7099
 20
-1.1707
 30
0.0
 10
8.7193
 20
-1.2289
 30
0.0
 10
8.7376
 20
-1.2986
 30
0.0
 10
8.7376
 20
-1.2986
 30
0.0
 10
8.7376
 20
-1.2986
 30
0.0
 10
8.5199
 20
-1.2708
 30
0.0
 10
8.5199
 20
-1.2708
 30
0.0
 10
8.5199
 20
-1.2708
 30
0.0
 10
8.5218
 20
-1.2543
 30
0.0
 10
8.5226
 20
-1.2411
 30
0.0
 10
8.5226
 20
-1.2308
 30
0.0
 10
8.5226
 20
-1.2308
 30
0.0
 10
8.5226
 20
-1.1254
 30
0.0
 10
8.4949
 20
-1.0304
 30
0.0
 10
8.4399
 20
-0.9457
 30
0.0
 10
8.4399
 20
-0.9457
 30
0.0
 10
8.3849
 20
-0.8612
 30
0.0
 10
8.2997
 20
-0.8188
 30
0.0
 10
8.1849
 20
-0.8188
 30
0.0
 10
8.1849
 20
-0.8188
 30
0.0
 10
8.0941
 20
-0.8188
 30
0.0
 10
8.0184
 20
-0.8498
 30
0.0
 10
7.9591
 20
-0.9115
 30
0.0
 10
7.9591
 20
-0.9115
 30
0.0
 10
7.8994
 20
-0.973
 30
0.0
 10
7.8693
 20
-1.0526
 30
0.0
 10
7.8693
 20
-1.15
 30
0.0
 10
7.8693
 20
-1.15
 30
0.0
 10
7.8693
 20
-1.2464
 30
0.0
 10
7.8999
 20
-1.3268
 30
0.0
 10
7.9601
 20
-1.3907
 30
0.0
 10
7.9601
 20
-1.3907
 30
0.0
 10
8.0207
 20
-1.4552
 30
0.0
 10
8.112
 20
-1.4966
 30
0.0
 10
8.2333
 20
-1.515
 30
0.0
 10
8.2333
 20
-1.515
 30
0.0
 10
8.2333
 20
-1.515
 30
0.0
 10
8.1891
 20
-1.7628
 30
0.0
 10
8.1891
 20
-1.7628
 30
0.0
 10
8.1891
 20
-1.7628
 30
0.0
 10
8.0226
 20
-1.7327
 30
0.0
 10
7.8937
 20
-1.6636
 30
0.0
 10
7.8026
 20
-1.5563
 30
0.0
 10
7.8026
 20
-1.5563
 30
0.0
 10
7.7113
 20
-1.4486
 30
0.0
 10
7.6652
 20
-1.315
 30
0.0
 10
7.6652
 20
-1.1551
 30
0.0
 10
7.6652
 20
-1.1551
 30
0.0
 10
7.6652
 20
-1.045
 30
0.0
 10
7.6891
 20
-0.9434
 30
0.0
 10
7.7362
 20
-0.8507
 30
0.0
 10
7.7362
 20
-0.8507
 30
0.0
 10
7.7838
 20
-0.7581
 30
0.0
 10
7.8481
 20
-0.6871
 30
0.0
 10
7.93
 20
-0.6376
 30
0.0
 10
7.93
 20
-0.6376
 30
0.0
 10
8.0118
 20
-0.5888
 30
0.0
 10
8.0983
 20
-0.5638
 30
0.0
 10
8.1906
 20
-0.5638
 30
0.0
 10
8.1906
 20
-0.5638
 30
0.0
 10
8.2775
 20
-0.5638
 30
0.0
 10
8.3571
 20
-0.5873
 30
0.0
 10
8.4291
 20
-0.6344
 30
0.0
 10
8.4291
 20
-0.6344
 30
0.0
 10
8.5006
 20
-0.6815
 30
0.0
 10
8.5575
 20
-0.7506
 30
0.0
 10
8.5998
 20
-0.8422
 30
0.0
 10
8.5998
 20
-0.8422
 30
0.0
 10
8.6271
 20
-0.7228
 30
0.0
 10
8.6845
 20
-0.6302
 30
0.0
 10
8.7715
 20
-0.5638
 30
0.0
 10
8.7715
 20
-0.5638
 30
0.0
 10
8.858
 20
-0.498
 30
0.0
 10
8.9667
 20
-0.465
 30
0.0
 10
9.097
 20
-0.465
 30
0.0
 10
9.097
 20
-0.465
 30
0.0
 10
9.2733
 20
-0.465
 30
0.0
 10
9.4229
 20
-0.529
 30
0.0
 10
9.5457
 20
-0.6579
 30
0.0
 10
9.5457
 20
-0.6579
 30
0.0
 10
9.6685
 20
-0.7863
 30
0.0
 10
9.7296
 20
-0.9491
 30
0.0
 10
9.7296
 20
-1.1457
 30
0.0
 10
9.7296
 20
-1.1457
 30
0.0
 10
9.7296
 20
-1.3231
 30
0.0
 10
9.677
 20
-1.4703
 30
0.0
 10
9.5711
 20
-1.5874
 30
0.0
 10
9.5711
 20
-1.5874
 30
0.0
 10
9.4657
 20
-1.7045
 30
0.0
 10
9.3289
 20
-1.7713
 30
0.0
 10
9.1605
 20
-1.7877
 30
0.0
  0
SPLINE
  5
108
330
1F
100
AcDbEntity
  8
DEFAULT_1
 62
   250
100
AcDbSpline
210
0.0
220
0.0
230
1.0
 70
    11
 71
     3
 72
    92
 73
    88
 74
     0
 42
0.0000000001
 43
0.0000000001
 40
0.0
 40
0.0
 40
0.0
 40
0.0
 40
0.0434782608695652
 40
0.0434782608695652
 40
0.0434782608695652
 40
0.0434782608695652
 40
0.0869565217391304
 40
0.0869565217391304
 40
0.0869565217391304
 40
0.0869565217391304
 40
0.1304347826086956
 40
0.1304347826086956
 40
0.1304347826086956
 40
0.1304347826086956
 40
0.1739130434782609
 40
0.1739130434782609
 40
0.1739130434782609
 40
0.1739130434782609
 40
0.2173913043478261
 40
0.2173913043478261
 40
0.2173913043478261
 40
0.2173913043478261
 40
0.2608695652173913
 40
0.2608695652173913
 40
0.2608695652173913
 40
0.2608695652173913
 40
0.3043478260869565
 40
0.3043478260869565
 40
0.3043478260869565
 40
0.3043478260869565
 40
0.3478260869565217
 40
0.3478260869565217
 40
0.3478260869565217
 40
0.3478260869565217
 40
0.391304347826087
 40
0.391304347826087
 40
0.391304347826087
 40
0.391304347826087
 40
0.4347826086956522
 40
0.4347826086956522
 40
0.4347826086956522
 40
0.4347826086956522
 40
0.4782608695652174
 40
0.4782608695652174
 40
0.4782608695652174
 40
0.4782608695652174
 40
0.5217391304347826
 40
0.5217391304347826
 40
0.5217391304347826
 40
0.5217391304347826
 40
0.5652173913043478
 40
0.5652173913043478
 40
0.5652173913043478
 40
0.5652173913043478
 40
0.6086956521739131
 40
0.6086956521739131
 40
0.6086956521739131
 40
0.6086956521739131
 40
0.6521739130434783
 40
0.6521739130434783
 40
0.6521739130434783
 40
0.6521739130434783
 40
0.6956521739130435
 40
0.6956521739130435
 40
0.6956521739130435
 40
0.6956521739130435
 40
0.7391304347826086
 40
0.7391304347826086
 40
0.7391304347826086
 40
0.7391304347826086
 40
0.782608695652174
 40
0.782608695652174
 40
0.782608695652174
 40
0.782608695652174
 40
0.8260869565217391
 40
0.8260869565217391
 40
0.8260869565217391
 40
0.8260869565217391
 40
0.8695652173913043
 40
0.8695652173913043
 40
0.8695652173913043
 40
0.8695652173913043
 40
0.9130434782608695
 40
0.9130434782608695
 40
0.9130434782608695
 40
0.9130434782608695
 40
1.0
 40
1.0
 40
1.0
 40
1.0
 10
9.4554
 20
1.0843
 30
0.0
 10
9.4554
 20
1.0843
 30
0.0
 10
9.6939
 20
1.0843
 30
0.0
 10
9.6939
 20
1.0843
 30
0.0
 10
9.6939
 20
1.0843
 30
0.0
 10
9.6939
 20
1.0843
 30
0.0
 10
9.6939
 20
-0.2511
 30
0.0
 10
9.6939
 20
-0.2511
 30
0.0
 10
9.6939
 20
-0.2511
 30
0.0
 10
9.6341
 20
-0.2529
 30
0.0
 10
9.5768
 20
-0.2435
 30
0.0
 10
9.5218
 20
-0.2223
 30
0.0
 10
9.5218
 20
-0.2223
 30
0.0
 10
9.4305
 20
-0.1884
 30
0.0
 10
9.3411
 20
-0.1339
 30
0.0
 10
9.2527
 20
-0.0592
 30
0.0
 10
9.2527
 20
-0.0592
 30
0.0
 10
9.1647
 20
0.0162
 30
0.0
 10
9.0626
 20
0.1243
 30
0.0
 10
8.9469
 20
0.2655
 30
0.0
 10
8.9469
 20
0.2655
 30
0.0
 10
8.7668
 20
0.4851
 30
0.0
 10
8.6243
 20
0.6338
 30
0.0
 10
8.5189
 20
0.7108
 30
0.0
 10
8.5189
 20
0.7108
 30
0.0
 10
8.414
 20
0.7881
 30
0.0
 10
8.3143
 20
0.8267
 30
0.0
 10
8.2206
 20
0.8267
 30
0.0
 10
8.2206
 20
0.8267
 30
0.0
 10
8.1224
 20
0.8267
 30
0.0
 10
8.0396
 20
0.7913
 30
0.0
 10
7.9718
 20
0.7212
 30
0.0
 10
7.9718
 20
0.7212
 30
0.0
 10
7.9046
 20
0.6507
 30
0.0
 10
7.8707
 20
0.5589
 30
0.0
 10
7.8707
 20
0.4461
 30
0.0
 10
7.8707
 20
0.4461
 30
0.0
 10
7.8707
 20
0.3267
 30
0.0
 10
7.9064
 20
0.2311
 30
0.0
 10
7.9784
 20
0.1596
 30
0.0
 10
7.9784
 20
0.1596
 30
0.0
 10
8.0499
 20
0.0877
 30
0.0
 10
8.1491
 20
0.0514
 30
0.0
 10
8.2757
 20
0.0504
 30
0.0
 10
8.2757
 20
0.0504
 30
0.0
 10
8.2757
 20
0.0504
 30
0.0
 10
8.2499
 20
-0.2045
 30
0.0
 10
8.2499
 20
-0.2045
 30
0.0
 10
8.2499
 20
-0.2045
 30
0.0
 10
8.0594
 20
-0.1871
 30
0.0
 10
7.9145
 20
-0.1212
 30
0.0
 10
7.8148
 20
-0.0074
 30
0.0
 10
7.8148
 20
-0.0074
 30
0.0
 10
7.715
 20
0.1065
 30
0.0
 10
7.6652
 20
0.2598
 30
0.0
 10
7.6652
 20
0.4517
 30
0.0
 10
7.6652
 20
0.4517
 30
0.0
 10
7.6652
 20
0.6455
 30
0.0
 10
7.7192
 20
0.7989
 30
0.0
 10
7.8265
 20
0.9117
 30
0.0
 10
7.8265
 20
0.9117
 30
0.0
 10
7.9342
 20
1.0251
 30
0.0
 10
8.0673
 20
1.0816
 30
0.0
 10
8.2264
 20
1.0816
 30
0.0
 10
8.2264
 20
1.0816
 30
0.0
 10
8.3072
 20
1.0816
 30
0.0
 10
8.3868
 20
1.065
 30
0.0
 10
8.4648
 20
1.0317
 30
0.0
 10
8.4648
 20
1.0317
 30
0.0
 10
8.5429
 20
0.9988
 30
0.0
 10
8.6253
 20
0.9437
 30
0.0
 10
8.7113
 20
0.867
 30
0.0
 10
8.7113
 20
0.867
 30
0.0
 10
8.7979
 20
0.7904
 30
0.0
 10
8.9164
 20
0.6629
 30
0.0
 10
9.0669
 20
0.4847
 30
0.0
 10
9.0669
 20
0.4847
 30
0.0
 10
9.192
 20
0.336
 30
0.0
 10
9.2767
 20
0.2405
 30
0.0
 10
9.3214
 20
0.1981
 30
0.0
 10
9.3214
 20
0.1981
 30
0.0
 10
9.3656
 20
0.1559
 30
0.0
 10
9.4102
 20
0.121
 30
0.0
 10
9.4554
 20
0.0933
 30
0.0
 10
9.4554
 20
0.0933
 30
0.0
 10
9.4554
 20
0.0933
 30
0.0
 10
9.4554
 20
1.0843
 30
0.0
 10
9.4554
 20
1.0843
 30
0.0
  0
SPLINE
  5
109
330
1F
100
AcDbEntity
  8
DEFAULT_1
 62
   250
100
AcDbSpline
210
0.0
220
0.0
230
1.0
 70
    11
 71
     3
 72
    20
 73
    16
 74
     0
 42
0.0000000001
 43
0.0000000001
 40
0.0
 40
0.0
 40
0.0
 40
0.0
 40
0.2
 40
0.2
 40
0.2
 40
0.2
 40
0.4
 40
0.4
 40
0.4
 40
0.4
 40
0.6
 40
0.6
 40
0.6
 40
0.6
 40
1.0
 40
1.0
 40
1.0
 40
1.0
 10
10.8583
 20
-4.3292
 30
0.0
 10
10.8583
 20
-4.3292
 30
0.0
 10
10.5054
 20
-6.8292
 30
0.0
 10
10.5054
 20
-6.8292
 30
0.0
 10
10.5054
 20
-6.8292
 30
0.0
 10
10.5054
 20
-6.8292
 30
0.0
 10
10.4271
 20
-6.8292
 30
0.0
 10
10.4271
 20
-6.8292
 30
0.0
 10
10.4271
 20
-6.8292
 30
0.0
 10
10.4271
 20
-6.8292
 30
0.0
 10
10.0508
 20
-4.3292
 30
0.0
 10
10.0508
 20
-4.3292
 30
0.0
 10
10.0508
 20
-4.3292
 30
0.0
 10
10.0508
 20
-4.3292
 30
0.0
 10
10.8583
 20
-4.3292
 30
0.0
 10
10.8583
 20
-4.3292
 30
0.0
  0
SPLINE
  5
10A
330
1F
100
AcDbEntity
  8
DEFAULT_1
 62
   250
100
AcDbSpline
210
0.0
220
0.0
230
1.0
 70
    11
 71
     3
 72
    20
 73
    16
 74
     0
 42
0.0000000001
 43
0.0000000001
 40
0.0
 40
0.0
 40
0.0
 40
0.0
 40
0.2
 40
0.2
 40
0.2
 40
0.2
 40
0.4
 40
0.4
 40
0.4
 40
0.4
 40
0.6
 40
0.6
 40
0.6
 40
0.6
 40
1.0
 40
1.0
 40
1.0
 40
1.0
 10
10.0683
 20
-14.4758
 30
0.0
 10
10.0683
 20
-14.4758
 30
0.0
 10
10.4212
 20
-11.9758
 30
0.0
 10
10.4212
 20
-11.9758
 30
0.0
 10
10.4212
 20
-11.9758
 30
0.0
 10
10.4212
 20
-11.9758
 30
0.0
 10
10.4995
 20
-11.9758
 30
0.0
 10
10.4995
 20
-11.9758
 30
0.0
 10
10.4995
 20
-11.9758
 30
0.0
 10
10.4995
 20
-11.9758
 30
0.0
 10
10.8758
 20
-14.4758
 30
0.0
 10
10.8758
 20
-14.4758
 30
0.0
 10
10.8758
 20
-14.4758
 30
0.0
 10
10.8758
 20
-14.4758
 30
0.0
 10
10.0683
 20
-14.4758
 30
0.0
 10
10.0683
 20
-14.4758
 30
0.0
  0
ENDSEC
  0
SECTION
  2
OBJECTS
  0
DICTIONARY
  5
C
330
0
100
AcDbDictionary
  3
ACAD_GROUP
350
D
  3
ACAD_LAYOUT
350
1A
  3
ACAD_MATERIAL
350
3B
  3
ACAD_MLEADERSTYLE
350
12D
  3
ACAD_MLINESTYLE
350
17
  3
ACAD_PLOTSETTINGS
350
19
  3
ACAD_VISUALSTYLE
350
2A
  3
ACDBHEADERROUNDTRIPXREC
350
10B
  3
ACDBVARIABLEDICTIONARY
350
12B
  0
DICTIONARY
  5
D
102
{ACAD_REACTORS
330
C
102
}
330
C
100
AcDbDictionary
  0
DICTIONARY
  5
1A
102
{ACAD_REACTORS
330
C
102
}
330
C
100
AcDbDictionary
  0
DICTIONARY
  5
3B
102
{ACAD_REACTORS
330
C
102
}
330
C
100
AcDbDictionary
  3
BYBLOCK
350
3D
  3
BYLAYER
350
3C
  3
GLOBAL
350
3E
  0
DICTIONARY
  5
12D
102
{ACAD_REACTORS
330
C
102
}
330
C
100
AcDbDictionary
  0
DICTIONARY
  5
17
102
{ACAD_REACTORS
330
C
102
}
330
C
100
AcDbDictionary
  3
STANDARD
350
18
  0
DICTIONARY
  5
19
102
{ACAD_REACTORS
330
C
102
}
330
C
100
AcDbDictionary
  0
DICTIONARY
  5
2A
102
{ACAD_REACTORS
330
C
102
}
330
C
100
AcDbDictionary
  3
2DWIREFRAME
350
2F
  3
3D_HIDDEN
350
31
  3
3DWIREFRAME
350
30
  3
BASIC
350
32
  3
BRIGHTEN
350
36
  3
COLORCHANGE
350
3A
  3
CONCEPTUAL
350
34
  3
DIM
350
35
  3
FACEPATTERN
350
39
  3
FLAT
350
2B
  3
FLATWITHEDGES
350
2C
  3
GOURAUD
350
2D
  3
GOURAUDWITHEDGES
350
2E
  3
LINEPATTERN
350
38
  3
REALISTIC
350
33
  3
THICKEN
350
37
  0
DICTIONARY
  5
10B
102
{ACAD_REACTORS
330
C
102
}
330
C
100
AcDbDictionary
  3
CEPSNTYPE
350
114
  3
DIMSTYLEDATA
350
12A
  3
FINGERPRINTGUID
350
115
  3
HYPERLINKBASE
350
10E
  3
INSUNITS
350
113
  3
LAYOUTDICT
350
110
  3
LWETCUNION
350
112
  3
PLOTSETDICT
350
111
  3
PSVPSCALE
350
117
  3
PUCSBASE
350
11A
  3
PUCSORGBACK
350
120
  3
PUCSORGBOTTOM
350
11C
  3
PUCSORGFRONT
350
11F
  3
PUCSORGLEFT
350
11D
  3
PUCSORGRIGHT
350
11E
  3
PUCSORGTOP
350
11B
  3
PUCSORTHOREF
350
118
  3
PUCSORTHOVIEW
350
119
  3
STYLESHEET
350
10F
  3
TSTACKALIGN
350
10C
  3
TSTACKSIZE
350
10D
  3
UCSBASE
350
123
  3
UCSORGBACK
350
129
  3
UCSORGBOTTOM
350
125
  3
UCSORGFRONT
350
128
  3
UCSORGLEFT
350
126
  3
UCSORGRIGHT
350
127
  3
UCSORGTOP
350
124
  3
UCSORTHOREF
350
121
  3
UCSORTHOVIEW
350
122
  3
VERSIONGUID
350
116
  0
DICTIONARY
  5
12B
102
{ACAD_REACTORS
330
C
102
}
330
C
100
AcDbDictionary
  3
DIMASSOC
350
12E
  3
HIDETEXT
350
12F
  0
MATERIAL
  5
3D
102
{ACAD_REACTORS
330
3B
102
}
102
{ACAD_XDICTIONARY
360
132
102
}
330
3B
100
AcDbMaterial
  1
ByBlock
  0
MATERIAL
  5
3C
102
{ACAD_REACTORS
330
3B
102
}
102
{ACAD_XDICTIONARY
360
130
102
}
330
3B
100
AcDbMaterial
  1
ByLayer
  0
MATERIAL
  5
3E
102
{ACAD_REACTORS
330
3B
102
}
102
{ACAD_XDICTIONARY
360
134
102
}
330
3B
100
AcDbMaterial
  1
Global
  0
MLINESTYLE
  5
18
102
{ACAD_REACTORS
330
17
102
}
330
17
100
AcDbMlineStyle
  2
Standard
 70
     0
  3

 62
   256
 51
90.0
 52
90.0
 71
     2
 49
0.5
 62
   256
  6
BYLAYER
 49
-0.5
 62
   256
  6
BYLAYER
  0
ACAD_PROXY_OBJECT
  5
2F
102
{ACAD_REACTORS
330
2A
102
}
330
2A
100
AcDbProxyObject
 90
      499
 91
      501
 93
      436
310
42CC9915DA5C99599C985B595049028333333333333E3BF0000000000000FB0107901411070040501600405405064090741402480A0340
1001
ACAD
1000
AcDbSavedByObjectVersion
1070
     0
  0
ACAD_PROXY_OBJECT
  5
31
102
{ACAD_REACTORS
330
2A
102
}
330
2A
100
AcDbProxyObject
 90
      499
 91
      501
 93
      500
310
424CD108121A5919195B90640502408333333333333E3BF0000000000000FB01079024090700405020000000000001110200405405064090740C02480A0340
1001
ACAD
1000
AcDbSavedByObjectVersion
1070
     0
  0
ACAD_PROXY_OBJECT
  5
30
102
{ACAD_REACTORS
330
2A
102
}
330
2A
100
AcDbProxyObject
 90
      499
 91
      501
 93
      436
310
42CCD915DA5C99599C985B595059028333333333333E3BF0000000000000FB0107901411070040501600405405064090741402480A0340
1001
ACAD
1000
AcDbSavedByObjectVersion
1070
     0
  0
ACAD_PROXY_OBJECT
  5
32
102
{ACAD_REACTORS
330
2A
102
}
330
2A
100
AcDbProxyObject
 90
      499
 91
      501
 93
      388
310
4150985CDA58D07406404333333333333E3BF0000000000000FB0107A41107004050150841D405064090741402480A0350
1001
ACAD
1000
AcDbSavedByObjectVersion
1070
     0
  0
ACAD_PROXY_OBJECT
  5
36
102
{ACAD_REACTORS
330
2A
102
}
330
2A
100
AcDbProxyObject
 90
      499
 91
      501
 93
      428
310
42109C9A59DA1D195B90C409028333333333333E3BF0000000000000FB010790141107004050150841D405064090741402480A029950
1001
ACAD
1000
AcDbSavedByObjectVersion
1070
     0
  0
ACAD_PROXY_OBJECT
  5
3A
102
{ACAD_REACTORS
330
2A
102
}
330
2A
100
AcDbProxyObject
 90
      499
 91
      501
 93
      452
310
42D0DBDB1BDC90DA185B99D95104090240C333333333333E3BF0000000000000FB0108901411070040501508421405064090741402480A0350
1001
ACAD
1000
AcDbSavedByObjectVersion
1070
     0
  0
ACAD_PROXY_OBJECT
  5
34
102
{ACAD_REACTORS
330
2A
102
}
330
2A
100
AcDbProxyObject
 90
      499
 91
      501
 93
      500
310
4290DBDB98D95C1D1D585B10940D028333333333333E3BF0000000000000FB0107902409070040501000000000000111010841D405064090740C02480A0340
1001
ACAD
1000
AcDbSavedByObjectVersion
1070
     0
  0
ACAD_PROXY_OBJECT
  5
35
102
{ACAD_REACTORS
330
2A
102
}
330
2A
100
AcDbProxyObject
 90
      499
 91
      501
 93
      412
310
40D11A5B50B409028333333333333E3BF0000000000000FB010790141107004050150841D405064090741402480A02677FFFFFD0
1001
ACAD
1000
AcDbSavedByObjectVersion
1070
     0
  0
ACAD_PROXY_OBJECT
  5
39
102
{ACAD_REACTORS
330
2A
102
}
330
2A
100
AcDbProxyObject
 90
      499
 91
      501
 93
      444
310
42D19858D95C185D1D195C9B90F409028333333333333E3BF0000000000000FB010790141107004050150841D405064090741402480A0350
1001
ACAD
1000
AcDbSavedByObjectVersion
1070
     0
  0
ACAD_PROXY_OBJECT
  5
2B
102
{ACAD_REACTORS
330
2A
102
}
330
2A
100
AcDbProxyObject
 90
      499
 91
      501
 93
      388
310
41119B185D240901404333333333333E3BF0000000000000F9010740A41107004050150841D405064090741402480A1B50
1001
ACAD
1000
AcDbSavedByObjectVersion
1070
     0
  0
ACAD_PROXY_OBJECT
  5
2C
102
{ACAD_REACTORS
330
2A
102
}
330
2A
100
AcDbProxyObject
 90
      499
 91
      501
 93
      476
310
43519B185D15DA5D1A115919D95CD0140901404333333333333E3BF0000000000000F9010740901411070040501600405405064090741402480A1B50
1001
ACAD
1000
AcDbSavedByObjectVersion
1070
     0
  0
ACAD_PROXY_OBJECT
  5
2D
102
{ACAD_REACTORS
330
2A
102
}
330
2A
100
AcDbProxyObject
 90
      499
 91
      501
 93
      412
310
41D1DBDD5C985D5910240902404333333333333E3BF0000000000000F9010740A411070040501641D405064090741402480A1B50
1001
ACAD
1000
AcDbSavedByObjectVersion
1070
     0
  0
ACAD_PROXY_OBJECT
  5
2E
102
{ACAD_REACTORS
330
2A
102
}
330
2A
100
AcDbProxyObject
 90
      499
 91
      501
 93
      500
310
4411DBDD5C985D5915DA5D1A115919D95CD0340902404333333333333E3BF0000000000000F9010740901411070040501600405405064090741402480A1B50
1001
ACAD
1000
AcDbSavedByObjectVersion
1070
     0
  0
ACAD_PROXY_OBJECT
  5
38
102
{ACAD_REACTORS
330
2A
102
}
330
2A
100
AcDbProxyObject
 90
      499
 91
      501
 93
      444
310
42D31A5B995C185D1D195C9B90E409028333333333333E3BF0000000000000FB010790141107004050750841D405064090741402483A0350
1001
ACAD
1000
AcDbSavedByObjectVersion
1070
     0
  0
ACAD_PROXY_OBJECT
  5
33
102
{ACAD_REACTORS
330
2A
102
}
330
2A
100
AcDbProxyObject
 90
      499
 91
      501
 93
      420
310
425499585B1A5CDD1A58D08409028333333333333E3BF0000000000000FB01079019070040501508421405064090741402480A1B40
1001
ACAD
1000
AcDbSavedByObjectVersion
1070
     0
  0
ACAD_PROXY_OBJECT
  5
37
102
{ACAD_REACTORS
330
2A
102
}
330
2A
100
AcDbProxyObject
 90
      499
 91
      501
 93
      412
310
41D51A1A58DAD95B90D409028333333333333E3BF0000000000000FB010790141107004050150C41D405064090741402480A0350
1001
ACAD
1000
AcDbSavedByObjectVersion
1070
     0
  0
XRECORD
  5
114
102
{ACAD_REACTORS
330
10B
102
}
330
10B
100
AcDbXrecord
 90
        0
  0
XRECORD
  5
12A
102
{ACAD_REACTORS
330
10B
102
}
330
10B
100
AcDbXrecord
1000
DSTYLE
1002
{
1070
   340
340
11
1002
}
  0
XRECORD
  5
115
102
{ACAD_REACTORS
330
10B
102
}
330
10B
100
AcDbXrecord
  1
{EE6CCF96-D273-405A-9CAC-A556883645A9}
  0
XRECORD
  5
10E
102
{ACAD_REACTORS
330
10B
102
}
330
10B
100
AcDbXrecord
  1

  0
XRECORD
  5
113
102
{ACAD_REACTORS
330
10B
102
}
330
10B
100
AcDbXrecord
 90
        4
  0
XRECORD
  5
110
102
{ACAD_REACTORS
330
10B
102
}
330
10B
100
AcDbXrecord
340
1A
  0
XRECORD
  5
112
102
{ACAD_REACTORS
330
10B
102
}
330
10B
100
AcDbXrecord
 90
    10781
  0
XRECORD
  5
111
102
{ACAD_REACTORS
330
10B
102
}
330
10B
100
AcDbXrecord
340
19
  0
XRECORD
  5
117
102
{ACAD_REACTORS
330
10B
102
}
330
10B
100
AcDbXrecord
 40
0.0
  0
XRECORD
  5
11A
102
{ACAD_REACTORS
330
10B
102
}
330
10B
100
AcDbXrecord
340
0
  0
XRECORD
  5
120
102
{ACAD_REACTORS
330
10B
102
}
330
10B
100
AcDbXrecord
 10
0.0
 20
0.0
 30
0.0
  0
XRECORD
  5
11C
102
{ACAD_REACTORS
330
10B
102
}
330
10B
100
AcDbXrecord
 10
0.0
 20
0.0
 30
0.0
  0
XRECORD
  5
11F
102
{ACAD_REACTORS
330
10B
102
}
330
10B
100
AcDbXrecord
 10
0.0
 20
0.0
 30
0.0
  0
XRECORD
  5
11D
102
{ACAD_REACTORS
330
10B
102
}
330
10B
100
AcDbXrecord
 10
0.0
 20
0.0
 30
0.0
  0
XRECORD
  5
11E
102
{ACAD_REACTORS
330
10B
102
}
330
10B
100
AcDbXrecord
 10
0.0
 20
0.0
 30
0.0
  0
XRECORD
  5
11B
102
{ACAD_REACTORS
330
10B
102
}
330
10B
100
AcDbXrecord
 10
0.0
 20
0.0
 30
0.0
  0
XRECORD
  5
118
102
{ACAD_REACTORS
330
10B
102
}
330
10B
100
AcDbXrecord
340
0
  0
XRECORD
  5
119
102
{ACAD_REACTORS
330
10B
102
}
330
10B
100
AcDbXrecord
 70
     0
  0
XRECORD
  5
10F
102
{ACAD_REACTORS
330
10B
102
}
330
10B
100
AcDbXrecord
  1

  0
XRECORD
  5
10C
102
{ACAD_REACTORS
330
10B
102
}
330
10B
100
AcDbXrecord
 90
        1
  0
XRECORD
  5
10D
102
{ACAD_REACTORS
330
10B
102
}
330
10B
100
AcDbXrecord
 90
       70
  0
XRECORD
  5
123
102
{ACAD_REACTORS
330
10B
102
}
330
10B
100
AcDbXrecord
340
0
  0
XRECORD
  5
129
102
{ACAD_REACTORS
330
10B
102
}
330
10B
100
AcDbXrecord
 10
0.0
 20
0.0
 30
0.0
  0
XRECORD
  5
125
102
{ACAD_REACTORS
330
10B
102
}
330
10B
100
AcDbXrecord
 10
0.0
 20
0.0
 30
0.0
  0
XRECORD
  5
128
102
{ACAD_REACTORS
330
10B
102
}
330
10B
100
AcDbXrecord
 10
0.0
 20
0.0
 30
0.0
  0
XRECORD
  5
126
102
{ACAD_REACTORS
330
10B
102
}
330
10B
100
AcDbXrecord
 10
0.0
 20
0.0
 30
0.0
  0
XRECORD
  5
127
102
{ACAD_REACTORS
330
10B
102
}
330
10B
100
AcDbXrecord
 10
0.0
 20
0.0
 30
0.0
  0
XRECORD
  5
124
102
{ACAD_REACTORS
330
10B
102
}
330
10B
100
AcDbXrecord
 10
0.0
 20
0.0
 30
0.0
  0
XRECORD
  5
121
102
{ACAD_REACTORS
330
10B
102
}
330
10B
100
AcDbXrecord
340
0
  0
XRECORD
  5
122
102
{ACAD_REACTORS
330
10B
102
}
330
10B
100
AcDbXrecord
 70
     0
  0
XRECORD
  5
116
102
{ACAD_REACTORS
330
10B
102
}
330
10B
100
AcDbXrecord
  1
{FAEB1C32-E019-11D5-929B-00C0DF256EC4}
  0
DICTIONARYVAR
  5
12E
102
{ACAD_REACTORS
330
12B
102
}
330
12B
100
DictionaryVariables
280
     0
  1
2
  0
DICTIONARYVAR
  5
12F
102
{ACAD_REACTORS
330
12B
102
}
330
12B
100
DictionaryVariables
280
     0
  1
1
  0
DICTIONARY
  5
132
330
3D
100
AcDbDictionary
280
     1
  3
ACAD_XREC_ROUNDTRIP
360
133
  0
DICTIONARY
  5
130
330
3C
100
AcDbDictionary
280
     1
  3
ACAD_XREC_ROUNDTRIP
360
131
  0
DICTIONARY
  5
134
330
3E
100
AcDbDictionary
280
     1
  3
ACAD_XREC_ROUNDTRIP
360
135
  0
XRECORD
  5
133
102
{ACAD_REACTORS
330
132
102
}
330
132
100
AcDbXrecord
102
MATERIAL
148
0.0
149
0.0
149
0.0
 93
        0
 94
      127
282
     0
 72
     1
 77
     1
171
     1
175
     1
179
     1
273
     0
  0
XRECORD
  5
131
102
{ACAD_REACTORS
330
130
102
}
330
130
100
AcDbXrecord
102
MATERIAL
148
0.0
149
0.0
149
0.0
 93
        0
 94
      127
282
     0
 72
     1
 77
     1
171
     1
175
     1
179
     1
273
     0
  0
XRECORD
  5
135
102
{ACAD_REACTORS
330
134
102
}
330
134
100
AcDbXrecord
102
MATERIAL
148
0.0
149
0.0
149
0.0
 93
        0
 94
      127
282
     0
 72
     1
 77
     1
171
     1
175
     1
179
     1
273
     0
  0
ENDSEC
  0
EOF
