  0
SECTION
  2
HEADER
  9
$ACADVER
  1
AC1015
  9
$ACADMAINTVER
 70
     6
  9
$DWGCODEPAGE
  3
ANSI_1250
  9
$INSBASE
 10
0.0
 20
0.0
 30
0.0
  9
$EXTMIN
 10
-10.3731
 20
-33.5689
 30
0.0
  9
$EXTMAX
 10
10.3731
 20
33.5688
 30
0.0
  9
$LIMMIN
 10
0.0
 20
0.0
  9
$LIMMAX
 10
12.0
 20
9.0
  9
$ORTHOMODE
 70
     0
  9
$REGENMODE
 70
     1
  9
$FILLMODE
 70
     1
  9
$QTEXTMODE
 70
     0
  9
$MIRRTEXT
 70
     1
  9
$LTSCALE
 40
1.0
  9
$ATTMODE
 70
     1
  9
$TEXTSIZE
 40
0.2
  9
$TRACEWID
 40
0.05
  9
$TEXTSTYLE
  7
Standard
  9
$CLAYER
  8
0
  9
$CELTYPE
  6
ByLayer
  9
$CECOLOR
 62
   256
  9
$CELTSCALE
 40
1.0
  9
$DISPSILH
 70
     0
  9
$DIMSCALE
 40
1.0
  9
$DIMASZ
 40
0.18
  9
$DIMEXO
 40
0.0625
  9
$DIMDLI
 40
0.38
  9
$DIMRND
 40
0.0
  9
$DIMDLE
 40
0.0
  9
$DIMEXE
 40
0.18
  9
$DIMTP
 40
0.0
  9
$DIMTM
 40
0.0
  9
$DIMTXT
 40
0.18
  9
$DIMCEN
 40
0.09
  9
$DIMTSZ
 40
0.0
  9
$DIMTOL
 70
     0
  9
$DIMLIM
 70
     0
  9
$DIMTIH
 70
     1
  9
$DIMTOH
 70
     1
  9
$DIMSE1
 70
     0
  9
$DIMSE2
 70
     0
  9
$DIMTAD
 70
     0
  9
$DIMZIN
 70
     0
  9
$DIMBLK
  1

  9
$DIMASO
 70
     1
  9
$DIMSHO
 70
     1
  9
$DIMPOST
  1

  9
$DIMAPOST
  1

  9
$DIMALT
 70
     0
  9
$DIMALTD
 70
     2
  9
$DIMALTF
 40
25.4
  9
$DIMLFAC
 40
1.0
  9
$DIMTOFL
 70
     0
  9
$DIMTVP
 40
0.0
  9
$DIMTIX
 70
     0
  9
$DIMSOXD
 70
     0
  9
$DIMSAH
 70
     0
  9
$DIMBLK1
  1

  9
$DIMBLK2
  1

  9
$DIMSTYLE
  2
Standard
  9
$DIMCLRD
 70
     0
  9
$DIMCLRE
 70
     0
  9
$DIMCLRT
 70
     0
  9
$DIMTFAC
 40
1.0
  9
$DIMGAP
 40
0.09
  9
$DIMJUST
 70
     0
  9
$DIMSD1
 70
     0
  9
$DIMSD2
 70
     0
  9
$DIMTOLJ
 70
     1
  9
$DIMTZIN
 70
     0
  9
$DIMALTZ
 70
     0
  9
$DIMALTTZ
 70
     0
  9
$DIMUPT
 70
     0
  9
$DIMDEC
 70
     4
  9
$DIMTDEC
 70
     4
  9
$DIMALTU
 70
     2
  9
$DIMALTTD
 70
     2
  9
$DIMTXSTY
  7
Standard
  9
$DIMAUNIT
 70
     0
  9
$DIMADEC
 70
     0
  9
$DIMALTRND
 40
0.0
  9
$DIMAZIN
 70
     0
  9
$DIMDSEP
 70
    46
  9
$DIMATFIT
 70
     3
  9
$DIMFRAC
 70
     0
  9
$DIMLDRBLK
  1

  9
$DIMLUNIT
 70
     2
  9
$DIMLWD
 70
    -2
  9
$DIMLWE
 70
    -2
  9
$DIMTMOVE
 70
     0
  9
$LUNITS
 70
     2
  9
$LUPREC
 70
     4
  9
$SKETCHINC
 40
0.1
  9
$FILLETRAD
 40
0.5
  9
$AUNITS
 70
     0
  9
$AUPREC
 70
     0
  9
$MENU
  1
.
  9
$ELEVATION
 40
0.0
  9
$PELEVATION
 40
0.0
  9
$THICKNESS
 40
0.0
  9
$LIMCHECK
 70
     0
  9
$CHAMFERA
 40
0.5
  9
$CHAMFERB
 40
0.5
  9
$CHAMFERC
 40
1.0
  9
$CHAMFERD
 40
0.0
  9
$SKPOLY
 70
     0
  9
$TDCREATE
 40
2457637.371985081
  9
$TDUCREATE
 40
2457637.288651748
  9
$TDUPDATE
 40
2457637.371985093
  9
$TDUUPDATE
 40
2457637.288651759
  9
$TDINDWG
 40
0.0000000116
  9
$TDUSRTIMER
 40
0.0000000116
  9
$USRTIMER
 70
     1
  9
$ANGBASE
 50
0.0
  9
$ANGDIR
 70
     0
  9
$PDMODE
 70
     0
  9
$PDSIZE
 40
0.0
  9
$PLINEWID
 40
0.0
  9
$SPLFRAME
 70
     0
  9
$SPLINETYPE
 70
     6
  9
$SPLINESEGS
 70
     8
  9
$HANDSEED
  5
BF
  9
$SURFTAB1
 70
     6
  9
$SURFTAB2
 70
     6
  9
$SURFTYPE
 70
     6
  9
$SURFU
 70
     6
  9
$SURFV
 70
     6
  9
$UCSBASE
  2

  9
$UCSNAME
  2

  9
$UCSORG
 10
0.0
 20
0.0
 30
0.0
  9
$UCSXDIR
 10
1.0
 20
0.0
 30
0.0
  9
$UCSYDIR
 10
0.0
 20
1.0
 30
0.0
  9
$UCSORTHOREF
  2

  9
$UCSORTHOVIEW
 70
     0
  9
$UCSORGTOP
 10
0.0
 20
0.0
 30
0.0
  9
$UCSORGBOTTOM
 10
0.0
 20
0.0
 30
0.0
  9
$UCSORGLEFT
 10
0.0
 20
0.0
 30
0.0
  9
$UCSORGRIGHT
 10
0.0
 20
0.0
 30
0.0
  9
$UCSORGFRONT
 10
0.0
 20
0.0
 30
0.0
  9
$UCSORGBACK
 10
0.0
 20
0.0
 30
0.0
  9
$PUCSBASE
  2

  9
$PUCSNAME
  2

  9
$PUCSORG
 10
0.0
 20
0.0
 30
0.0
  9
$PUCSXDIR
 10
1.0
 20
0.0
 30
0.0
  9
$PUCSYDIR
 10
0.0
 20
1.0
 30
0.0
  9
$PUCSORTHOREF
  2

  9
$PUCSORTHOVIEW
 70
     0
  9
$PUCSORGTOP
 10
0.0
 20
0.0
 30
0.0
  9
$PUCSORGBOTTOM
 10
0.0
 20
0.0
 30
0.0
  9
$PUCSORGLEFT
 10
0.0
 20
0.0
 30
0.0
  9
$PUCSORGRIGHT
 10
0.0
 20
0.0
 30
0.0
  9
$PUCSORGFRONT
 10
0.0
 20
0.0
 30
0.0
  9
$PUCSORGBACK
 10
0.0
 20
0.0
 30
0.0
  9
$USERI1
 70
     0
  9
$USERI2
 70
     0
  9
$USERI3
 70
     0
  9
$USERI4
 70
     0
  9
$USERI5
 70
     0
  9
$USERR1
 40
0.0
  9
$USERR2
 40
0.0
  9
$USERR3
 40
0.0
  9
$USERR4
 40
0.0
  9
$USERR5
 40
0.0
  9
$WORLDVIEW
 70
     1
  9
$SHADEDGE
 70
     3
  9
$SHADEDIF
 70
    70
  9
$TILEMODE
 70
     1
  9
$MAXACTVP
 70
    64
  9
$PINSBASE
 10
0.0
 20
0.0
 30
0.0
  9
$PLIMCHECK
 70
     0
  9
$PEXTMIN
 10
1.000000000000000E+20
 20
1.000000000000000E+20
 30
1.000000000000000E+20
  9
$PEXTMAX
 10
-1.000000000000000E+20
 20
-1.000000000000000E+20
 30
-1.000000000000000E+20
  9
$PLIMMIN
 10
0.0
 20
0.0
  9
$PLIMMAX
 10
12.0
 20
9.0
  9
$UNITMODE
 70
     0
  9
$VISRETAIN
 70
     1
  9
$PLINEGEN
 70
     0
  9
$PSLTSCALE
 70
     1
  9
$TREEDEPTH
 70
  3020
  9
$CMLSTYLE
  2
Standard
  9
$CMLJUST
 70
     0
  9
$CMLSCALE
 40
1.0
  9
$PROXYGRAPHICS
 70
     1
  9
$MEASUREMENT
 70
     0
  9
$CELWEIGHT
370
    -1
  9
$ENDCAPS
280
     0
  9
$JOINSTYLE
280
     0
  9
$LWDISPLAY
290
     0
  9
$INSUNITS
 70
     4
  9
$HYPERLINKBASE
  1

  9
$STYLESHEET
  1

  9
$XEDIT
290
     1
  9
$CEPSNTYPE
380
     0
  9
$PSTYLEMODE
290
     1
  9
$FINGERPRINTGUID
  2
{AF414F7C-D724-4971-B800-5852B060B769}
  9
$VERSIONGUID
  2
{FAEB1C32-E019-11D5-929B-00C0DF256EC4}
  9
$EXTNAMES
290
     1
  9
$PSVPSCALE
 40
0.0
  9
$OLESTARTUP
290
     0
  0
ENDSEC
  0
SECTION
  2
CLASSES
  0
CLASS
  1
ACDBDICTIONARYWDFLT
  2
AcDbDictionaryWithDefault
  3
ObjectDBX Classes
 90
        0
280
     0
281
     0
  0
CLASS
  1
VISUALSTYLE
  2
AcDbVisualStyle
  3
ObjectDBX Classes
 90
     4095
280
     0
281
     0
  0
CLASS
  1
MATERIAL
  2
AcDbMaterial
  3
ObjectDBX Classes
 90
     1153
280
     0
281
     0
  0
CLASS
  1
DICTIONARYVAR
  2
AcDbDictionaryVar
  3
ObjectDBX Classes
 90
        0
280
     0
281
     0
  0
CLASS
  1
ACDBPLACEHOLDER
  2
AcDbPlaceHolder
  3
ObjectDBX Classes
 90
        0
280
     0
281
     0
  0
CLASS
  1
LAYOUT
  2
AcDbLayout
  3
ObjectDBX Classes
 90
        0
280
     0
281
     0
  0
ENDSEC
  0
SECTION
  2
TABLES
  0
TABLE
  2
VPORT
  5
8
330
0
100
AcDbSymbolTable
 70
     1
  0
VPORT
  5
29
330
8
100
AcDbSymbolTableRecord
100
AcDbViewportTableRecord
  2
*Active
 70
     0
 10
0.0
 20
0.0
 11
1.0
 21
1.0
 12
10.42990654205607
 22
4.5
 13
0.0
 23
0.0
 14
0.5
 24
0.5
 15
0.5
 25
0.5
 16
0.0
 26
0.0
 36
1.0
 17
0.0
 27
0.0
 37
0.0
 40
9.0
 41
1.972972972850329
 42
50.0
 43
0.0
 44
0.0
 50
0.0
 51
0.0
 71
     0
 72
   100
 73
     1
 74
     3
 75
     0
 76
     0
 77
     0
 78
     0
281
     0
 65
     1
110
0.0
120
0.0
130
0.0
111
1.0
121
0.0
131
0.0
112
0.0
122
1.0
132
0.0
 79
     0
146
0.0
  0
ENDTAB
  0
TABLE
  2
LTYPE
  5
5
330
0
100
AcDbSymbolTable
 70
     2
  0
LTYPE
  5
14
330
5
100
AcDbSymbolTableRecord
100
AcDbLinetypeTableRecord
  2
ByBlock
 70
     0
  3

 72
    65
 73
     0
 40
0.0
  0
LTYPE
  5
15
330
5
100
AcDbSymbolTableRecord
100
AcDbLinetypeTableRecord
  2
ByLayer
 70
     0
  3

 72
    65
 73
     0
 40
0.0
  0
LTYPE
  5
16
330
5
100
AcDbSymbolTableRecord
100
AcDbLinetypeTableRecord
  2
Continuous
 70
     0
  3
Solid line
 72
    65
 73
     0
 40
0.0
  0
LTYPE
  5
6F
330
5
100
AcDbSymbolTableRecord
100
AcDbLinetypeTableRecord
  2
New Line1
 70
     0
  3

 72
    65
 73
     4
 40
1.2
 49
0.5
 74
     4
 75
     0
340
0
 46
1.0
 50
0.0
 44
0.0
 45
0.0
 49
-0.3
 74
     4
 75
     0
340
0
 46
1.0
 50
0.0
 44
0.0
 45
0.0
 49
0.1
 74
     4
 75
     0
340
0
 46
1.0
 50
0.0
 44
0.0
 45
0.0
 49
-0.3
 74
     4
 75
     0
340
0
 46
1.0
 50
0.0
 44
0.0
 45
0.0
  0
ENDTAB
  0
TABLE
  2
LAYER
  5
2
330
0
100
AcDbSymbolTable
 70
     2
  0
LAYER
  5
10
330
2
100
AcDbSymbolTableRecord
100
AcDbLayerTableRecord
  2
0
 70
     0
 62
     7
  6
Continuous
370
    -3
390
F
  0
LAYER
  5
40
330
2
100
AcDbSymbolTableRecord
100
AcDbLayerTableRecord
  2
DEFAULT_1
 70
     0
 62
     7
  6
Continuous
370
    -3
390
F
  0
ENDTAB
  0
TABLE
  2
STYLE
  5
3
330
0
100
AcDbSymbolTable
 70
     1
  0
STYLE
  5
11
330
3
100
AcDbSymbolTableRecord
100
AcDbTextStyleTableRecord
  2
Standard
 70
     0
 40
0.0
 41
1.0
 50
0.0
 71
     0
 42
0.2
  3
txt
  4

  0
ENDTAB
  0
TABLE
  2
VIEW
  5
6
330
0
100
AcDbSymbolTable
 70
     0
  0
ENDTAB
  0
TABLE
  2
UCS
  5
7
330
0
100
AcDbSymbolTable
 70
     0
  0
ENDTAB
  0
TABLE
  2
APPID
  5
9
330
0
100
AcDbSymbolTable
 70
     2
  0
APPID
  5
12
330
9
100
AcDbSymbolTableRecord
100
AcDbRegAppTableRecord
  2
ACAD
 70
     0
  0
APPID
  5
3F
330
9
100
AcDbSymbolTableRecord
100
AcDbRegAppTableRecord
  2
ODA
 70
     0
  0
ENDTAB
  0
TABLE
  2
DIMSTYLE
  5
A
330
0
100
AcDbSymbolTable
 70
     1
100
AcDbDimStyleTable
  0
DIMSTYLE
105
27
330
A
100
AcDbSymbolTableRecord
100
AcDbDimStyleTableRecord
  2
Standard
 70
     0
340
11
  0
ENDTAB
  0
TABLE
  2
BLOCK_RECORD
  5
1
330
0
100
AcDbSymbolTable
 70
     1
  0
BLOCK_RECORD
  5
1F
330
1
100
AcDbSymbolTableRecord
100
AcDbBlockTableRecord
  2
*Model_Space
340
22
  0
BLOCK_RECORD
  5
1B
330
1
100
AcDbSymbolTableRecord
100
AcDbBlockTableRecord
  2
*Paper_Space
340
1E
  0
BLOCK_RECORD
  5
23
330
1
100
AcDbSymbolTableRecord
100
AcDbBlockTableRecord
  2
*Paper_Space0
340
26
  0
ENDTAB
  0
ENDSEC
  0
SECTION
  2
BLOCKS
  0
BLOCK
  5
20
330
1F
100
AcDbEntity
  8
0
100
AcDbBlockBegin
  2
*Model_Space
 70
     0
 10
0.0
 20
0.0
 30
0.0
  3
*Model_Space
  1

  0
ENDBLK
  5
21
330
1F
100
AcDbEntity
  8
0
100
AcDbBlockEnd
  0
BLOCK
  5
1C
330
1B
100
AcDbEntity
 67
     1
  8
0
100
AcDbBlockBegin
  2
*Paper_Space
 70
     0
 10
0.0
 20
0.0
 30
0.0
  3
*Paper_Space
  1

  0
ENDBLK
  5
1D
330
1B
100
AcDbEntity
 67
     1
  8
0
100
AcDbBlockEnd
  0
BLOCK
  5
24
330
23
100
AcDbEntity
  8
0
100
AcDbBlockBegin
  2
*Paper_Space0
 70
     0
 10
0.0
 20
0.0
 30
0.0
  3
*Paper_Space0
  1

  0
ENDBLK
  5
25
330
23
100
AcDbEntity
  8
0
100
AcDbBlockEnd
  0
ENDSEC
  0
SECTION
  2
ENTITIES
  0
SPLINE
  5
41
330
1F
100
AcDbEntity
  8
DEFAULT_1
 62
   250
370
    15
100
AcDbSpline
210
0.0
220
0.0
230
1.0
 70
    24
 71
     3
 72
     8
 73
     4
 74
     0
 42
0.0000000001
 43
0.0000000001
 40
0.0
 40
0.0
 40
0.0
 40
0.0
 40
1.0
 40
1.0
 40
1.0
 40
1.0
 10
-7.5926
 20
21.761
 30
0.0
 10
-7.5926
 20
21.761
 30
0.0
 10
-7.5926
 20
25.1997
 30
0.0
 10
-7.5926
 20
25.1997
 30
0.0
  0
SPLINE
  5
42
330
1F
100
AcDbEntity
  8
DEFAULT_1
 62
   250
370
    15
100
AcDbSpline
210
0.0
220
0.0
230
1.0
 70
    24
 71
     3
 72
     8
 73
     4
 74
     0
 42
0.0000000001
 43
0.0000000001
 40
0.0
 40
0.0
 40
0.0
 40
0.0
 40
1.0
 40
1.0
 40
1.0
 40
1.0
 10
-8.3347
 20
25.3807
 30
0.0
 10
-8.3347
 20
25.3807
 30
0.0
 10
-8.3347
 20
30.4466
 30
0.0
 10
-8.3347
 20
30.4466
 30
0.0
  0
SPLINE
  5
43
330
1F
100
AcDbEntity
  8
DEFAULT_1
 62
   250
370
    15
100
AcDbSpline
210
0.0
220
0.0
230
1.0
 70
    24
 71
     3
 72
     8
 73
     4
 74
     0
 42
0.0000000001
 43
0.0000000001
 40
0.0
 40
0.0
 40
0.0
 40
0.0
 40
1.0
 40
1.0
 40
1.0
 40
1.0
 10
-8.3251
 20
21.4164
 30
0.0
 10
-8.3251
 20
21.4164
 30
0.0
 10
-8.3251
 20
24.0968
 30
0.0
 10
-8.3251
 20
24.0968
 30
0.0
  0
SPLINE
  5
44
330
1F
100
AcDbEntity
  8
DEFAULT_1
 62
   250
370
    15
100
AcDbSpline
210
0.0
220
0.0
230
1.0
 70
    24
 71
     3
 72
     8
 73
     4
 74
     0
 42
0.0000000001
 43
0.0000000001
 40
0.0
 40
0.0
 40
0.0
 40
0.0
 40
1.0
 40
1.0
 40
1.0
 40
1.0
 10
1.3115
 20
21.8383
 30
0.0
 10
1.3115
 20
21.8383
 30
0.0
 10
1.3115
 20
25.1224
 30
0.0
 10
1.3115
 20
25.1224
 30
0.0
  0
SPLINE
  5
45
330
1F
100
AcDbEntity
  8
DEFAULT_1
 62
   250
370
    15
100
AcDbSpline
210
0.0
220
0.0
230
1.0
 70
    24
 71
     3
 72
     8
 73
     4
 74
     0
 42
0.0000000001
 43
0.0000000001
 40
0.0
 40
0.0
 40
0.0
 40
0.0
 40
1.0
 40
1.0
 40
1.0
 40
1.0
 10
3.4595
 20
24.5501
 30
0.0
 10
3.4595
 20
24.5501
 30
0.0
 10
-9.5712
 20
24.5501
 30
0.0
 10
-9.5712
 20
24.5501
 30
0.0
  0
SPLINE
  5
46
330
1F
100
AcDbEntity
  8
DEFAULT_1
 62
   250
370
    15
100
AcDbSpline
210
0.0
220
0.0
230
1.0
 70
    24
 71
     3
 72
     8
 73
     4
 74
     0
 42
0.0000000001
 43
0.0000000001
 40
0.0
 40
0.0
 40
0.0
 40
0.0
 40
1.0
 40
1.0
 40
1.0
 40
1.0
 10
2.0098
 20
21.1849
 30
0.0
 10
2.0098
 20
21.1849
 30
0.0
 10
8.8507
 20
21.1849
 30
0.0
 10
8.8507
 20
21.1849
 30
0.0
  0
SPLINE
  5
47
330
1F
100
AcDbEntity
  8
DEFAULT_1
 62
   250
370
    15
100
AcDbSpline
210
0.0
220
0.0
230
1.0
 70
    24
 71
     3
 72
     8
 73
     4
 74
     0
 42
0.0000000001
 43
0.0000000001
 40
0.0
 40
0.0
 40
0.0
 40
0.0
 40
1.0
 40
1.0
 40
1.0
 40
1.0
 10
1.1348
 20
-28.1588
 30
0.0
 10
1.1348
 20
-28.1588
 30
0.0
 10
8.8507
 20
-28.1588
 30
0.0
 10
8.8507
 20
-28.1588
 30
0.0
  0
SPLINE
  5
48
330
1F
100
AcDbEntity
  8
DEFAULT_1
 62
   250
370
    15
100
AcDbSpline
210
0.0
220
0.0
230
1.0
 70
    24
 71
     3
 72
     8
 73
     4
 74
     0
 42
0.0000000001
 43
0.0000000001
 40
0.0
 40
0.0
 40
0.0
 40
0.0
 40
1.0
 40
1.0
 40
1.0
 40
1.0
 10
8.126
 20
-28.1585
 30
0.0
 10
8.126
 20
-28.1585
 30
0.0
 10
8.126
 20
20.2085
 30
0.0
 10
8.126
 20
20.2085
 30
0.0
  0
SPLINE
  5
49
330
1F
100
AcDbEntity
  8
DEFAULT_1
 62
   250
370
    15
100
AcDbSpline
210
0.0
220
0.0
230
1.0
 70
    24
 71
     3
 72
     8
 73
     4
 74
     0
 42
0.0000000001
 43
0.0000000001
 40
0.0
 40
0.0
 40
0.0
 40
0.0
 40
1.0
 40
1.0
 40
1.0
 40
1.0
 10
4.3194
 20
30.0343
 30
0.0
 10
4.3194
 20
30.0343
 30
0.0
 10
-10.3731
 20
30.0343
 30
0.0
 10
-10.3731
 20
30.0343
 30
0.0
  0
SPLINE
  5
4A
330
1F
100
AcDbEntity
  8
DEFAULT_1
 62
   250
370
    15
100
AcDbSpline
210
0.0
220
0.0
230
1.0
 70
    24
 71
     3
 72
     8
 73
     4
 74
     0
 42
0.0000000001
 43
0.0000000001
 40
0.0
 40
0.0
 40
0.0
 40
0.0
 40
1.0
 40
1.0
 40
1.0
 40
1.0
 10
-6.8502
 20
-28.7392
 30
0.0
 10
-6.8502
 20
-28.7392
 30
0.0
 10
-6.8502
 20
-33.3757
 30
0.0
 10
-6.8502
 20
-33.3757
 30
0.0
  0
SPLINE
  5
4B
330
1F
100
AcDbEntity
  8
DEFAULT_1
 62
   250
370
    15
100
AcDbSpline
210
0.0
220
0.0
230
1.0
 70
    24
 71
     3
 72
     8
 73
     4
 74
     0
 42
0.0000000001
 43
0.0000000001
 40
0.0
 40
0.0
 40
0.0
 40
0.0
 40
1.0
 40
1.0
 40
1.0
 40
1.0
 10
0.5695
 20
-28.8937
 30
0.0
 10
0.5695
 20
-28.8937
 30
0.0
 10
0.5695
 20
-33.5689
 30
0.0
 10
0.5695
 20
-33.5689
 30
0.0
  0
SPLINE
  5
4C
330
1F
100
AcDbEntity
  8
DEFAULT_1
 62
   250
370
    15
100
AcDbSpline
210
0.0
220
0.0
230
1.0
 70
    24
 71
     3
 72
     8
 73
     4
 74
     0
 42
0.0000000001
 43
0.0000000001
 40
0.0
 40
0.0
 40
0.0
 40
0.0
 40
1.0
 40
1.0
 40
1.0
 40
1.0
 10
10.3731
 20
-32.8844
 30
0.0
 10
10.3731
 20
-32.8844
 30
0.0
 10
-8.5997
 20
-32.8844
 30
0.0
 10
-8.5997
 20
-32.8844
 30
0.0
  0
SPLINE
  5
4D
330
1F
100
AcDbEntity
  8
DEFAULT_1
 62
   250
370
    30
100
AcDbSpline
210
0.0
220
0.0
230
1.0
 70
    24
 71
     3
 72
     8
 73
     4
 74
     0
 42
0.0000000001
 43
0.0000000001
 40
0.0
 40
0.0
 40
0.0
 40
0.0
 40
1.0
 40
1.0
 40
1.0
 40
1.0
 10
0.2448
 20
-28.1585
 30
0.0
 10
0.2448
 20
-28.1585
 30
0.0
 10
-6.526
 20
-28.1585
 30
0.0
 10
-6.526
 20
-28.1585
 30
0.0
  0
SPLINE
  5
4E
330
1F
100
AcDbEntity
  8
DEFAULT_1
 62
   250
370
    30
100
AcDbSpline
210
0.0
220
0.0
230
1.0
 70
    24
 71
     3
 72
     8
 73
     4
 74
     0
 42
0.0000000001
 43
0.0000000001
 40
0.0
 40
0.0
 40
0.0
 40
0.0
 40
1.0
 40
1.0
 40
1.0
 40
1.0
 10
-6.526
 20
-28.1585
 30
0.0
 10
-6.526
 20
-28.1585
 30
0.0
 10
-6.8506
 20
-27.5963
 30
0.0
 10
-6.8506
 20
-27.5963
 30
0.0
  0
SPLINE
  5
4F
330
1F
100
AcDbEntity
  8
DEFAULT_1
 62
   250
370
    30
100
AcDbSpline
210
0.0
220
0.0
230
1.0
 70
    24
 71
     3
 72
     8
 73
     4
 74
     0
 42
0.0000000001
 43
0.0000000001
 40
0.0
 40
0.0
 40
0.0
 40
0.0
 40
1.0
 40
1.0
 40
1.0
 40
1.0
 10
-8.2419
 20
18.5618
 30
0.0
 10
-8.2419
 20
18.5618
 30
0.0
 10
-8.2419
 20
21.1852
 30
0.0
 10
-8.2419
 20
21.1852
 30
0.0
  0
SPLINE
  5
50
330
1F
100
AcDbEntity
  8
DEFAULT_1
 62
   250
370
    30
100
AcDbSpline
210
0.0
220
0.0
230
1.0
 70
    24
 71
     3
 72
     8
 73
     4
 74
     0
 42
0.0000000001
 43
0.0000000001
 40
0.0
 40
0.0
 40
0.0
 40
0.0
 40
1.0
 40
1.0
 40
1.0
 40
1.0
 10
-8.1354
 20
19.3301
 30
0.0
 10
-8.1354
 20
19.3301
 30
0.0
 10
-8.1354
 20
20.6287
 30
0.0
 10
-8.1354
 20
20.6287
 30
0.0
  0
SPLINE
  5
51
330
1F
100
AcDbEntity
  8
DEFAULT_1
 62
   250
370
    30
100
AcDbSpline
210
0.0
220
0.0
230
1.0
 70
    24
 71
     3
 72
     8
 73
     4
 74
     0
 42
0.0000000001
 43
0.0000000001
 40
0.0
 40
0.0
 40
0.0
 40
0.0
 40
1.0
 40
1.0
 40
1.0
 40
1.0
 10
-7.0005
 20
20.6287
 30
0.0
 10
-7.0005
 20
20.6287
 30
0.0
 10
-7.0005
 20
19.3301
 30
0.0
 10
-7.0005
 20
19.3301
 30
0.0
  0
SPLINE
  5
52
330
1F
100
AcDbEntity
  8
DEFAULT_1
 62
   250
370
    30
100
AcDbSpline
210
0.0
220
0.0
230
1.0
 70
    24
 71
     3
 72
     8
 73
     4
 74
     0
 42
0.0000000001
 43
0.0000000001
 40
0.0
 40
0.0
 40
0.0
 40
0.0
 40
1.0
 40
1.0
 40
1.0
 40
1.0
 10
-6.8506
 20
18.1171
 30
0.0
 10
-6.8506
 20
18.1171
 30
0.0
 10
-6.8506
 20
-27.5963
 30
0.0
 10
-6.8506
 20
-27.5963
 30
0.0
  0
SPLINE
  5
53
330
1F
100
AcDbEntity
  8
DEFAULT_1
 62
   250
370
    30
100
AcDbSpline
210
0.0
220
0.0
230
1.0
 70
    24
 71
     3
 72
     8
 73
     4
 74
     0
 42
0.0000000001
 43
0.0000000001
 40
0.0
 40
0.0
 40
0.0
 40
0.0
 40
1.0
 40
1.0
 40
1.0
 40
1.0
 10
-6.4759
 20
20.6287
 30
0.0
 10
-6.4759
 20
20.6287
 30
0.0
 10
-6.4759
 20
19.3301
 30
0.0
 10
-6.4759
 20
19.3301
 30
0.0
  0
SPLINE
  5
54
330
1F
100
AcDbEntity
  8
DEFAULT_1
 62
   250
370
    30
100
AcDbSpline
210
0.0
220
0.0
230
1.0
 70
    24
 71
     3
 72
     8
 73
     4
 74
     0
 42
0.0000000001
 43
0.0000000001
 40
0.0
 40
0.0
 40
0.0
 40
0.0
 40
1.0
 40
1.0
 40
1.0
 40
1.0
 10
-3.5116
 20
20.6287
 30
0.0
 10
-3.5116
 20
20.6287
 30
0.0
 10
-3.5116
 20
19.3301
 30
0.0
 10
-3.5116
 20
19.3301
 30
0.0
  0
SPLINE
  5
55
330
1F
100
AcDbEntity
  8
DEFAULT_1
 62
   250
370
    30
100
AcDbSpline
210
0.0
220
0.0
230
1.0
 70
    24
 71
     3
 72
     8
 73
     4
 74
     0
 42
0.0000000001
 43
0.0000000001
 40
0.0
 40
0.0
 40
0.0
 40
0.0
 40
1.0
 40
1.0
 40
1.0
 40
1.0
 10
-2.7695
 20
20.6287
 30
0.0
 10
-2.7695
 20
20.6287
 30
0.0
 10
-2.7695
 20
19.3301
 30
0.0
 10
-2.7695
 20
19.3301
 30
0.0
  0
SPLINE
  5
56
330
1F
100
AcDbEntity
  8
DEFAULT_1
 62
   250
370
    30
100
AcDbSpline
210
0.0
220
0.0
230
1.0
 70
    24
 71
     3
 72
     8
 73
     4
 74
     0
 42
0.0000000001
 43
0.0000000001
 40
0.0
 40
0.0
 40
0.0
 40
0.0
 40
1.0
 40
1.0
 40
1.0
 40
1.0
 10
0.1289
 20
19.3301
 30
0.0
 10
0.1289
 20
19.3301
 30
0.0
 10
0.1289
 20
20.6287
 30
0.0
 10
0.1289
 20
20.6287
 30
0.0
  0
SPLINE
  5
57
330
1F
100
AcDbEntity
  8
DEFAULT_1
 62
   250
370
    30
100
AcDbSpline
210
0.0
220
0.0
230
1.0
 70
    24
 71
     3
 72
     8
 73
     4
 74
     0
 42
0.0000000001
 43
0.0000000001
 40
0.0
 40
0.0
 40
0.0
 40
0.0
 40
1.0
 40
1.0
 40
1.0
 40
1.0
 10
0.5695
 20
17.7489
 30
0.0
 10
0.5695
 20
17.7489
 30
0.0
 10
0.5695
 20
-27.5963
 30
0.0
 10
0.5695
 20
-27.5963
 30
0.0
  0
SPLINE
  5
58
330
1F
100
AcDbEntity
  8
DEFAULT_1
 62
   250
370
    30
100
AcDbSpline
210
0.0
220
0.0
230
1.0
 70
    24
 71
     3
 72
     8
 73
     4
 74
     0
 42
0.0000000001
 43
0.0000000001
 40
0.0
 40
0.0
 40
0.0
 40
0.0
 40
1.0
 40
1.0
 40
1.0
 40
1.0
 10
1.8542
 20
19.3301
 30
0.0
 10
1.8542
 20
19.3301
 30
0.0
 10
1.8542
 20
20.6287
 30
0.0
 10
1.8542
 20
20.6287
 30
0.0
  0
SPLINE
  5
59
330
1F
100
AcDbEntity
  8
DEFAULT_1
 62
   250
370
    30
100
AcDbSpline
210
0.0
220
0.0
230
1.0
 70
    24
 71
     3
 72
     8
 73
     4
 74
     0
 42
0.0000000001
 43
0.0000000001
 40
0.0
 40
0.0
 40
0.0
 40
0.0
 40
1.0
 40
1.0
 40
1.0
 40
1.0
 10
1.868
 20
18.5881
 30
0.0
 10
1.868
 20
18.5881
 30
0.0
 10
1.868
 20
18.9591
 30
0.0
 10
1.868
 20
18.9591
 30
0.0
  0
SPLINE
  5
5A
330
1F
100
AcDbEntity
  8
DEFAULT_1
 62
   250
370
    30
100
AcDbSpline
210
0.0
220
0.0
230
1.0
 70
    24
 71
     3
 72
     8
 73
     4
 74
     0
 42
0.0000000001
 43
0.0000000001
 40
0.0
 40
0.0
 40
0.0
 40
0.0
 40
1.0
 40
1.0
 40
1.0
 40
1.0
 10
1.9607
 20
18.9591
 30
0.0
 10
1.9607
 20
18.9591
 30
0.0
 10
1.9607
 20
21.1852
 30
0.0
 10
1.9607
 20
21.1852
 30
0.0
  0
SPLINE
  5
5B
330
1F
100
AcDbEntity
  8
DEFAULT_1
 62
   250
370
    30
100
AcDbSpline
210
0.0
220
0.0
230
1.0
 70
    24
 71
     3
 72
     8
 73
     4
 74
     0
 42
0.0000000001
 43
0.0000000001
 40
0.0
 40
0.0
 40
0.0
 40
0.0
 40
1.0
 40
1.0
 40
1.0
 40
1.0
 10
0.2448
 20
-28.1585
 30
0.0
 10
0.2448
 20
-28.1585
 30
0.0
 10
0.5695
 20
-27.5963
 30
0.0
 10
0.5695
 20
-27.5963
 30
0.0
  0
SPLINE
  5
5C
330
1F
100
AcDbEntity
  8
DEFAULT_1
 62
   250
370
    30
100
AcDbSpline
210
0.0
220
0.0
230
1.0
 70
    24
 71
     3
 72
     8
 73
     4
 74
     0
 42
0.0000000001
 43
0.0000000001
 40
0.0
 40
0.0
 40
0.0
 40
0.0
 40
1.0
 40
1.0
 40
1.0
 40
1.0
 10
-7.7781
 20
18.2171
 30
0.0
 10
-7.7781
 20
18.2171
 30
0.0
 10
1.497
 20
18.2171
 30
0.0
 10
1.497
 20
18.2171
 30
0.0
  0
SPLINE
  5
5D
330
1F
100
AcDbEntity
  8
DEFAULT_1
 62
   250
370
    30
100
AcDbSpline
210
0.0
220
0.0
230
1.0
 70
    24
 71
     3
 72
     8
 73
     4
 74
     0
 42
0.0000000001
 43
0.0000000001
 40
0.0
 40
0.0
 40
0.0
 40
0.0
 40
1.0
 40
1.0
 40
1.0
 40
1.0
 10
1.9607
 20
18.9591
 30
0.0
 10
1.9607
 20
18.9591
 30
0.0
 10
1.868
 20
18.9591
 30
0.0
 10
1.868
 20
18.9591
 30
0.0
  0
SPLINE
  5
5E
330
1F
100
AcDbEntity
  8
DEFAULT_1
 62
   250
370
    30
100
AcDbSpline
210
0.0
220
0.0
230
1.0
 70
    24
 71
     3
 72
     8
 73
     4
 74
     0
 42
0.0000000001
 43
0.0000000001
 40
0.0
 40
0.0
 40
0.0
 40
0.0
 40
1.0
 40
1.0
 40
1.0
 40
1.0
 10
1.9472
 20
20.6287
 30
0.0
 10
1.9472
 20
20.6287
 30
0.0
 10
0.7194
 20
20.6287
 30
0.0
 10
0.7194
 20
20.6287
 30
0.0
  0
SPLINE
  5
5F
330
1F
100
AcDbEntity
  8
DEFAULT_1
 62
   250
370
    30
100
AcDbSpline
210
0.0
220
0.0
230
1.0
 70
    24
 71
     3
 72
     8
 73
     4
 74
     0
 42
0.0000000001
 43
0.0000000001
 40
0.0
 40
0.0
 40
0.0
 40
0.0
 40
1.0
 40
1.0
 40
1.0
 40
1.0
 10
0.1316
 20
20.6287
 30
0.0
 10
0.1316
 20
20.6287
 30
0.0
 10
-2.7695
 20
20.6287
 30
0.0
 10
-2.7695
 20
20.6287
 30
0.0
  0
SPLINE
  5
60
330
1F
100
AcDbEntity
  8
DEFAULT_1
 62
   250
370
    30
100
AcDbSpline
210
0.0
220
0.0
230
1.0
 70
    24
 71
     3
 72
     8
 73
     4
 74
     0
 42
0.0000000001
 43
0.0000000001
 40
0.0
 40
0.0
 40
0.0
 40
0.0
 40
1.0
 40
1.0
 40
1.0
 40
1.0
 10
-3.5116
 20
20.6287
 30
0.0
 10
-3.5116
 20
20.6287
 30
0.0
 10
-6.4759
 20
20.6287
 30
0.0
 10
-6.4759
 20
20.6287
 30
0.0
  0
SPLINE
  5
61
330
1F
100
AcDbEntity
  8
DEFAULT_1
 62
   250
370
    30
100
AcDbSpline
210
0.0
220
0.0
230
1.0
 70
    24
 71
     3
 72
     8
 73
     4
 74
     0
 42
0.0000000001
 43
0.0000000001
 40
0.0
 40
0.0
 40
0.0
 40
0.0
 40
1.0
 40
1.0
 40
1.0
 40
1.0
 10
-7.0005
 20
20.6287
 30
0.0
 10
-7.0005
 20
20.6287
 30
0.0
 10
-8.2284
 20
20.6287
 30
0.0
 10
-8.2284
 20
20.6287
 30
0.0
  0
SPLINE
  5
62
330
1F
100
AcDbEntity
  8
DEFAULT_1
 62
   250
370
    30
100
AcDbSpline
210
0.0
220
0.0
230
1.0
 70
    24
 71
     3
 72
     8
 73
     4
 74
     0
 42
0.0000000001
 43
0.0000000001
 40
0.0
 40
0.0
 40
0.0
 40
0.0
 40
1.0
 40
1.0
 40
1.0
 40
1.0
 10
1.9607
 20
21.1852
 30
0.0
 10
1.9607
 20
21.1852
 30
0.0
 10
-8.2419
 20
21.1852
 30
0.0
 10
-8.2419
 20
21.1852
 30
0.0
  0
SPLINE
  5
63
330
1F
100
AcDbEntity
  8
DEFAULT_1
 62
   250
370
    30
100
AcDbSpline
210
0.0
220
0.0
230
1.0
 70
     8
 71
     3
 72
    12
 73
     8
 74
     0
 42
0.0000000001
 43
0.0000000001
 40
0.0
 40
0.0
 40
0.0
 40
0.0
 40
0.3333333333333333
 40
0.3333333333333333
 40
0.3333333333333333
 40
0.3333333333333333
 40
1.0
 40
1.0
 40
1.0
 40
1.0
 10
-3.5116
 20
19.3301
 30
0.0
 10
-3.5116
 20
19.1252
 30
0.0
 10
-3.3455
 20
18.9591
 30
0.0
 10
-3.1405
 20
18.9591
 30
0.0
 10
-3.1405
 20
18.9591
 30
0.0
 10
-2.9356
 20
18.9591
 30
0.0
 10
-2.7695
 20
19.1252
 30
0.0
 10
-2.7695
 20
19.3301
 30
0.0
  0
SPLINE
  5
64
330
1F
100
AcDbEntity
  8
DEFAULT_1
 62
   250
370
    30
100
AcDbSpline
210
0.0
220
0.0
230
1.0
 70
     8
 71
     3
 72
     8
 73
     4
 74
     0
 42
0.0000000001
 43
0.0000000001
 40
0.0
 40
0.0
 40
0.0
 40
0.0
 40
1.0
 40
1.0
 40
1.0
 40
1.0
 10
-8.1491
 20
18.5881
 30
0.0
 10
-8.1491
 20
18.3832
 30
0.0
 10
-7.983
 20
18.2171
 30
0.0
 10
-7.7781
 20
18.2171
 30
0.0
  0
SPLINE
  5
65
330
1F
100
AcDbEntity
  8
DEFAULT_1
 62
   250
370
    30
100
AcDbSpline
210
0.0
220
0.0
230
1.0
 70
     8
 71
     3
 72
     8
 73
     4
 74
     0
 42
0.0000000001
 43
0.0000000001
 40
0.0
 40
0.0
 40
0.0
 40
0.0
 40
1.0
 40
1.0
 40
1.0
 40
1.0
 10
1.497
 20
18.2171
 30
0.0
 10
1.7019
 20
18.2171
 30
0.0
 10
1.868
 20
18.3832
 30
0.0
 10
1.868
 20
18.5881
 30
0.0
  0
SPLINE
  5
66
330
1F
100
AcDbEntity
  8
DEFAULT_1
 62
   250
370
    30
100
AcDbSpline
210
0.0
220
0.0
230
1.0
 70
     8
 71
     3
 72
    28
 73
    24
 74
     0
 42
0.0000000001
 43
0.0000000001
 40
0.0
 40
0.0
 40
0.0
 40
0.0
 40
0.1428571428571428
 40
0.1428571428571428
 40
0.1428571428571428
 40
0.1428571428571428
 40
0.2857142857142857
 40
0.2857142857142857
 40
0.2857142857142857
 40
0.2857142857142857
 40
0.4285714285714285
 40
0.4285714285714285
 40
0.4285714285714285
 40
0.4285714285714285
 40
0.5714285714285714
 40
0.5714285714285714
 40
0.5714285714285714
 40
0.5714285714285714
 40
0.7142857142857143
 40
0.7142857142857143
 40
0.7142857142857143
 40
0.7142857142857143
 40
1.0
 40
1.0
 40
1.0
 40
1.0
 10
-6.7477
 20
18.9591
 30
0.0
 10
-6.7477
 20
18.9591
 30
0.0
 10
-6.8149
 20
18.9717
 30
0.0
 10
-6.8149
 20
18.9717
 30
0.0
 10
-6.8149
 20
18.9717
 30
0.0
 10
-6.8149
 20
18.9717
 30
0.0
 10
-6.8765
 20
19.0088
 30
0.0
 10
-6.8765
 20
19.0088
 30
0.0
 10
-6.8765
 20
19.0088
 30
0.0
 10
-6.8765
 20
19.0088
 30
0.0
 10
-6.9285
 20
19.0678
 30
0.0
 10
-6.9285
 20
19.0678
 30
0.0
 10
-6.9285
 20
19.0678
 30
0.0
 10
-6.9285
 20
19.0678
 30
0.0
 10
-6.9678
 20
19.1447
 30
0.0
 10
-6.9678
 20
19.1447
 30
0.0
 10
-6.9678
 20
19.1447
 30
0.0
 10
-6.9678
 20
19.1447
 30
0.0
 10
-6.9923
 20
19.2342
 30
0.0
 10
-6.9923
 20
19.2342
 30
0.0
 10
-6.9923
 20
19.2342
 30
0.0
 10
-6.9923
 20
19.2342
 30
0.0
 10
-7.0005
 20
19.3301
 30
0.0
 10
-7.0005
 20
19.3301
 30
0.0
  0
SPLINE
  5
67
330
1F
100
AcDbEntity
  8
DEFAULT_1
 62
   250
370
    30
100
AcDbSpline
210
0.0
220
0.0
230
1.0
 70
     8
 71
     3
 72
    32
 73
    28
 74
     0
 42
0.0000000001
 43
0.0000000001
 40
0.0
 40
0.0
 40
0.0
 40
0.0
 40
0.125
 40
0.125
 40
0.125
 40
0.125
 40
0.25
 40
0.25
 40
0.25
 40
0.25
 40
0.375
 40
0.375
 40
0.375
 40
0.375
 40
0.5
 40
0.5
 40
0.5
 40
0.5
 40
0.625
 40
0.625
 40
0.625
 40
0.625
 40
0.75
 40
0.75
 40
0.75
 40
0.75
 40
1.0
 40
1.0
 40
1.0
 40
1.0
 10
1.8542
 20
19.3301
 30
0.0
 10
1.8542
 20
19.3301
 30
0.0
 10
1.8549
 20
19.248
 30
0.0
 10
1.8549
 20
19.248
 30
0.0
 10
1.8549
 20
19.248
 30
0.0
 10
1.8549
 20
19.248
 30
0.0
 10
1.8568
 20
19.1685
 30
0.0
 10
1.8568
 20
19.1685
 30
0.0
 10
1.8568
 20
19.1685
 30
0.0
 10
1.8568
 20
19.1685
 30
0.0
 10
1.8596
 20
19.0982
 30
0.0
 10
1.8596
 20
19.0982
 30
0.0
 10
1.8596
 20
19.0982
 30
0.0
 10
1.8596
 20
19.0982
 30
0.0
 10
1.8626
 20
19.0404
 30
0.0
 10
1.8626
 20
19.0404
 30
0.0
 10
1.8626
 20
19.0404
 30
0.0
 10
1.8626
 20
19.0404
 30
0.0
 10
1.8654
 20
18.9957
 30
0.0
 10
1.8654
 20
18.9957
 30
0.0
 10
1.8654
 20
18.9957
 30
0.0
 10
1.8654
 20
18.9957
 30
0.0
 10
1.8673
 20
18.9681
 30
0.0
 10
1.8673
 20
18.9681
 30
0.0
 10
1.8673
 20
18.9681
 30
0.0
 10
1.8673
 20
18.9681
 30
0.0
 10
1.868
 20
18.9591
 30
0.0
 10
1.868
 20
18.9591
 30
0.0
  0
SPLINE
  5
68
330
1F
100
AcDbEntity
  8
DEFAULT_1
 62
   250
370
    30
100
AcDbSpline
210
0.0
220
0.0
230
1.0
 70
     8
 71
     3
 72
    32
 73
    28
 74
     0
 42
0.0000000001
 43
0.0000000001
 40
0.0
 40
0.0
 40
0.0
 40
0.0
 40
0.125
 40
0.125
 40
0.125
 40
0.125
 40
0.25
 40
0.25
 40
0.25
 40
0.25
 40
0.375
 40
0.375
 40
0.375
 40
0.375
 40
0.5
 40
0.5
 40
0.5
 40
0.5
 40
0.625
 40
0.625
 40
0.625
 40
0.625
 40
0.75
 40
0.75
 40
0.75
 40
0.75
 40
1.0
 40
1.0
 40
1.0
 40
1.0
 10
-8.1491
 20
18.596
 30
0.0
 10
-8.1491
 20
18.596
 30
0.0
 10
-8.1485
 20
18.6138
 30
0.0
 10
-8.1485
 20
18.6138
 30
0.0
 10
-8.1485
 20
18.6138
 30
0.0
 10
-8.1485
 20
18.6138
 30
0.0
 10
-8.1465
 20
18.6686
 30
0.0
 10
-8.1465
 20
18.6686
 30
0.0
 10
-8.1465
 20
18.6686
 30
0.0
 10
-8.1465
 20
18.6686
 30
0.0
 10
-8.1438
 20
18.7568
 30
0.0
 10
-8.1438
 20
18.7568
 30
0.0
 10
-8.1438
 20
18.7568
 30
0.0
 10
-8.1438
 20
18.7568
 30
0.0
 10
-8.1407
 20
18.8711
 30
0.0
 10
-8.1407
 20
18.8711
 30
0.0
 10
-8.1407
 20
18.8711
 30
0.0
 10
-8.1407
 20
18.8711
 30
0.0
 10
-8.138
 20
19.0107
 30
0.0
 10
-8.138
 20
19.0107
 30
0.0
 10
-8.138
 20
19.0107
 30
0.0
 10
-8.138
 20
19.0107
 30
0.0
 10
-8.136
 20
19.1681
 30
0.0
 10
-8.136
 20
19.1681
 30
0.0
 10
-8.136
 20
19.1681
 30
0.0
 10
-8.136
 20
19.1681
 30
0.0
 10
-8.1354
 20
19.3302
 30
0.0
 10
-8.1354
 20
19.3302
 30
0.0
  0
SPLINE
  5
69
330
1F
100
AcDbEntity
  8
DEFAULT_1
 62
   250
370
    30
100
AcDbSpline
210
0.0
220
0.0
230
1.0
 70
    24
 71
     3
 72
     8
 73
     4
 74
     0
 42
0.0000000001
 43
0.0000000001
 40
0.0
 40
0.0
 40
0.0
 40
0.0
 40
1.0
 40
1.0
 40
1.0
 40
1.0
 10
0.6536
 20
19.3301
 30
0.0
 10
0.6536
 20
19.3301
 30
0.0
 10
0.6536
 20
20.6287
 30
0.0
 10
0.6536
 20
20.6287
 30
0.0
  0
SPLINE
  5
6A
330
1F
100
AcDbEntity
  8
DEFAULT_1
 62
   250
370
    30
100
AcDbSpline
210
0.0
220
0.0
230
1.0
 70
    24
 71
     3
 72
     8
 73
     4
 74
     0
 42
0.0000000001
 43
0.0000000001
 40
0.0
 40
0.0
 40
0.0
 40
0.0
 40
1.0
 40
1.0
 40
1.0
 40
1.0
 10
0.7194
 20
20.6287
 30
0.0
 10
0.7194
 20
20.6287
 30
0.0
 10
0.6536
 20
20.6287
 30
0.0
 10
0.6536
 20
20.6287
 30
0.0
  0
SPLINE
  5
6B
330
1F
100
AcDbEntity
  8
DEFAULT_1
 62
   250
370
    30
100
AcDbSpline
210
0.0
220
0.0
230
1.0
 70
     8
 71
     3
 72
    28
 73
    24
 74
     0
 42
0.0000000001
 43
0.0000000001
 40
0.0
 40
0.0
 40
0.0
 40
0.0
 40
0.1428571428571428
 40
0.1428571428571428
 40
0.1428571428571428
 40
0.1428571428571428
 40
0.2857142857142857
 40
0.2857142857142857
 40
0.2857142857142857
 40
0.2857142857142857
 40
0.4285714285714285
 40
0.4285714285714285
 40
0.4285714285714285
 40
0.4285714285714285
 40
0.5714285714285714
 40
0.5714285714285714
 40
0.5714285714285714
 40
0.5714285714285714
 40
0.7142857142857143
 40
0.7142857142857143
 40
0.7142857142857143
 40
0.7142857142857143
 40
1.0
 40
1.0
 40
1.0
 40
1.0
 10
0.401
 20
18.9591
 30
0.0
 10
0.401
 20
18.9591
 30
0.0
 10
0.3329
 20
18.9716
 30
0.0
 10
0.3329
 20
18.9716
 30
0.0
 10
0.3329
 20
18.9716
 30
0.0
 10
0.3329
 20
18.9716
 30
0.0
 10
0.2669
 20
19.0092
 30
0.0
 10
0.2669
 20
19.0092
 30
0.0
 10
0.2669
 20
19.0092
 30
0.0
 10
0.2669
 20
19.0092
 30
0.0
 10
0.2106
 20
19.0679
 30
0.0
 10
0.2106
 20
19.0679
 30
0.0
 10
0.2106
 20
19.0679
 30
0.0
 10
0.2106
 20
19.0679
 30
0.0
 10
0.1667
 20
19.1442
 30
0.0
 10
0.1667
 20
19.1442
 30
0.0
 10
0.1667
 20
19.1442
 30
0.0
 10
0.1667
 20
19.1442
 30
0.0
 10
0.1384
 20
19.2348
 30
0.0
 10
0.1384
 20
19.2348
 30
0.0
 10
0.1384
 20
19.2348
 30
0.0
 10
0.1384
 20
19.2348
 30
0.0
 10
0.1289
 20
19.3301
 30
0.0
 10
0.1289
 20
19.3301
 30
0.0
  0
SPLINE
  5
6C
330
1F
100
AcDbEntity
  8
DEFAULT_1
 62
   250
370
    30
100
AcDbSpline
210
0.0
220
0.0
230
1.0
 70
     8
 71
     3
 72
    28
 73
    24
 74
     0
 42
0.0000000001
 43
0.0000000001
 40
0.0
 40
0.0
 40
0.0
 40
0.0
 40
0.1428571428571428
 40
0.1428571428571428
 40
0.1428571428571428
 40
0.1428571428571428
 40
0.2857142857142857
 40
0.2857142857142857
 40
0.2857142857142857
 40
0.2857142857142857
 40
0.4285714285714285
 40
0.4285714285714285
 40
0.4285714285714285
 40
0.4285714285714285
 40
0.5714285714285714
 40
0.5714285714285714
 40
0.5714285714285714
 40
0.5714285714285714
 40
0.7142857142857143
 40
0.7142857142857143
 40
0.7142857142857143
 40
0.7142857142857143
 40
1.0
 40
1.0
 40
1.0
 40
1.0
 10
0.401
 20
18.9591
 30
0.0
 10
0.401
 20
18.9591
 30
0.0
 10
0.4678
 20
18.9716
 30
0.0
 10
0.4678
 20
18.9716
 30
0.0
 10
0.4678
 20
18.9716
 30
0.0
 10
0.4678
 20
18.9716
 30
0.0
 10
0.5302
 20
19.0092
 30
0.0
 10
0.5302
 20
19.0092
 30
0.0
 10
0.5302
 20
19.0092
 30
0.0
 10
0.5302
 20
19.0092
 30
0.0
 10
0.5818
 20
19.0679
 30
0.0
 10
0.5818
 20
19.0679
 30
0.0
 10
0.5818
 20
19.0679
 30
0.0
 10
0.5818
 20
19.0679
 30
0.0
 10
0.6207
 20
19.1442
 30
0.0
 10
0.6207
 20
19.1442
 30
0.0
 10
0.6207
 20
19.1442
 30
0.0
 10
0.6207
 20
19.1442
 30
0.0
 10
0.6455
 20
19.2348
 30
0.0
 10
0.6455
 20
19.2348
 30
0.0
 10
0.6455
 20
19.2348
 30
0.0
 10
0.6455
 20
19.2348
 30
0.0
 10
0.6536
 20
19.3301
 30
0.0
 10
0.6536
 20
19.3301
 30
0.0
  0
SPLINE
  5
6D
330
1F
100
AcDbEntity
  8
DEFAULT_1
 62
   250
370
    30
100
AcDbSpline
210
0.0
220
0.0
230
1.0
 70
     8
 71
     3
 72
    28
 73
    24
 74
     0
 42
0.0000000001
 43
0.0000000001
 40
0.0
 40
0.0
 40
0.0
 40
0.0
 40
0.1428571428571428
 40
0.1428571428571428
 40
0.1428571428571428
 40
0.1428571428571428
 40
0.2857142857142857
 40
0.2857142857142857
 40
0.2857142857142857
 40
0.2857142857142857
 40
0.4285714285714285
 40
0.4285714285714285
 40
0.4285714285714285
 40
0.4285714285714285
 40
0.5714285714285714
 40
0.5714285714285714
 40
0.5714285714285714
 40
0.5714285714285714
 40
0.7142857142857143
 40
0.7142857142857143
 40
0.7142857142857143
 40
0.7142857142857143
 40
1.0
 40
1.0
 40
1.0
 40
1.0
 10
-6.4759
 20
19.3301
 30
0.0
 10
-6.4759
 20
19.3301
 30
0.0
 10
-6.4854
 20
19.2342
 30
0.0
 10
-6.4854
 20
19.2342
 30
0.0
 10
-6.4854
 20
19.2342
 30
0.0
 10
-6.4854
 20
19.2342
 30
0.0
 10
-6.5134
 20
19.1447
 30
0.0
 10
-6.5134
 20
19.1447
 30
0.0
 10
-6.5134
 20
19.1447
 30
0.0
 10
-6.5134
 20
19.1447
 30
0.0
 10
-6.5575
 20
19.0678
 30
0.0
 10
-6.5575
 20
19.0678
 30
0.0
 10
-6.5575
 20
19.0678
 30
0.0
 10
-6.5575
 20
19.0678
 30
0.0
 10
-6.6142
 20
19.0088
 30
0.0
 10
-6.6142
 20
19.0088
 30
0.0
 10
-6.6142
 20
19.0088
 30
0.0
 10
-6.6142
 20
19.0088
 30
0.0
 10
-6.6793
 20
18.9717
 30
0.0
 10
-6.6793
 20
18.9717
 30
0.0
 10
-6.6793
 20
18.9717
 30
0.0
 10
-6.6793
 20
18.9717
 30
0.0
 10
-6.7477
 20
18.9591
 30
0.0
 10
-6.7477
 20
18.9591
 30
0.0
  0
SPLINE
  5
6E
330
1F
100
AcDbEntity
  8
DEFAULT_1
  6
New Line1
 62
   250
370
    15
100
AcDbSpline
210
0.0
220
0.0
230
1.0
 70
    24
 71
     3
 72
     8
 73
     4
 74
     0
 42
0.0000000001
 43
0.0000000001
 40
0.0
 40
0.0
 40
0.0
 40
0.0
 40
1.0
 40
1.0
 40
1.0
 40
1.0
 10
-3.1401
 20
22.6212
 30
0.0
 10
-3.1401
 20
22.6212
 30
0.0
 10
-3.1401
 20
-28.8863
 30
0.0
 10
-3.1401
 20
-28.8863
 30
0.0
  0
SPLINE
  5
70
330
1F
100
AcDbEntity
  8
DEFAULT_1
 62
   250
100
AcDbSpline
210
0.0
220
0.0
230
1.0
 70
    11
 71
     3
 72
   104
 73
   100
 74
     0
 42
0.0000000001
 43
0.0000000001
 40
0.0
 40
0.0
 40
0.0
 40
0.0
 40
0.0384615384615385
 40
0.0384615384615385
 40
0.0384615384615385
 40
0.0384615384615385
 40
0.0769230769230769
 40
0.0769230769230769
 40
0.0769230769230769
 40
0.0769230769230769
 40
0.1153846153846154
 40
0.1153846153846154
 40
0.1153846153846154
 40
0.1153846153846154
 40
0.1538461538461539
 40
0.1538461538461539
 40
0.1538461538461539
 40
0.1538461538461539
 40
0.1923076923076923
 40
0.1923076923076923
 40
0.1923076923076923
 40
0.1923076923076923
 40
0.2307692307692308
 40
0.2307692307692308
 40
0.2307692307692308
 40
0.2307692307692308
 40
0.2692307692307692
 40
0.2692307692307692
 40
0.2692307692307692
 40
0.2692307692307692
 40
0.3076923076923077
 40
0.3076923076923077
 40
0.3076923076923077
 40
0.3076923076923077
 40
0.3461538461538461
 40
0.3461538461538461
 40
0.3461538461538461
 40
0.3461538461538461
 40
0.3846153846153846
 40
0.3846153846153846
 40
0.3846153846153846
 40
0.3846153846153846
 40
0.4230769230769231
 40
0.4230769230769231
 40
0.4230769230769231
 40
0.4230769230769231
 40
0.4615384615384616
 40
0.4615384615384616
 40
0.4615384615384616
 40
0.4615384615384616
 40
0.5
 40
0.5
 40
0.5
 40
0.5
 40
0.5384615384615384
 40
0.5384615384615384
 40
0.5384615384615384
 40
0.5384615384615384
 40
0.5769230769230769
 40
0.5769230769230769
 40
0.5769230769230769
 40
0.5769230769230769
 40
0.6153846153846154
 40
0.6153846153846154
 40
0.6153846153846154
 40
0.6153846153846154
 40
0.6538461538461539
 40
0.6538461538461539
 40
0.6538461538461539
 40
0.6538461538461539
 40
0.6923076923076923
 40
0.6923076923076923
 40
0.6923076923076923
 40
0.6923076923076923
 40
0.7307692307692307
 40
0.7307692307692307
 40
0.7307692307692307
 40
0.7307692307692307
 40
0.7692307692307693
 40
0.7692307692307693
 40
0.7692307692307693
 40
0.7692307692307693
 40
0.8076923076923077
 40
0.8076923076923077
 40
0.8076923076923077
 40
0.8076923076923077
 40
0.8461538461538461
 40
0.8461538461538461
 40
0.8461538461538461
 40
0.8461538461538461
 40
0.8846153846153846
 40
0.8846153846153846
 40
0.8846153846153846
 40
0.8846153846153846
 40
0.9230769230769231
 40
0.9230769230769231
 40
0.9230769230769231
 40
0.9230769230769231
 40
1.0
 40
1.0
 40
1.0
 40
1.0
 10
2.6757
 20
-32.3989
 30
0.0
 10
2.6757
 20
-32.3989
 30
0.0
 10
2.9202
 20
-32.0651
 30
0.0
 10
2.9202
 20
-32.0651
 30
0.0
 10
2.9202
 20
-32.0651
 30
0.0
 10
3.0139
 20
-32.1331
 30
0.0
 10
3.1168
 20
-32.1854
 30
0.0
 10
3.228
 20
-32.221
 30
0.0
 10
3.228
 20
-32.221
 30
0.0
 10
3.3399
 20
-32.2566
 30
0.0
 10
3.457
 20
-32.2747
 30
0.0
 10
3.5798
 20
-32.2747
 30
0.0
 10
3.5798
 20
-32.2747
 30
0.0
 10
3.7059
 20
-32.2747
 30
0.0
 10
3.8282
 20
-32.2559
 30
0.0
 10
3.9452
 20
-32.2191
 30
0.0
 10
3.9452
 20
-32.2191
 30
0.0
 10
4.0623
 20
-32.1822
 30
0.0
 10
4.171
 20
-32.1272
 30
0.0
 10
4.2706
 20
-32.0535
 30
0.0
 10
4.2706
 20
-32.0535
 30
0.0
 10
4.3708
 20
-31.9804
 30
0.0
 10
4.4581
 20
-31.8886
 30
0.0
 10
4.5332
 20
-31.7787
 30
0.0
 10
4.5332
 20
-31.7787
 30
0.0
 10
4.6076
 20
-31.6687
 30
0.0
 10
4.6658
 20
-31.5407
 30
0.0
 10
4.7078
 20
-31.3938
 30
0.0
 10
4.7078
 20
-31.3938
 30
0.0
 10
4.7492
 20
-31.2476
 30
0.0
 10
4.7706
 20
-31.0834
 30
0.0
 10
4.7712
 20
-30.901
 30
0.0
 10
4.7712
 20
-30.901
 30
0.0
 10
4.7712
 20
-30.7722
 30
0.0
 10
4.7583
 20
-30.65
 30
0.0
 10
4.7317
 20
-30.5336
 30
0.0
 10
4.7317
 20
-30.5336
 30
0.0
 10
4.7059
 20
-30.4166
 30
0.0
 10
4.6677
 20
-30.3078
 30
0.0
 10
4.6179
 20
-30.2076
 30
0.0
 10
4.6179
 20
-30.2076
 30
0.0
 10
4.5675
 20
-30.1074
 30
0.0
 10
4.506
 20
-30.0181
 30
0.0
 10
4.4336
 20
-29.9386
 30
0.0
 10
4.4336
 20
-29.9386
 30
0.0
 10
4.4336
 20
-29.9386
 30
0.0
 10
4.6742
 20
-29.6048
 30
0.0
 10
4.6742
 20
-29.6048
 30
0.0
 10
4.6742
 20
-29.6048
 30
0.0
 10
4.6742
 20
-29.6048
 30
0.0
 10
4.4685
 20
-29.4651
 30
0.0
 10
4.4685
 20
-29.4651
 30
0.0
 10
4.4685
 20
-29.4651
 30
0.0
 10
4.4685
 20
-29.4651
 30
0.0
 10
4.2395
 20
-29.7795
 30
0.0
 10
4.2395
 20
-29.7795
 30
0.0
 10
4.2395
 20
-29.7795
 30
0.0
 10
4.1458
 20
-29.7096
 30
0.0
 10
4.0442
 20
-29.6572
 30
0.0
 10
3.9343
 20
-29.6223
 30
0.0
 10
3.9343
 20
-29.6223
 30
0.0
 10
3.8237
 20
-29.5874
 30
0.0
 10
3.7086
 20
-29.5699
 30
0.0
 10
3.5876
 20
-29.5699
 30
0.0
 10
3.5876
 20
-29.5699
 30
0.0
 10
3.4149
 20
-29.5705
 30
0.0
 10
3.2558
 20
-29.6029
 30
0.0
 10
3.109
 20
-29.6669
 30
0.0
 10
3.109
 20
-29.6669
 30
0.0
 10
2.9629
 20
-29.7309
 30
0.0
 10
2.8355
 20
-29.8234
 30
0.0
 10
2.7267
 20
-29.9431
 30
0.0
 10
2.7267
 20
-29.9431
 30
0.0
 10
2.6175
 20
-30.0627
 30
0.0
 10
2.5334
 20
-30.2063
 30
0.0
 10
2.4726
 20
-30.3739
 30
0.0
 10
2.4726
 20
-30.3739
 30
0.0
 10
2.4124
 20
-30.5414
 30
0.0
 10
2.3814
 20
-30.7283
 30
0.0
 10
2.3807
 20
-30.9359
 30
0.0
 10
2.3807
 20
-30.9359
 30
0.0
 10
2.3807
 20
-31.0665
 30
0.0
 10
2.395
 20
-31.1914
 30
0.0
 10
2.4221
 20
-31.3091
 30
0.0
 10
2.4221
 20
-31.3091
 30
0.0
 10
2.4493
 20
-31.4267
 30
0.0
 10
2.4887
 20
-31.5361
 30
0.0
 10
2.5399
 20
-31.6363
 30
0.0
 10
2.5399
 20
-31.6363
 30
0.0
 10
2.5916
 20
-31.7366
 30
0.0
 10
2.6537
 20
-31.8265
 30
0.0
 10
2.7261
 20
-31.9061
 30
0.0
 10
2.7261
 20
-31.9061
 30
0.0
 10
2.7261
 20
-31.9061
 30
0.0
 10
2.4855
 20
-32.2437
 30
0.0
 10
2.4855
 20
-32.2437
 30
0.0
 10
2.4855
 20
-32.2437
 30
0.0
 10
2.4855
 20
-32.2437
 30
0.0
 10
2.6757
 20
-32.3989
 30
0.0
 10
2.6757
 20
-32.3989
 30
0.0
  0
SPLINE
  5
71
330
1F
100
AcDbEntity
  8
DEFAULT_1
 62
   250
100
AcDbSpline
210
0.0
220
0.0
230
1.0
 70
    11
 71
     3
 72
    52
 73
    48
 74
     0
 42
0.0000000001
 43
0.0000000001
 40
0.0
 40
0.0
 40
0.0
 40
0.0
 40
0.0769230769230769
 40
0.0769230769230769
 40
0.0769230769230769
 40
0.0769230769230769
 40
0.1538461538461539
 40
0.1538461538461539
 40
0.1538461538461539
 40
0.1538461538461539
 40
0.2307692307692308
 40
0.2307692307692308
 40
0.2307692307692308
 40
0.2307692307692308
 40
0.3076923076923077
 40
0.3076923076923077
 40
0.3076923076923077
 40
0.3076923076923077
 40
0.3846153846153846
 40
0.3846153846153846
 40
0.3846153846153846
 40
0.3846153846153846
 40
0.4615384615384616
 40
0.4615384615384616
 40
0.4615384615384616
 40
0.4615384615384616
 40
0.5384615384615384
 40
0.5384615384615384
 40
0.5384615384615384
 40
0.5384615384615384
 40
0.6153846153846154
 40
0.6153846153846154
 40
0.6153846153846154
 40
0.6153846153846154
 40
0.6923076923076923
 40
0.6923076923076923
 40
0.6923076923076923
 40
0.6923076923076923
 40
0.7692307692307693
 40
0.7692307692307693
 40
0.7692307692307693
 40
0.7692307692307693
 40
0.8461538461538461
 40
0.8461538461538461
 40
0.8461538461538461
 40
0.8461538461538461
 40
1.0
 40
1.0
 40
1.0
 40
1.0
 10
2.924
 20
-31.6189
 30
0.0
 10
2.924
 20
-31.6189
 30
0.0
 10
2.9163
 20
-31.6227
 30
0.0
 10
2.9163
 20
-31.6227
 30
0.0
 10
2.9163
 20
-31.6227
 30
0.0
 10
2.8775
 20
-31.5562
 30
0.0
 10
2.8438
 20
-31.4869
 30
0.0
 10
2.8154
 20
-31.4158
 30
0.0
 10
2.8154
 20
-31.4158
 30
0.0
 10
2.7869
 20
-31.344
 30
0.0
 10
2.765
 20
-31.2683
 30
0.0
 10
2.7494
 20
-31.1868
 30
0.0
 10
2.7494
 20
-31.1868
 30
0.0
 10
2.7339
 20
-31.106
 30
0.0
 10
2.7261
 20
-31.0167
 30
0.0
 10
2.7261
 20
-30.9203
 30
0.0
 10
2.7261
 20
-30.9203
 30
0.0
 10
2.7261
 20
-30.8092
 30
0.0
 10
2.7378
 20
-30.7017
 30
0.0
 10
2.7604
 20
-30.5963
 30
0.0
 10
2.7604
 20
-30.5963
 30
0.0
 10
2.7837
 20
-30.4915
 30
0.0
 10
2.8179
 20
-30.3932
 30
0.0
 10
2.8633
 20
-30.3027
 30
0.0
 10
2.8633
 20
-30.3027
 30
0.0
 10
2.9091
 20
-30.2115
 30
0.0
 10
2.966
 20
-30.1313
 30
0.0
 10
3.0346
 20
-30.0627
 30
0.0
 10
3.0346
 20
-30.0627
 30
0.0
 10
3.1032
 20
-29.9936
 30
0.0
 10
3.1827
 20
-29.9399
 30
0.0
 10
3.2733
 20
-29.901
 30
0.0
 10
3.2733
 20
-29.901
 30
0.0
 10
3.3645
 20
-29.8616
 30
0.0
 10
3.4666
 20
-29.8422
 30
0.0
 10
3.5798
 20
-29.8416
 30
0.0
 10
3.5798
 20
-29.8416
 30
0.0
 10
3.6788
 20
-29.8422
 30
0.0
 10
3.7693
 20
-29.8583
 30
0.0
 10
3.8508
 20
-29.8907
 30
0.0
 10
3.8508
 20
-29.8907
 30
0.0
 10
3.933
 20
-29.9224
 30
0.0
 10
4.0067
 20
-29.967
 30
0.0
 10
4.0727
 20
-30.024
 30
0.0
 10
4.0727
 20
-30.024
 30
0.0
 10
4.0727
 20
-30.024
 30
0.0
 10
2.924
 20
-31.6189
 30
0.0
 10
2.924
 20
-31.6189
 30
0.0
  0
SPLINE
  5
72
330
1F
100
AcDbEntity
  8
DEFAULT_1
 62
   250
100
AcDbSpline
210
0.0
220
0.0
230
1.0
 70
    11
 71
     3
 72
    48
 73
    44
 74
     0
 42
0.0000000001
 43
0.0000000001
 40
0.0
 40
0.0
 40
0.0
 40
0.0
 40
0.0833333333333333
 40
0.0833333333333333
 40
0.0833333333333333
 40
0.0833333333333333
 40
0.1666666666666667
 40
0.1666666666666667
 40
0.1666666666666667
 40
0.1666666666666667
 40
0.25
 40
0.25
 40
0.25
 40
0.25
 40
0.3333333333333333
 40
0.3333333333333333
 40
0.3333333333333333
 40
0.3333333333333333
 40
0.4166666666666667
 40
0.4166666666666667
 40
0.4166666666666667
 40
0.4166666666666667
 40
0.5
 40
0.5
 40
0.5
 40
0.5
 40
0.5833333333333334
 40
0.5833333333333334
 40
0.5833333333333334
 40
0.5833333333333334
 40
0.6666666666666666
 40
0.6666666666666666
 40
0.6666666666666666
 40
0.6666666666666666
 40
0.75
 40
0.75
 40
0.75
 40
0.75
 40
0.8333333333333334
 40
0.8333333333333334
 40
0.8333333333333334
 40
0.8333333333333334
 40
1.0
 40
1.0
 40
1.0
 40
1.0
 10
4.2318
 20
-30.2296
 30
0.0
 10
4.2318
 20
-30.2296
 30
0.0
 10
4.2434
 20
-30.2296
 30
0.0
 10
4.2434
 20
-30.2296
 30
0.0
 10
4.2434
 20
-30.2296
 30
0.0
 10
4.3107
 20
-30.3421
 30
0.0
 10
4.3579
 20
-30.456
 30
0.0
 10
4.3857
 20
-30.5711
 30
0.0
 10
4.3857
 20
-30.5711
 30
0.0
 10
4.4135
 20
-30.6856
 30
0.0
 10
4.4271
 20
-30.7994
 30
0.0
 10
4.4258
 20
-30.9126
 30
0.0
 10
4.4258
 20
-30.9126
 30
0.0
 10
4.4258
 20
-31.0303
 30
0.0
 10
4.4135
 20
-31.1428
 30
0.0
 10
4.3896
 20
-31.2508
 30
0.0
 10
4.3896
 20
-31.2508
 30
0.0
 10
4.3657
 20
-31.3589
 30
0.0
 10
4.3301
 20
-31.4585
 30
0.0
 10
4.2836
 20
-31.5497
 30
0.0
 10
4.2836
 20
-31.5497
 30
0.0
 10
4.2363
 20
-31.6409
 30
0.0
 10
4.1788
 20
-31.7204
 30
0.0
 10
4.1102
 20
-31.7877
 30
0.0
 10
4.1102
 20
-31.7877
 30
0.0
 10
4.041
 20
-31.8556
 30
0.0
 10
3.9621
 20
-31.9086
 30
0.0
 10
3.8728
 20
-31.9461
 30
0.0
 10
3.8728
 20
-31.9461
 30
0.0
 10
3.7835
 20
-31.9837
 30
0.0
 10
3.6846
 20
-32.0024
 30
0.0
 10
3.576
 20
-32.003
 30
0.0
 10
3.576
 20
-32.003
 30
0.0
 10
3.4706
 20
-32.003
 30
0.0
 10
3.3781
 20
-31.9869
 30
0.0
 10
3.2998
 20
-31.9552
 30
0.0
 10
3.2998
 20
-31.9552
 30
0.0
 10
3.2209
 20
-31.9235
 30
0.0
 10
3.1504
 20
-31.8769
 30
0.0
 10
3.087
 20
-31.8168
 30
0.0
 10
3.087
 20
-31.8168
 30
0.0
 10
3.087
 20
-31.8168
 30
0.0
 10
4.2318
 20
-30.2296
 30
0.0
 10
4.2318
 20
-30.2296
 30
0.0
  0
SPLINE
  5
73
330
1F
100
AcDbEntity
  8
DEFAULT_1
 62
   250
100
AcDbSpline
210
0.0
220
0.0
230
1.0
 70
    11
 71
     3
 72
    48
 73
    44
 74
     0
 42
0.0000000001
 43
0.0000000001
 40
0.0
 40
0.0
 40
0.0
 40
0.0
 40
0.0833333333333333
 40
0.0833333333333333
 40
0.0833333333333333
 40
0.0833333333333333
 40
0.1666666666666667
 40
0.1666666666666667
 40
0.1666666666666667
 40
0.1666666666666667
 40
0.25
 40
0.25
 40
0.25
 40
0.25
 40
0.3333333333333333
 40
0.3333333333333333
 40
0.3333333333333333
 40
0.3333333333333333
 40
0.4166666666666667
 40
0.4166666666666667
 40
0.4166666666666667
 40
0.4166666666666667
 40
0.5
 40
0.5
 40
0.5
 40
0.5
 40
0.5833333333333334
 40
0.5833333333333334
 40
0.5833333333333334
 40
0.5833333333333334
 40
0.6666666666666666
 40
0.6666666666666666
 40
0.6666666666666666
 40
0.6666666666666666
 40
0.75
 40
0.75
 40
0.75
 40
0.75
 40
0.8333333333333334
 40
0.8333333333333334
 40
0.8333333333333334
 40
0.8333333333333334
 40
1.0
 40
1.0
 40
1.0
 40
1.0
 10
6.467
 20
-32.232
 30
0.0
 10
6.467
 20
-32.232
 30
0.0
 10
6.467
 20
-31.5413
 30
0.0
 10
6.467
 20
-31.5413
 30
0.0
 10
6.467
 20
-31.5413
 30
0.0
 10
6.467
 20
-31.5413
 30
0.0
 10
6.8201
 20
-31.5413
 30
0.0
 10
6.8201
 20
-31.5413
 30
0.0
 10
6.8201
 20
-31.5413
 30
0.0
 10
6.8201
 20
-31.5413
 30
0.0
 10
6.8201
 20
-31.2774
 30
0.0
 10
6.8201
 20
-31.2774
 30
0.0
 10
6.8201
 20
-31.2774
 30
0.0
 10
6.8201
 20
-31.2774
 30
0.0
 10
6.467
 20
-31.2774
 30
0.0
 10
6.467
 20
-31.2774
 30
0.0
 10
6.467
 20
-31.2774
 30
0.0
 10
6.467
 20
-31.2774
 30
0.0
 10
6.467
 20
-29.7096
 30
0.0
 10
6.467
 20
-29.7096
 30
0.0
 10
6.467
 20
-29.7096
 30
0.0
 10
6.467
 20
-29.7096
 30
0.0
 10
6.0983
 20
-29.7096
 30
0.0
 10
6.0983
 20
-29.7096
 30
0.0
 10
6.0983
 20
-29.7096
 30
0.0
 10
6.0983
 20
-29.7096
 30
0.0
 10
4.9729
 20
-31.32
 30
0.0
 10
4.9729
 20
-31.32
 30
0.0
 10
4.9729
 20
-31.32
 30
0.0
 10
4.9729
 20
-31.32
 30
0.0
 10
4.9729
 20
-31.5413
 30
0.0
 10
4.9729
 20
-31.5413
 30
0.0
 10
4.9729
 20
-31.5413
 30
0.0
 10
4.9729
 20
-31.5413
 30
0.0
 10
6.1449
 20
-31.5413
 30
0.0
 10
6.1449
 20
-31.5413
 30
0.0
 10
6.1449
 20
-31.5413
 30
0.0
 10
6.1449
 20
-31.5413
 30
0.0
 10
6.1449
 20
-32.232
 30
0.0
 10
6.1449
 20
-32.232
 30
0.0
 10
6.1449
 20
-32.232
 30
0.0
 10
6.1449
 20
-32.232
 30
0.0
 10
6.467
 20
-32.232
 30
0.0
 10
6.467
 20
-32.232
 30
0.0
  0
SPLINE
  5
74
330
1F
100
AcDbEntity
  8
DEFAULT_1
 62
   250
100
AcDbSpline
210
0.0
220
0.0
230
1.0
 70
    11
 71
     3
 72
    36
 73
    32
 74
     0
 42
0.0000000001
 43
0.0000000001
 40
0.0
 40
0.0
 40
0.0
 40
0.0
 40
0.1111111111111111
 40
0.1111111111111111
 40
0.1111111111111111
 40
0.1111111111111111
 40
0.2222222222222222
 40
0.2222222222222222
 40
0.2222222222222222
 40
0.2222222222222222
 40
0.3333333333333333
 40
0.3333333333333333
 40
0.3333333333333333
 40
0.3333333333333333
 40
0.4444444444444444
 40
0.4444444444444444
 40
0.4444444444444444
 40
0.4444444444444444
 40
0.5555555555555556
 40
0.5555555555555556
 40
0.5555555555555556
 40
0.5555555555555556
 40
0.6666666666666666
 40
0.6666666666666666
 40
0.6666666666666666
 40
0.6666666666666666
 40
0.7777777777777778
 40
0.7777777777777778
 40
0.7777777777777778
 40
0.7777777777777778
 40
1.0
 40
1.0
 40
1.0
 40
1.0
 10
5.3183
 20
-31.2774
 30
0.0
 10
5.3183
 20
-31.2774
 30
0.0
 10
5.3183
 20
-31.2696
 30
0.0
 10
5.3183
 20
-31.2696
 30
0.0
 10
5.3183
 20
-31.2696
 30
0.0
 10
5.3183
 20
-31.2696
 30
0.0
 10
5.9353
 20
-30.412
 30
0.0
 10
5.9353
 20
-30.412
 30
0.0
 10
5.9353
 20
-30.412
 30
0.0
 10
5.9696
 20
-30.3544
 30
0.0
 10
6.0039
 20
-30.2963
 30
0.0
 10
6.0376
 20
-30.2374
 30
0.0
 10
6.0376
 20
-30.2374
 30
0.0
 10
6.0705
 20
-30.1779
 30
0.0
 10
6.1068
 20
-30.1119
 30
0.0
 10
6.1449
 20
-30.0395
 30
0.0
 10
6.1449
 20
-30.0395
 30
0.0
 10
6.1449
 20
-30.0395
 30
0.0
 10
6.1566
 20
-30.0395
 30
0.0
 10
6.1566
 20
-30.0395
 30
0.0
 10
6.1566
 20
-30.0395
 30
0.0
 10
6.1488
 20
-30.1714
 30
0.0
 10
6.1449
 20
-30.3034
 30
0.0
 10
6.1449
 20
-30.4353
 30
0.0
 10
6.1449
 20
-30.4353
 30
0.0
 10
6.1449
 20
-30.4353
 30
0.0
 10
6.1449
 20
-31.2774
 30
0.0
 10
6.1449
 20
-31.2774
 30
0.0
 10
6.1449
 20
-31.2774
 30
0.0
 10
6.1449
 20
-31.2774
 30
0.0
 10
5.3183
 20
-31.2774
 30
0.0
 10
5.3183
 20
-31.2774
 30
0.0
  0
SPLINE
  5
75
330
1F
100
AcDbEntity
  8
DEFAULT_1
 62
   250
100
AcDbSpline
210
0.0
220
0.0
230
1.0
 70
    11
 71
     3
 72
    56
 73
    52
 74
     0
 42
0.0000000001
 43
0.0000000001
 40
0.0
 40
0.0
 40
0.0
 40
0.0
 40
0.0714285714285714
 40
0.0714285714285714
 40
0.0714285714285714
 40
0.0714285714285714
 40
0.1428571428571428
 40
0.1428571428571428
 40
0.1428571428571428
 40
0.1428571428571428
 40
0.2142857142857143
 40
0.2142857142857143
 40
0.2142857142857143
 40
0.2142857142857143
 40
0.2857142857142857
 40
0.2857142857142857
 40
0.2857142857142857
 40
0.2857142857142857
 40
0.3571428571428572
 40
0.3571428571428572
 40
0.3571428571428572
 40
0.3571428571428572
 40
0.4285714285714285
 40
0.4285714285714285
 40
0.4285714285714285
 40
0.4285714285714285
 40
0.5
 40
0.5
 40
0.5
 40
0.5
 40
0.5714285714285714
 40
0.5714285714285714
 40
0.5714285714285714
 40
0.5714285714285714
 40
0.6428571428571429
 40
0.6428571428571429
 40
0.6428571428571429
 40
0.6428571428571429
 40
0.7142857142857143
 40
0.7142857142857143
 40
0.7142857142857143
 40
0.7142857142857143
 40
0.7857142857142857
 40
0.7857142857142857
 40
0.7857142857142857
 40
0.7857142857142857
 40
0.8571428571428571
 40
0.8571428571428571
 40
0.8571428571428571
 40
0.8571428571428571
 40
1.0
 40
1.0
 40
1.0
 40
1.0
 10
7.9261
 20
-29.6669
 30
0.0
 10
7.7974
 20
-29.6669
 30
0.0
 10
7.6797
 20
-29.6954
 30
0.0
 10
7.5723
 20
-29.7523
 30
0.0
 10
7.5723
 20
-29.7523
 30
0.0
 10
7.465
 20
-29.8092
 30
0.0
 10
7.3724
 20
-29.8926
 30
0.0
 10
7.2935
 20
-30.0039
 30
0.0
 10
7.2935
 20
-30.0039
 30
0.0
 10
7.2147
 20
-30.1151
 30
0.0
 10
7.1538
 20
-30.2522
 30
0.0
 10
7.1105
 20
-30.4153
 30
0.0
 10
7.1105
 20
-30.4153
 30
0.0
 10
7.0678
 20
-30.5782
 30
0.0
 10
7.0458
 20
-30.7657
 30
0.0
 10
7.0452
 20
-30.9786
 30
0.0
 10
7.0452
 20
-30.9786
 30
0.0
 10
7.049
 20
-31.2573
 30
0.0
 10
7.086
 20
-31.4928
 30
0.0
 10
7.1565
 20
-31.6855
 30
0.0
 10
7.1565
 20
-31.6855
 30
0.0
 10
7.227
 20
-31.8783
 30
0.0
 10
7.3246
 20
-32.0244
 30
0.0
 10
7.4488
 20
-32.124
 30
0.0
 10
7.4488
 20
-32.124
 30
0.0
 10
7.573
 20
-32.2236
 30
0.0
 10
7.7179
 20
-32.2741
 30
0.0
 10
7.8834
 20
-32.2747
 30
0.0
 10
7.8834
 20
-32.2747
 30
0.0
 10
8.0691
 20
-32.2741
 30
0.0
 10
8.2269
 20
-32.2224
 30
0.0
 10
8.3575
 20
-32.1201
 30
0.0
 10
8.3575
 20
-32.1201
 30
0.0
 10
8.4881
 20
-32.018
 30
0.0
 10
8.5877
 20
-31.8679
 30
0.0
 10
8.6563
 20
-31.67
 30
0.0
 10
8.6563
 20
-31.67
 30
0.0
 10
8.7255
 20
-31.4721
 30
0.0
 10
8.7598
 20
-31.2301
 30
0.0
 10
8.7604
 20
-30.9437
 30
0.0
 10
8.7604
 20
-30.9437
 30
0.0
 10
8.7598
 20
-30.6753
 30
0.0
 10
8.7268
 20
-30.4456
 30
0.0
 10
8.6615
 20
-30.2555
 30
0.0
 10
8.6615
 20
-30.2555
 30
0.0
 10
8.5961
 20
-30.0654
 30
0.0
 10
8.5011
 20
-29.9198
 30
0.0
 10
8.3769
 20
-29.8196
 30
0.0
 10
8.3769
 20
-29.8196
 30
0.0
 10
8.2528
 20
-29.7186
 30
0.0
 10
8.1026
 20
-29.6676
 30
0.0
 10
7.9261
 20
-29.6669
 30
0.0
  0
SPLINE
  5
76
330
1F
100
AcDbEntity
  8
DEFAULT_1
 62
   250
100
AcDbSpline
210
0.0
220
0.0
230
1.0
 70
    11
 71
     3
 72
    56
 73
    52
 74
     0
 42
0.0000000001
 43
0.0000000001
 40
0.0
 40
0.0
 40
0.0
 40
0.0
 40
0.0714285714285714
 40
0.0714285714285714
 40
0.0714285714285714
 40
0.0714285714285714
 40
0.1428571428571428
 40
0.1428571428571428
 40
0.1428571428571428
 40
0.1428571428571428
 40
0.2142857142857143
 40
0.2142857142857143
 40
0.2142857142857143
 40
0.2142857142857143
 40
0.2857142857142857
 40
0.2857142857142857
 40
0.2857142857142857
 40
0.2857142857142857
 40
0.3571428571428572
 40
0.3571428571428572
 40
0.3571428571428572
 40
0.3571428571428572
 40
0.4285714285714285
 40
0.4285714285714285
 40
0.4285714285714285
 40
0.4285714285714285
 40
0.5
 40
0.5
 40
0.5
 40
0.5
 40
0.5714285714285714
 40
0.5714285714285714
 40
0.5714285714285714
 40
0.5714285714285714
 40
0.6428571428571429
 40
0.6428571428571429
 40
0.6428571428571429
 40
0.6428571428571429
 40
0.7142857142857143
 40
0.7142857142857143
 40
0.7142857142857143
 40
0.7142857142857143
 40
0.7857142857142857
 40
0.7857142857142857
 40
0.7857142857142857
 40
0.7857142857142857
 40
0.8571428571428571
 40
0.8571428571428571
 40
0.8571428571428571
 40
0.8571428571428571
 40
1.0
 40
1.0
 40
1.0
 40
1.0
 10
7.9028
 20
-29.9308
 30
0.0
 10
7.9921
 20
-29.9315
 30
0.0
 10
8.0691
 20
-29.9554
 30
0.0
 10
8.1337
 20
-30.0039
 30
0.0
 10
8.1337
 20
-30.0039
 30
0.0
 10
8.1984
 20
-30.0524
 30
0.0
 10
8.2514
 20
-30.1216
 30
0.0
 10
8.2928
 20
-30.2122
 30
0.0
 10
8.2928
 20
-30.2122
 30
0.0
 10
8.3342
 20
-30.302
 30
0.0
 10
8.3653
 20
-30.4107
 30
0.0
 10
8.3853
 20
-30.5362
 30
0.0
 10
8.3853
 20
-30.5362
 30
0.0
 10
8.4053
 20
-30.6623
 30
0.0
 10
8.4151
 20
-30.8033
 30
0.0
 10
8.4151
 20
-30.9592
 30
0.0
 10
8.4151
 20
-30.9592
 30
0.0
 10
8.4151
 20
-31.1752
 30
0.0
 10
8.3963
 20
-31.3614
 30
0.0
 10
8.3588
 20
-31.5179
 30
0.0
 10
8.3588
 20
-31.5179
 30
0.0
 10
8.3219
 20
-31.6752
 30
0.0
 10
8.265
 20
-31.7961
 30
0.0
 10
8.1894
 20
-31.8815
 30
0.0
 10
8.1894
 20
-31.8815
 30
0.0
 10
8.1137
 20
-31.9668
 30
0.0
 10
8.0179
 20
-32.0095
 30
0.0
 10
7.9028
 20
-32.0109
 30
0.0
 10
7.9028
 20
-32.0109
 30
0.0
 10
7.7987
 20
-32.0101
 30
0.0
 10
7.7088
 20
-31.9701
 30
0.0
 10
7.6318
 20
-31.8898
 30
0.0
 10
7.6318
 20
-31.8898
 30
0.0
 10
7.5555
 20
-31.8097
 30
0.0
 10
7.4966
 20
-31.6932
 30
0.0
 10
7.4546
 20
-31.5407
 30
0.0
 10
7.4546
 20
-31.5407
 30
0.0
 10
7.4126
 20
-31.3873
 30
0.0
 10
7.3912
 20
-31.2017
 30
0.0
 10
7.3906
 20
-30.9824
 30
0.0
 10
7.3906
 20
-30.9824
 30
0.0
 10
7.3912
 20
-30.7529
 30
0.0
 10
7.4138
 20
-30.5607
 30
0.0
 10
7.4579
 20
-30.4042
 30
0.0
 10
7.4579
 20
-30.4042
 30
0.0
 10
7.5018
 20
-30.2484
 30
0.0
 10
7.5619
 20
-30.1307
 30
0.0
 10
7.6389
 20
-30.0505
 30
0.0
 10
7.6389
 20
-30.0505
 30
0.0
 10
7.7159
 20
-29.9709
 30
0.0
 10
7.8039
 20
-29.9308
 30
0.0
 10
7.9028
 20
-29.9308
 30
0.0
  0
SPLINE
  5
77
330
1F
100
AcDbEntity
  8
DEFAULT_1
 62
   250
100
AcDbSpline
210
0.0
220
0.0
230
1.0
 70
    11
 71
     3
 72
   124
 73
   120
 74
     0
 42
0.0000000001
 43
0.0000000001
 40
0.0
 40
0.0
 40
0.0
 40
0.0
 40
0.032258064516129
 40
0.032258064516129
 40
0.032258064516129
 40
0.032258064516129
 40
0.0645161290322581
 40
0.0645161290322581
 40
0.0645161290322581
 40
0.0645161290322581
 40
0.0967741935483871
 40
0.0967741935483871
 40
0.0967741935483871
 40
0.0967741935483871
 40
0.1290322580645161
 40
0.1290322580645161
 40
0.1290322580645161
 40
0.1290322580645161
 40
0.1612903225806452
 40
0.1612903225806452
 40
0.1612903225806452
 40
0.1612903225806452
 40
0.1935483870967742
 40
0.1935483870967742
 40
0.1935483870967742
 40
0.1935483870967742
 40
0.2258064516129032
 40
0.2258064516129032
 40
0.2258064516129032
 40
0.2258064516129032
 40
0.2580645161290323
 40
0.2580645161290323
 40
0.2580645161290323
 40
0.2580645161290323
 40
0.2903225806451613
 40
0.2903225806451613
 40
0.2903225806451613
 40
0.2903225806451613
 40
0.3225806451612903
 40
0.3225806451612903
 40
0.3225806451612903
 40
0.3225806451612903
 40
0.3548387096774194
 40
0.3548387096774194
 40
0.3548387096774194
 40
0.3548387096774194
 40
0.3870967741935484
 40
0.3870967741935484
 40
0.3870967741935484
 40
0.3870967741935484
 40
0.4193548387096774
 40
0.4193548387096774
 40
0.4193548387096774
 40
0.4193548387096774
 40
0.4516129032258064
 40
0.4516129032258064
 40
0.4516129032258064
 40
0.4516129032258064
 40
0.4838709677419355
 40
0.4838709677419355
 40
0.4838709677419355
 40
0.4838709677419355
 40
0.5161290322580645
 40
0.5161290322580645
 40
0.5161290322580645
 40
0.5161290322580645
 40
0.5483870967741935
 40
0.5483870967741935
 40
0.5483870967741935
 40
0.5483870967741935
 40
0.5806451612903226
 40
0.5806451612903226
 40
0.5806451612903226
 40
0.5806451612903226
 40
0.6129032258064516
 40
0.6129032258064516
 40
0.6129032258064516
 40
0.6129032258064516
 40
0.6451612903225806
 40
0.6451612903225806
 40
0.6451612903225806
 40
0.6451612903225806
 40
0.6774193548387096
 40
0.6774193548387096
 40
0.6774193548387096
 40
0.6774193548387096
 40
0.7096774193548387
 40
0.7096774193548387
 40
0.7096774193548387
 40
0.7096774193548387
 40
0.7419354838709677
 40
0.7419354838709677
 40
0.7419354838709677
 40
0.7419354838709677
 40
0.7741935483870968
 40
0.7741935483870968
 40
0.7741935483870968
 40
0.7741935483870968
 40
0.8064516129032258
 40
0.8064516129032258
 40
0.8064516129032258
 40
0.8064516129032258
 40
0.8387096774193549
 40
0.8387096774193549
 40
0.8387096774193549
 40
0.8387096774193549
 40
0.8709677419354839
 40
0.8709677419354839
 40
0.8709677419354839
 40
0.8709677419354839
 40
0.9032258064516129
 40
0.9032258064516129
 40
0.9032258064516129
 40
0.9032258064516129
 40
0.9354838709677419
 40
0.9354838709677419
 40
0.9354838709677419
 40
0.9354838709677419
 40
1.0
 40
1.0
 40
1.0
 40
1.0
 10
7.6794
 20
-4.0825
 30
0.0
 10
7.6794
 20
-4.0825
 30
0.0
 10
7.3961
 20
-4.0825
 30
0.0
 10
7.3961
 20
-4.0825
 30
0.0
 10
7.3961
 20
-4.0825
 30
0.0
 10
7.3961
 20
-4.0825
 30
0.0
 10
7.3961
 20
-5.2118
 30
0.0
 10
7.3961
 20
-5.2118
 30
0.0
 10
7.3961
 20
-5.2118
 30
0.0
 10
7.3961
 20
-5.2118
 30
0.0
 10
7.3884
 20
-5.2118
 30
0.0
 10
7.3884
 20
-5.2118
 30
0.0
 10
7.3884
 20
-5.2118
 30
0.0
 10
7.3884
 20
-5.2118
 30
0.0
 10
7.2021
 20
-5.0139
 30
0.0
 10
7.2021
 20
-5.0139
 30
0.0
 10
7.2021
 20
-5.0139
 30
0.0
 10
7.0747
 20
-4.8807
 30
0.0
 10
6.9537
 20
-4.7603
 30
0.0
 10
6.8399
 20
-4.6536
 30
0.0
 10
6.8399
 20
-4.6536
 30
0.0
 10
6.726
 20
-4.5469
 30
0.0
 10
6.6148
 20
-4.4557
 30
0.0
 10
6.5074
 20
-4.38
 30
0.0
 10
6.5074
 20
-4.38
 30
0.0
 10
6.4001
 20
-4.3038
 30
0.0
 10
6.2921
 20
-4.2461
 30
0.0
 10
6.1834
 20
-4.2055
 30
0.0
 10
6.1834
 20
-4.2055
 30
0.0
 10
6.0754
 20
-4.1653
 30
0.0
 10
5.9635
 20
-4.1453
 30
0.0
 10
5.8477
 20
-4.1446
 30
0.0
 10
5.8477
 20
-4.1446
 30
0.0
 10
5.7565
 20
-4.1446
 30
0.0
 10
5.6673
 20
-4.1589
 30
0.0
 10
5.5806
 20
-4.1886
 30
0.0
 10
5.5806
 20
-4.1886
 30
0.0
 10
5.4939
 20
-4.2183
 30
0.0
 10
5.4157
 20
-4.2649
 30
0.0
 10
5.3458
 20
-4.327
 30
0.0
 10
5.3458
 20
-4.327
 30
0.0
 10
5.2753
 20
-4.3891
 30
0.0
 10
5.2197
 20
-4.4693
 30
0.0
 10
5.1783
 20
-4.567
 30
0.0
 10
5.1783
 20
-4.567
 30
0.0
 10
5.1363
 20
-4.6647
 30
0.0
 10
5.1149
 20
-4.781
 30
0.0
 10
5.1143
 20
-4.9169
 30
0.0
 10
5.1143
 20
-4.9169
 30
0.0
 10
5.1149
 20
-5.0126
 30
0.0
 10
5.126
 20
-5.1038
 30
0.0
 10
5.1486
 20
-5.1905
 30
0.0
 10
5.1486
 20
-5.1905
 30
0.0
 10
5.1712
 20
-5.2771
 30
0.0
 10
5.2017
 20
-5.3573
 30
0.0
 10
5.2404
 20
-5.4311
 30
0.0
 10
5.2404
 20
-5.4311
 30
0.0
 10
5.2785
 20
-5.5041
 30
0.0
 10
5.3219
 20
-5.5695
 30
0.0
 10
5.3705
 20
-5.6271
 30
0.0
 10
5.3705
 20
-5.6271
 30
0.0
 10
5.3705
 20
-5.6271
 30
0.0
 10
5.611
 20
-5.5183
 30
0.0
 10
5.611
 20
-5.5183
 30
0.0
 10
5.611
 20
-5.5183
 30
0.0
 10
5.578
 20
-5.4796
 30
0.0
 10
5.545
 20
-5.433
 30
0.0
 10
5.5127
 20
-5.3786
 30
0.0
 10
5.5127
 20
-5.3786
 30
0.0
 10
5.4797
 20
-5.3244
 30
0.0
 10
5.4532
 20
-5.2642
 30
0.0
 10
5.4312
 20
-5.1976
 30
0.0
 10
5.4312
 20
-5.1976
 30
0.0
 10
5.4099
 20
-5.1309
 30
0.0
 10
5.3983
 20
-5.0592
 30
0.0
 10
5.3975
 20
-4.9828
 30
0.0
 10
5.3975
 20
-4.9828
 30
0.0
 10
5.3983
 20
-4.8891
 30
0.0
 10
5.4118
 20
-4.8102
 30
0.0
 10
5.4383
 20
-4.7461
 30
0.0
 10
5.4383
 20
-4.7461
 30
0.0
 10
5.4655
 20
-4.6827
 30
0.0
 10
5.5017
 20
-4.6316
 30
0.0
 10
5.5477
 20
-4.5935
 30
0.0
 10
5.5477
 20
-4.5935
 30
0.0
 10
5.5942
 20
-4.5553
 30
0.0
 10
5.6466
 20
-4.5275
 30
0.0
 10
5.7054
 20
-4.5107
 30
0.0
 10
5.7054
 20
-4.5107
 30
0.0
 10
5.7643
 20
-4.4939
 30
0.0
 10
5.8257
 20
-4.4854
 30
0.0
 10
5.8905
 20
-4.4861
 30
0.0
 10
5.8905
 20
-4.4861
 30
0.0
 10
5.9849
 20
-4.4861
 30
0.0
 10
6.078
 20
-4.5049
 30
0.0
 10
6.1704
 20
-4.5424
 30
0.0
 10
6.1704
 20
-4.5424
 30
0.0
 10
6.2636
 20
-4.5799
 30
0.0
 10
6.3606
 20
-4.6368
 30
0.0
 10
6.4628
 20
-4.7138
 30
0.0
 10
6.4628
 20
-4.7138
 30
0.0
 10
6.565
 20
-4.7908
 30
0.0
 10
6.6769
 20
-4.8884
 30
0.0
 10
6.7985
 20
-5.0068
 30
0.0
 10
6.7985
 20
-5.0068
 30
0.0
 10
6.9201
 20
-5.1245
 30
0.0
 10
7.0572
 20
-5.2642
 30
0.0
 10
7.2098
 20
-5.4252
 30
0.0
 10
7.2098
 20
-5.4252
 30
0.0
 10
7.2098
 20
-5.4252
 30
0.0
 10
7.4698
 20
-5.693
 30
0.0
 10
7.4698
 20
-5.693
 30
0.0
 10
7.4698
 20
-5.693
 30
0.0
 10
7.4698
 20
-5.693
 30
0.0
 10
7.6794
 20
-5.693
 30
0.0
 10
7.6794
 20
-5.693
 30
0.0
 10
7.6794
 20
-5.693
 30
0.0
 10
7.6794
 20
-5.693
 30
0.0
 10
7.6794
 20
-4.0825
 30
0.0
 10
7.6794
 20
-4.0825
 30
0.0
  0
SPLINE
  5
78
330
1F
100
AcDbEntity
  8
DEFAULT_1
 62
   250
100
AcDbSpline
210
0.0
220
0.0
230
1.0
 70
    11
 71
     3
 72
   124
 73
   120
 74
     0
 42
0.0000000001
 43
0.0000000001
 40
0.0
 40
0.0
 40
0.0
 40
0.0
 40
0.032258064516129
 40
0.032258064516129
 40
0.032258064516129
 40
0.032258064516129
 40
0.0645161290322581
 40
0.0645161290322581
 40
0.0645161290322581
 40
0.0645161290322581
 40
0.0967741935483871
 40
0.0967741935483871
 40
0.0967741935483871
 40
0.0967741935483871
 40
0.1290322580645161
 40
0.1290322580645161
 40
0.1290322580645161
 40
0.1290322580645161
 40
0.1612903225806452
 40
0.1612903225806452
 40
0.1612903225806452
 40
0.1612903225806452
 40
0.1935483870967742
 40
0.1935483870967742
 40
0.1935483870967742
 40
0.1935483870967742
 40
0.2258064516129032
 40
0.2258064516129032
 40
0.2258064516129032
 40
0.2258064516129032
 40
0.2580645161290323
 40
0.2580645161290323
 40
0.2580645161290323
 40
0.2580645161290323
 40
0.2903225806451613
 40
0.2903225806451613
 40
0.2903225806451613
 40
0.2903225806451613
 40
0.3225806451612903
 40
0.3225806451612903
 40
0.3225806451612903
 40
0.3225806451612903
 40
0.3548387096774194
 40
0.3548387096774194
 40
0.3548387096774194
 40
0.3548387096774194
 40
0.3870967741935484
 40
0.3870967741935484
 40
0.3870967741935484
 40
0.3870967741935484
 40
0.4193548387096774
 40
0.4193548387096774
 40
0.4193548387096774
 40
0.4193548387096774
 40
0.4516129032258064
 40
0.4516129032258064
 40
0.4516129032258064
 40
0.4516129032258064
 40
0.4838709677419355
 40
0.4838709677419355
 40
0.4838709677419355
 40
0.4838709677419355
 40
0.5161290322580645
 40
0.5161290322580645
 40
0.5161290322580645
 40
0.5161290322580645
 40
0.5483870967741935
 40
0.5483870967741935
 40
0.5483870967741935
 40
0.5483870967741935
 40
0.5806451612903226
 40
0.5806451612903226
 40
0.5806451612903226
 40
0.5806451612903226
 40
0.6129032258064516
 40
0.6129032258064516
 40
0.6129032258064516
 40
0.6129032258064516
 40
0.6451612903225806
 40
0.6451612903225806
 40
0.6451612903225806
 40
0.6451612903225806
 40
0.6774193548387096
 40
0.6774193548387096
 40
0.6774193548387096
 40
0.6774193548387096
 40
0.7096774193548387
 40
0.7096774193548387
 40
0.7096774193548387
 40
0.7096774193548387
 40
0.7419354838709677
 40
0.7419354838709677
 40
0.7419354838709677
 40
0.7419354838709677
 40
0.7741935483870968
 40
0.7741935483870968
 40
0.7741935483870968
 40
0.7741935483870968
 40
0.8064516129032258
 40
0.8064516129032258
 40
0.8064516129032258
 40
0.8064516129032258
 40
0.8387096774193549
 40
0.8387096774193549
 40
0.8387096774193549
 40
0.8387096774193549
 40
0.8709677419354839
 40
0.8709677419354839
 40
0.8709677419354839
 40
0.8709677419354839
 40
0.9032258064516129
 40
0.9032258064516129
 40
0.9032258064516129
 40
0.9032258064516129
 40
0.9354838709677419
 40
0.9354838709677419
 40
0.9354838709677419
 40
0.9354838709677419
 40
1.0
 40
1.0
 40
1.0
 40
1.0
 10
5.1182
 20
-2.2625
 30
0.0
 10
5.1182
 20
-2.2936
 30
0.0
 10
5.1195
 20
-2.3305
 30
0.0
 10
5.122
 20
-2.3719
 30
0.0
 10
5.122
 20
-2.3719
 30
0.0
 10
5.1247
 20
-2.4139
 30
0.0
 10
5.1298
 20
-2.4605
 30
0.0
 10
5.1375
 20
-2.5109
 30
0.0
 10
5.1375
 20
-2.5109
 30
0.0
 10
5.157
 20
-2.6706
 30
0.0
 10
5.1984
 20
-2.8187
 30
0.0
 10
5.2611
 20
-2.9552
 30
0.0
 10
5.2611
 20
-2.9552
 30
0.0
 10
5.3239
 20
-3.0917
 30
0.0
 10
5.4067
 20
-3.2127
 30
0.0
 10
5.5101
 20
-3.3181
 30
0.0
 10
5.5101
 20
-3.3181
 30
0.0
 10
5.5929
 20
-3.4028
 30
0.0
 10
5.6912
 20
-3.4772
 30
0.0
 10
5.805
 20
-3.5406
 30
0.0
 10
5.805
 20
-3.5406
 30
0.0
 10
5.9182
 20
-3.6046
 30
0.0
 10
6.0457
 20
-3.6544
 30
0.0
 10
6.1867
 20
-3.6907
 30
0.0
 10
6.1867
 20
-3.6907
 30
0.0
 10
6.3277
 20
-3.7262
 30
0.0
 10
6.4816
 20
-3.7443
 30
0.0
 10
6.6471
 20
-3.7449
 30
0.0
 10
6.6471
 20
-3.7449
 30
0.0
 10
6.8115
 20
-3.7443
 30
0.0
 10
6.9596
 20
-3.7229
 30
0.0
 10
7.0914
 20
-3.6815
 30
0.0
 10
7.0914
 20
-3.6815
 30
0.0
 10
7.224
 20
-3.6395
 30
0.0
 10
7.3366
 20
-3.5794
 30
0.0
 10
7.4304
 20
-3.5012
 30
0.0
 10
7.4304
 20
-3.5012
 30
0.0
 10
7.5242
 20
-3.4235
 30
0.0
 10
7.5966
 20
-3.3297
 30
0.0
 10
7.6464
 20
-3.2211
 30
0.0
 10
7.6464
 20
-3.2211
 30
0.0
 10
7.6962
 20
-3.1124
 30
0.0
 10
7.7214
 20
-2.9908
 30
0.0
 10
7.7221
 20
-2.8563
 30
0.0
 10
7.7221
 20
-2.8563
 30
0.0
 10
7.7208
 20
-2.7243
 30
0.0
 10
7.6962
 20
-2.606
 30
0.0
 10
7.6484
 20
-2.5018
 30
0.0
 10
7.6484
 20
-2.5018
 30
0.0
 10
7.5999
 20
-2.3984
 30
0.0
 10
7.5338
 20
-2.3098
 30
0.0
 10
7.4504
 20
-2.2373
 30
0.0
 10
7.4504
 20
-2.2373
 30
0.0
 10
7.367
 20
-2.1648
 30
0.0
 10
7.2719
 20
-2.1093
 30
0.0
 10
7.1652
 20
-2.0717
 30
0.0
 10
7.1652
 20
-2.0717
 30
0.0
 10
7.0592
 20
-2.0336
 30
0.0
 10
6.9473
 20
-2.0142
 30
0.0
 10
6.8295
 20
-2.0142
 30
0.0
 10
6.8295
 20
-2.0142
 30
0.0
 10
6.7067
 20
-2.0148
 30
0.0
 10
6.5954
 20
-2.0336
 30
0.0
 10
6.4958
 20
-2.0705
 30
0.0
 10
6.4958
 20
-2.0705
 30
0.0
 10
6.3962
 20
-2.1073
 30
0.0
 10
6.3102
 20
-2.1597
 30
0.0
 10
6.2384
 20
-2.2269
 30
0.0
 10
6.2384
 20
-2.2269
 30
0.0
 10
6.1673
 20
-2.2949
 30
0.0
 10
6.1116
 20
-2.3751
 30
0.0
 10
6.0735
 20
-2.4676
 30
0.0
 10
6.0735
 20
-2.4676
 30
0.0
 10
6.0347
 20
-2.5601
 30
0.0
 10
6.0152
 20
-2.6629
 30
0.0
 10
6.0146
 20
-2.7748
 30
0.0
 10
6.0146
 20
-2.7748
 30
0.0
 10
6.0152
 20
-2.8679
 30
0.0
 10
6.0288
 20
-2.9533
 30
0.0
 10
6.0547
 20
-3.0309
 30
0.0
 10
6.0547
 20
-3.0309
 30
0.0
 10
6.0813
 20
-3.1086
 30
0.0
 10
6.1162
 20
-3.1778
 30
0.0
 10
6.1608
 20
-3.2379
 30
0.0
 10
6.1608
 20
-3.2379
 30
0.0
 10
6.2047
 20
-3.2974
 30
0.0
 10
6.2545
 20
-3.3479
 30
0.0
 10
6.3095
 20
-3.3879
 30
0.0
 10
6.3095
 20
-3.3879
 30
0.0
 10
6.3095
 20
-3.3879
 30
0.0
 10
6.3095
 20
-3.3957
 30
0.0
 10
6.3095
 20
-3.3957
 30
0.0
 10
6.3095
 20
-3.3957
 30
0.0
 10
6.2041
 20
-3.3815
 30
0.0
 10
6.1026
 20
-3.353
 30
0.0
 10
6.0049
 20
-3.3096
 30
0.0
 10
6.0049
 20
-3.3096
 30
0.0
 10
5.9079
 20
-3.267
 30
0.0
 10
5.8186
 20
-3.2101
 30
0.0
 10
5.7378
 20
-3.1376
 30
0.0
 10
5.7378
 20
-3.1376
 30
0.0
 10
5.6576
 20
-3.0652
 30
0.0
 10
5.5891
 20
-2.9779
 30
0.0
 10
5.5334
 20
-2.875
 30
0.0
 10
5.5334
 20
-2.875
 30
0.0
 10
5.4778
 20
-2.7722
 30
0.0
 10
5.439
 20
-2.6532
 30
0.0
 10
5.417
 20
-2.5187
 30
0.0
 10
5.417
 20
-2.5187
 30
0.0
 10
5.4092
 20
-2.4702
 30
0.0
 10
5.4034
 20
-2.4236
 30
0.0
 10
5.4002
 20
-2.3803
 30
0.0
 10
5.4002
 20
-2.3803
 30
0.0
 10
5.3963
 20
-2.3369
 30
0.0
 10
5.3956
 20
-2.2974
 30
0.0
 10
5.3975
 20
-2.2625
 30
0.0
 10
5.3975
 20
-2.2625
 30
0.0
 10
5.3975
 20
-2.2625
 30
0.0
 10
5.1182
 20
-2.2625
 30
0.0
 10
5.1182
 20
-2.2625
 30
0.0
  0
SPLINE
  5
79
330
1F
100
AcDbEntity
  8
DEFAULT_1
 62
   250
100
AcDbSpline
210
0.0
220
0.0
230
1.0
 70
    11
 71
     3
 72
    64
 73
    60
 74
     0
 42
0.0000000001
 43
0.0000000001
 40
0.0
 40
0.0
 40
0.0
 40
0.0
 40
0.0625
 40
0.0625
 40
0.0625
 40
0.0625
 40
0.125
 40
0.125
 40
0.125
 40
0.125
 40
0.1875
 40
0.1875
 40
0.1875
 40
0.1875
 40
0.25
 40
0.25
 40
0.25
 40
0.25
 40
0.3125
 40
0.3125
 40
0.3125
 40
0.3125
 40
0.375
 40
0.375
 40
0.375
 40
0.375
 40
0.4375
 40
0.4375
 40
0.4375
 40
0.4375
 40
0.5
 40
0.5
 40
0.5
 40
0.5
 40
0.5625
 40
0.5625
 40
0.5625
 40
0.5625
 40
0.625
 40
0.625
 40
0.625
 40
0.625
 40
0.6875
 40
0.6875
 40
0.6875
 40
0.6875
 40
0.75
 40
0.75
 40
0.75
 40
0.75
 40
0.8125
 40
0.8125
 40
0.8125
 40
0.8125
 40
0.875
 40
0.875
 40
0.875
 40
0.875
 40
1.0
 40
1.0
 40
1.0
 40
1.0
 10
7.4582
 20
-2.8485
 30
0.0
 10
7.4575
 20
-2.9391
 30
0.0
 10
7.4395
 20
-3.0186
 30
0.0
 10
7.4032
 20
-3.0879
 30
0.0
 10
7.4032
 20
-3.0879
 30
0.0
 10
7.367
 20
-3.1564
 30
0.0
 10
7.3165
 20
-3.2146
 30
0.0
 10
7.2512
 20
-3.2619
 30
0.0
 10
7.2512
 20
-3.2619
 30
0.0
 10
7.1859
 20
-3.309
 30
0.0
 10
7.109
 20
-3.3446
 30
0.0
 10
7.0209
 20
-3.3692
 30
0.0
 10
7.0209
 20
-3.3692
 30
0.0
 10
6.933
 20
-3.3937
 30
0.0
 10
6.8366
 20
-3.406
 30
0.0
 10
6.7325
 20
-3.4073
 30
0.0
 10
6.7325
 20
-3.4073
 30
0.0
 10
6.7015
 20
-3.4073
 30
0.0
 10
6.6743
 20
-3.4035
 30
0.0
 10
6.6498
 20
-3.397
 30
0.0
 10
6.6498
 20
-3.397
 30
0.0
 10
6.6258
 20
-3.3905
 30
0.0
 10
6.6045
 20
-3.3821
 30
0.0
 10
6.585
 20
-3.3724
 30
0.0
 10
6.585
 20
-3.3724
 30
0.0
 10
6.5223
 20
-3.3407
 30
0.0
 10
6.468
 20
-3.3
 30
0.0
 10
6.4214
 20
-3.2489
 30
0.0
 10
6.4214
 20
-3.2489
 30
0.0
 10
6.3755
 20
-3.1984
 30
0.0
 10
6.3392
 20
-3.1415
 30
0.0
 10
6.3134
 20
-3.0781
 30
0.0
 10
6.3134
 20
-3.0781
 30
0.0
 10
6.2882
 20
-3.0147
 30
0.0
 10
6.2746
 20
-2.9488
 30
0.0
 10
6.2746
 20
-2.8796
 30
0.0
 10
6.2746
 20
-2.8796
 30
0.0
 10
6.2752
 20
-2.7741
 30
0.0
 10
6.2986
 20
-2.6829
 30
0.0
 10
6.3444
 20
-2.6047
 30
0.0
 10
6.3444
 20
-2.6047
 30
0.0
 10
6.3904
 20
-2.5271
 30
0.0
 10
6.4563
 20
-2.4669
 30
0.0
 10
6.5423
 20
-2.4242
 30
0.0
 10
6.5423
 20
-2.4242
 30
0.0
 10
6.6284
 20
-2.3815
 30
0.0
 10
6.7319
 20
-2.3602
 30
0.0
 10
6.8528
 20
-2.3595
 30
0.0
 10
6.8528
 20
-2.3595
 30
0.0
 10
6.9738
 20
-2.3602
 30
0.0
 10
7.0799
 20
-2.3809
 30
0.0
 10
7.1704
 20
-2.4217
 30
0.0
 10
7.1704
 20
-2.4217
 30
0.0
 10
7.2609
 20
-2.4624
 30
0.0
 10
7.3307
 20
-2.5193
 30
0.0
 10
7.3813
 20
-2.5924
 30
0.0
 10
7.3813
 20
-2.5924
 30
0.0
 10
7.4317
 20
-2.6655
 30
0.0
 10
7.4575
 20
-2.7509
 30
0.0
 10
7.4582
 20
-2.8485
 30
0.0
  0
SPLINE
  5
7A
330
1F
100
AcDbEntity
  8
DEFAULT_1
 62
   250
100
AcDbSpline
210
0.0
220
0.0
230
1.0
 70
    11
 71
     3
 72
   132
 73
   128
 74
     0
 42
0.0000000001
 43
0.0000000001
 40
0.0
 40
0.0
 40
0.0
 40
0.0
 40
0.0303030303030303
 40
0.0303030303030303
 40
0.0303030303030303
 40
0.0303030303030303
 40
0.0606060606060606
 40
0.0606060606060606
 40
0.0606060606060606
 40
0.0606060606060606
 40
0.0909090909090909
 40
0.0909090909090909
 40
0.0909090909090909
 40
0.0909090909090909
 40
0.1212121212121212
 40
0.1212121212121212
 40
0.1212121212121212
 40
0.1212121212121212
 40
0.1515151515151515
 40
0.1515151515151515
 40
0.1515151515151515
 40
0.1515151515151515
 40
0.1818181818181818
 40
0.1818181818181818
 40
0.1818181818181818
 40
0.1818181818181818
 40
0.2121212121212121
 40
0.2121212121212121
 40
0.2121212121212121
 40
0.2121212121212121
 40
0.2424242424242424
 40
0.2424242424242424
 40
0.2424242424242424
 40
0.2424242424242424
 40
0.2727272727272727
 40
0.2727272727272727
 40
0.2727272727272727
 40
0.2727272727272727
 40
0.303030303030303
 40
0.303030303030303
 40
0.303030303030303
 40
0.303030303030303
 40
0.3333333333333333
 40
0.3333333333333333
 40
0.3333333333333333
 40
0.3333333333333333
 40
0.3636363636363636
 40
0.3636363636363636
 40
0.3636363636363636
 40
0.3636363636363636
 40
0.3939393939393939
 40
0.3939393939393939
 40
0.3939393939393939
 40
0.3939393939393939
 40
0.4242424242424243
 40
0.4242424242424243
 40
0.4242424242424243
 40
0.4242424242424243
 40
0.4545454545454545
 40
0.4545454545454545
 40
0.4545454545454545
 40
0.4545454545454545
 40
0.4848484848484849
 40
0.4848484848484849
 40
0.4848484848484849
 40
0.4848484848484849
 40
0.5151515151515151
 40
0.5151515151515151
 40
0.5151515151515151
 40
0.5151515151515151
 40
0.5454545454545454
 40
0.5454545454545454
 40
0.5454545454545454
 40
0.5454545454545454
 40
0.5757575757575758
 40
0.5757575757575758
 40
0.5757575757575758
 40
0.5757575757575758
 40
0.6060606060606061
 40
0.6060606060606061
 40
0.6060606060606061
 40
0.6060606060606061
 40
0.6363636363636364
 40
0.6363636363636364
 40
0.6363636363636364
 40
0.6363636363636364
 40
0.6666666666666666
 40
0.6666666666666666
 40
0.6666666666666666
 40
0.6666666666666666
 40
0.696969696969697
 40
0.696969696969697
 40
0.696969696969697
 40
0.696969696969697
 40
0.7272727272727273
 40
0.7272727272727273
 40
0.7272727272727273
 40
0.7272727272727273
 40
0.7575757575757576
 40
0.7575757575757576
 40
0.7575757575757576
 40
0.7575757575757576
 40
0.7878787878787878
 40
0.7878787878787878
 40
0.7878787878787878
 40
0.7878787878787878
 40
0.8181818181818182
 40
0.8181818181818182
 40
0.8181818181818182
 40
0.8181818181818182
 40
0.8484848484848485
 40
0.8484848484848485
 40
0.8484848484848485
 40
0.8484848484848485
 40
0.8787878787878788
 40
0.8787878787878788
 40
0.8787878787878788
 40
0.8787878787878788
 40
0.9090909090909091
 40
0.9090909090909091
 40
0.9090909090909091
 40
0.9090909090909091
 40
0.9393939393939394
 40
0.9393939393939394
 40
0.9393939393939394
 40
0.9393939393939394
 40
1.0
 40
1.0
 40
1.0
 40
1.0
 10
5.157
 20
-0.2058
 30
0.0
 10
5.157
 20
-0.2058
 30
0.0
 10
5.157
 20
-1.4127
 30
0.0
 10
5.157
 20
-1.4127
 30
0.0
 10
5.157
 20
-1.4127
 30
0.0
 10
5.157
 20
-1.4127
 30
0.0
 10
6.3677
 20
-1.5757
 30
0.0
 10
6.3677
 20
-1.5757
 30
0.0
 10
6.3677
 20
-1.5757
 30
0.0
 10
6.3613
 20
-1.5291
 30
0.0
 10
6.3561
 20
-1.4774
 30
0.0
 10
6.3516
 20
-1.4192
 30
0.0
 10
6.3516
 20
-1.4192
 30
0.0
 10
6.347
 20
-1.3616
 30
0.0
 10
6.3444
 20
-1.2956
 30
0.0
 10
6.3444
 20
-1.2226
 30
0.0
 10
6.3444
 20
-1.2226
 30
0.0
 10
6.3451
 20
-1.0557
 30
0.0
 10
6.3691
 20
-0.9192
 30
0.0
 10
6.4156
 20
-0.8131
 30
0.0
 10
6.4156
 20
-0.8131
 30
0.0
 10
6.4628
 20
-0.7064
 30
0.0
 10
6.5275
 20
-0.6275
 30
0.0
 10
6.6103
 20
-0.5765
 30
0.0
 10
6.6103
 20
-0.5765
 30
0.0
 10
6.6937
 20
-0.5253
 30
0.0
 10
6.7901
 20
-0.5001
 30
0.0
 10
6.8994
 20
-0.5008
 30
0.0
 10
6.8994
 20
-0.5008
 30
0.0
 10
6.9841
 20
-0.5001
 30
0.0
 10
7.0598
 20
-0.5156
 30
0.0
 10
7.127
 20
-0.5474
 30
0.0
 10
7.127
 20
-0.5474
 30
0.0
 10
7.195
 20
-0.5784
 30
0.0
 10
7.2519
 20
-0.6217
 30
0.0
 10
7.2997
 20
-0.6767
 30
0.0
 10
7.2997
 20
-0.6767
 30
0.0
 10
7.347
 20
-0.7317
 30
0.0
 10
7.3832
 20
-0.7951
 30
0.0
 10
7.4084
 20
-0.8668
 30
0.0
 10
7.4084
 20
-0.8668
 30
0.0
 10
7.4336
 20
-0.9386
 30
0.0
 10
7.4466
 20
-1.0143
 30
0.0
 10
7.4466
 20
-1.0945
 30
0.0
 10
7.4466
 20
-1.0945
 30
0.0
 10
7.4459
 20
-1.1728
 30
0.0
 10
7.4388
 20
-1.2465
 30
0.0
 10
7.424
 20
-1.3157
 30
0.0
 10
7.424
 20
-1.3157
 30
0.0
 10
7.4097
 20
-1.3849
 30
0.0
 10
7.3922
 20
-1.447
 30
0.0
 10
7.3709
 20
-1.5019
 30
0.0
 10
7.3709
 20
-1.5019
 30
0.0
 10
7.3495
 20
-1.5569
 30
0.0
 10
7.3282
 20
-1.6022
 30
0.0
 10
7.3069
 20
-1.6378
 30
0.0
 10
7.3069
 20
-1.6378
 30
0.0
 10
7.3069
 20
-1.6378
 30
0.0
 10
7.5669
 20
-1.7232
 30
0.0
 10
7.5669
 20
-1.7232
 30
0.0
 10
7.5669
 20
-1.7232
 30
0.0
 10
7.5934
 20
-1.6811
 30
0.0
 10
7.6179
 20
-1.6287
 30
0.0
 10
7.6419
 20
-1.566
 30
0.0
 10
7.6419
 20
-1.566
 30
0.0
 10
7.6652
 20
-1.5033
 30
0.0
 10
7.684
 20
-1.4321
 30
0.0
 10
7.6988
 20
-1.3525
 30
0.0
 10
7.6988
 20
-1.3525
 30
0.0
 10
7.7137
 20
-1.2724
 30
0.0
 10
7.7214
 20
-1.1863
 30
0.0
 10
7.7221
 20
-1.0945
 30
0.0
 10
7.7221
 20
-1.0945
 30
0.0
 10
7.7214
 20
-0.9568
 30
0.0
 10
7.6995
 20
-0.8313
 30
0.0
 10
7.6568
 20
-0.7168
 30
0.0
 10
7.6568
 20
-0.7168
 30
0.0
 10
7.6141
 20
-0.6023
 30
0.0
 10
7.5539
 20
-0.5033
 30
0.0
 10
7.4763
 20
-0.4199
 30
0.0
 10
7.4763
 20
-0.4199
 30
0.0
 10
7.3987
 20
-0.3358
 30
0.0
 10
7.3075
 20
-0.2711
 30
0.0
 10
7.2033
 20
-0.2253
 30
0.0
 10
7.2033
 20
-0.2253
 30
0.0
 10
7.0986
 20
-0.1793
 30
0.0
 10
6.9841
 20
-0.156
 30
0.0
 10
6.8606
 20
-0.1554
 30
0.0
 10
6.8606
 20
-0.1554
 30
0.0
 10
6.7558
 20
-0.156
 30
0.0
 10
6.6614
 20
-0.1728
 30
0.0
 10
6.5779
 20
-0.2052
 30
0.0
 10
6.5779
 20
-0.2052
 30
0.0
 10
6.4945
 20
-0.2375
 30
0.0
 10
6.4227
 20
-0.2803
 30
0.0
 10
6.362
 20
-0.3345
 30
0.0
 10
6.362
 20
-0.3345
 30
0.0
 10
6.3011
 20
-0.3889
 30
0.0
 10
6.2526
 20
-0.4497
 30
0.0
 10
6.2164
 20
-0.5163
 30
0.0
 10
6.2164
 20
-0.5163
 30
0.0
 10
6.1685
 20
-0.5945
 30
0.0
 10
6.1336
 20
-0.6792
 30
0.0
 10
6.1123
 20
-0.7717
 30
0.0
 10
6.1123
 20
-0.7717
 30
0.0
 10
6.0909
 20
-0.8643
 30
0.0
 10
6.0799
 20
-0.9599
 30
0.0
 10
6.0806
 20
-1.0595
 30
0.0
 10
6.0806
 20
-1.0595
 30
0.0
 10
6.0806
 20
-1.1049
 30
0.0
 10
6.0813
 20
-1.1436
 30
0.0
 10
6.0832
 20
-1.1754
 30
0.0
 10
6.0832
 20
-1.1754
 30
0.0
 10
6.0851
 20
-1.207
 30
0.0
 10
6.0884
 20
-1.2368
 30
0.0
 10
6.0922
 20
-1.2653
 30
0.0
 10
6.0922
 20
-1.2653
 30
0.0
 10
6.0922
 20
-1.2653
 30
0.0
 10
5.4441
 20
-1.1682
 30
0.0
 10
5.4441
 20
-1.1682
 30
0.0
 10
5.4441
 20
-1.1682
 30
0.0
 10
5.4441
 20
-1.1682
 30
0.0
 10
5.4441
 20
-0.2058
 30
0.0
 10
5.4441
 20
-0.2058
 30
0.0
 10
5.4441
 20
-0.2058
 30
0.0
 10
5.4441
 20
-0.2058
 30
0.0
 10
5.157
 20
-0.2058
 30
0.0
 10
5.157
 20
-0.2058
 30
0.0
  0
SPLINE
  5
7B
330
1F
100
AcDbEntity
  8
DEFAULT_1
 62
   250
100
AcDbSpline
210
0.0
220
0.0
230
1.0
 70
    11
 71
     3
 72
   140
 73
   136
 74
     0
 42
0.0000000001
 43
0.0000000001
 40
0.0
 40
0.0
 40
0.0
 40
0.0
 40
0.0285714285714286
 40
0.0285714285714286
 40
0.0285714285714286
 40
0.0285714285714286
 40
0.0571428571428571
 40
0.0571428571428571
 40
0.0571428571428571
 40
0.0571428571428571
 40
0.0857142857142857
 40
0.0857142857142857
 40
0.0857142857142857
 40
0.0857142857142857
 40
0.1142857142857143
 40
0.1142857142857143
 40
0.1142857142857143
 40
0.1142857142857143
 40
0.1428571428571428
 40
0.1428571428571428
 40
0.1428571428571428
 40
0.1428571428571428
 40
0.1714285714285714
 40
0.1714285714285714
 40
0.1714285714285714
 40
0.1714285714285714
 40
0.2
 40
0.2
 40
0.2
 40
0.2
 40
0.2285714285714286
 40
0.2285714285714286
 40
0.2285714285714286
 40
0.2285714285714286
 40
0.2571428571428571
 40
0.2571428571428571
 40
0.2571428571428571
 40
0.2571428571428571
 40
0.2857142857142857
 40
0.2857142857142857
 40
0.2857142857142857
 40
0.2857142857142857
 40
0.3142857142857143
 40
0.3142857142857143
 40
0.3142857142857143
 40
0.3142857142857143
 40
0.3428571428571429
 40
0.3428571428571429
 40
0.3428571428571429
 40
0.3428571428571429
 40
0.3714285714285714
 40
0.3714285714285714
 40
0.3714285714285714
 40
0.3714285714285714
 40
0.4
 40
0.4
 40
0.4
 40
0.4
 40
0.4285714285714285
 40
0.4285714285714285
 40
0.4285714285714285
 40
0.4285714285714285
 40
0.4571428571428571
 40
0.4571428571428571
 40
0.4571428571428571
 40
0.4571428571428571
 40
0.4857142857142857
 40
0.4857142857142857
 40
0.4857142857142857
 40
0.4857142857142857
 40
0.5142857142857142
 40
0.5142857142857142
 40
0.5142857142857142
 40
0.5142857142857142
 40
0.5428571428571428
 40
0.5428571428571428
 40
0.5428571428571428
 40
0.5428571428571428
 40
0.5714285714285714
 40
0.5714285714285714
 40
0.5714285714285714
 40
0.5714285714285714
 40
0.6
 40
0.6
 40
0.6
 40
0.6
 40
0.6285714285714286
 40
0.6285714285714286
 40
0.6285714285714286
 40
0.6285714285714286
 40
0.6571428571428571
 40
0.6571428571428571
 40
0.6571428571428571
 40
0.6571428571428571
 40
0.6857142857142857
 40
0.6857142857142857
 40
0.6857142857142857
 40
0.6857142857142857
 40
0.7142857142857143
 40
0.7142857142857143
 40
0.7142857142857143
 40
0.7142857142857143
 40
0.7428571428571429
 40
0.7428571428571429
 40
0.7428571428571429
 40
0.7428571428571429
 40
0.7714285714285715
 40
0.7714285714285715
 40
0.7714285714285715
 40
0.7714285714285715
 40
0.8
 40
0.8
 40
0.8
 40
0.8
 40
0.8285714285714286
 40
0.8285714285714286
 40
0.8285714285714286
 40
0.8285714285714286
 40
0.8571428571428571
 40
0.8571428571428571
 40
0.8571428571428571
 40
0.8571428571428571
 40
0.8857142857142857
 40
0.8857142857142857
 40
0.8857142857142857
 40
0.8857142857142857
 40
0.9142857142857143
 40
0.9142857142857143
 40
0.9142857142857143
 40
0.9142857142857143
 40
0.9428571428571428
 40
0.9428571428571428
 40
0.9428571428571428
 40
0.9428571428571428
 40
1.0
 40
1.0
 40
1.0
 40
1.0
 10
-4.9802
 20
26.5953
 30
0.0
 10
-4.9802
 20
26.5953
 30
0.0
 10
-5.8418
 20
26.5953
 30
0.0
 10
-5.8418
 20
26.5953
 30
0.0
 10
-5.8418
 20
26.5953
 30
0.0
 10
-5.8418
 20
26.5953
 30
0.0
 10
-5.8418
 20
26.3237
 30
0.0
 10
-5.8418
 20
26.3237
 30
0.0
 10
-5.8418
 20
26.3237
 30
0.0
 10
-5.8418
 20
26.3237
 30
0.0
 10
-5.314
 20
26.3237
 30
0.0
 10
-5.314
 20
26.3237
 30
0.0
 10
-5.314
 20
26.3237
 30
0.0
 10
-5.314
 20
26.3237
 30
0.0
 10
-5.314
 20
25.5437
 30
0.0
 10
-5.314
 20
25.5437
 30
0.0
 10
-5.314
 20
25.5437
 30
0.0
 10
-5.3528
 20
25.5237
 30
0.0
 10
-5.4097
 20
25.5075
 30
0.0
 10
-5.4854
 20
25.4939
 30
0.0
 10
-5.4854
 20
25.4939
 30
0.0
 10
-5.5604
 20
25.481
 30
0.0
 10
-5.6535
 20
25.4745
 30
0.0
 10
-5.7642
 20
25.4739
 30
0.0
 10
-5.7642
 20
25.4739
 30
0.0
 10
-5.9181
 20
25.4739
 30
0.0
 10
-6.0565
 20
25.4978
 30
0.0
 10
-6.1807
 20
25.5456
 30
0.0
 10
-6.1807
 20
25.5456
 30
0.0
 10
-6.3042
 20
25.5929
 30
0.0
 10
-6.4103
 20
25.6621
 30
0.0
 10
-6.4989
 20
25.7527
 30
0.0
 10
-6.4989
 20
25.7527
 30
0.0
 10
-6.5869
 20
25.8439
 30
0.0
 10
-6.6548
 20
25.9544
 30
0.0
 10
-6.702
 20
26.0844
 30
0.0
 10
-6.702
 20
26.0844
 30
0.0
 10
-6.7492
 20
26.215
 30
0.0
 10
-6.7724
 20
26.3631
 30
0.0
 10
-6.7731
 20
26.5294
 30
0.0
 10
-6.7731
 20
26.5294
 30
0.0
 10
-6.7724
 20
26.6936
 30
0.0
 10
-6.7479
 20
26.8405
 30
0.0
 10
-6.6981
 20
26.9705
 30
0.0
 10
-6.6981
 20
26.9705
 30
0.0
 10
-6.649
 20
27.0998
 30
0.0
 10
-6.5785
 20
27.2105
 30
0.0
 10
-6.4859
 20
27.301
 30
0.0
 10
-6.4859
 20
27.301
 30
0.0
 10
-6.3934
 20
27.3922
 30
0.0
 10
-6.2835
 20
27.4614
 30
0.0
 10
-6.1541
 20
27.5092
 30
0.0
 10
-6.1541
 20
27.5092
 30
0.0
 10
-6.0254
 20
27.5565
 30
0.0
 10
-5.8812
 20
27.5811
 30
0.0
 10
-5.7215
 20
27.5811
 30
0.0
 10
-5.7215
 20
27.5811
 30
0.0
 10
-5.6335
 20
27.5811
 30
0.0
 10
-5.5552
 20
27.5759
 30
0.0
 10
-5.4854
 20
27.5669
 30
0.0
 10
-5.4854
 20
27.5669
 30
0.0
 10
-5.4155
 20
27.5571
 30
0.0
 10
-5.3528
 20
27.5441
 30
0.0
 10
-5.2965
 20
27.5274
 30
0.0
 10
-5.2965
 20
27.5274
 30
0.0
 10
-5.2402
 20
27.5106
 30
0.0
 10
-5.1892
 20
27.4905
 30
0.0
 10
-5.1433
 20
27.4685
 30
0.0
 10
-5.1433
 20
27.4685
 30
0.0
 10
-5.1433
 20
27.4685
 30
0.0
 10
-5.0578
 20
27.7441
 30
0.0
 10
-5.0578
 20
27.7441
 30
0.0
 10
-5.0578
 20
27.7441
 30
0.0
 10
-5.0961
 20
27.7627
 30
0.0
 10
-5.1465
 20
27.7809
 30
0.0
 10
-5.2105
 20
27.7997
 30
0.0
 10
-5.2105
 20
27.7997
 30
0.0
 10
-5.2745
 20
27.8177
 30
0.0
 10
-5.3489
 20
27.8332
 30
0.0
 10
-5.4343
 20
27.8456
 30
0.0
 10
-5.4343
 20
27.8456
 30
0.0
 10
-5.519
 20
27.8572
 30
0.0
 10
-5.6121
 20
27.8637
 30
0.0
 10
-5.7137
 20
27.8643
 30
0.0
 10
-5.7137
 20
27.8643
 30
0.0
 10
-5.9336
 20
27.8637
 30
0.0
 10
-6.1309
 20
27.8294
 30
0.0
 10
-6.3049
 20
27.7627
 30
0.0
 10
-6.3049
 20
27.7627
 30
0.0
 10
-6.4795
 20
27.6962
 30
0.0
 10
-6.6283
 20
27.6024
 30
0.0
 10
-6.7505
 20
27.4814
 30
0.0
 10
-6.7505
 20
27.4814
 30
0.0
 10
-6.8734
 20
27.3605
 30
0.0
 10
-6.9672
 20
27.2182
 30
0.0
 10
-7.0318
 20
27.054
 30
0.0
 10
-7.0318
 20
27.054
 30
0.0
 10
-7.0971
 20
26.8896
 30
0.0
 10
-7.1295
 20
26.7099
 30
0.0
 10
-7.1301
 20
26.5139
 30
0.0
 10
-7.1301
 20
26.5139
 30
0.0
 10
-7.1295
 20
26.3774
 30
0.0
 10
-7.1146
 20
26.2493
 30
0.0
 10
-7.0855
 20
26.1284
 30
0.0
 10
-7.0855
 20
26.1284
 30
0.0
 10
-7.0564
 20
26.0081
 30
0.0
 10
-7.0144
 20
25.8981
 30
0.0
 10
-6.96
 20
25.7985
 30
0.0
 10
-6.96
 20
25.7985
 30
0.0
 10
-6.9057
 20
25.699
 30
0.0
 10
-6.841
 20
25.613
 30
0.0
 10
-6.7653
 20
25.5398
 30
0.0
 10
-6.7653
 20
25.5398
 30
0.0
 10
-6.6373
 20
25.4182
 30
0.0
 10
-6.4917
 20
25.3302
 30
0.0
 10
-6.3288
 20
25.2753
 30
0.0
 10
-6.3288
 20
25.2753
 30
0.0
 10
-6.1658
 20
25.2203
 30
0.0
 10
-5.9853
 20
25.1938
 30
0.0
 10
-5.7874
 20
25.1944
 30
0.0
 10
-5.7874
 20
25.1944
 30
0.0
 10
-5.6691
 20
25.1951
 30
0.0
 10
-5.5585
 20
25.2035
 30
0.0
 10
-5.455
 20
25.2191
 30
0.0
 10
-5.455
 20
25.2191
 30
0.0
 10
-5.3515
 20
25.2346
 30
0.0
 10
-5.259
 20
25.2534
 30
0.0
 10
-5.1781
 20
25.2747
 30
0.0
 10
-5.1781
 20
25.2747
 30
0.0
 10
-5.0973
 20
25.2967
 30
0.0
 10
-5.0314
 20
25.318
 30
0.0
 10
-4.9802
 20
25.3381
 30
0.0
 10
-4.9802
 20
25.3381
 30
0.0
 10
-4.9802
 20
25.3381
 30
0.0
 10
-4.9802
 20
26.5953
 30
0.0
 10
-4.9802
 20
26.5953
 30
0.0
  0
SPLINE
  5
7C
330
1F
100
AcDbEntity
  8
DEFAULT_1
 62
   250
100
AcDbSpline
210
0.0
220
0.0
230
1.0
 70
    11
 71
     3
 72
   124
 73
   120
 74
     0
 42
0.0000000001
 43
0.0000000001
 40
0.0
 40
0.0
 40
0.0
 40
0.0
 40
0.032258064516129
 40
0.032258064516129
 40
0.032258064516129
 40
0.032258064516129
 40
0.0645161290322581
 40
0.0645161290322581
 40
0.0645161290322581
 40
0.0645161290322581
 40
0.0967741935483871
 40
0.0967741935483871
 40
0.0967741935483871
 40
0.0967741935483871
 40
0.1290322580645161
 40
0.1290322580645161
 40
0.1290322580645161
 40
0.1290322580645161
 40
0.1612903225806452
 40
0.1612903225806452
 40
0.1612903225806452
 40
0.1612903225806452
 40
0.1935483870967742
 40
0.1935483870967742
 40
0.1935483870967742
 40
0.1935483870967742
 40
0.2258064516129032
 40
0.2258064516129032
 40
0.2258064516129032
 40
0.2258064516129032
 40
0.2580645161290323
 40
0.2580645161290323
 40
0.2580645161290323
 40
0.2580645161290323
 40
0.2903225806451613
 40
0.2903225806451613
 40
0.2903225806451613
 40
0.2903225806451613
 40
0.3225806451612903
 40
0.3225806451612903
 40
0.3225806451612903
 40
0.3225806451612903
 40
0.3548387096774194
 40
0.3548387096774194
 40
0.3548387096774194
 40
0.3548387096774194
 40
0.3870967741935484
 40
0.3870967741935484
 40
0.3870967741935484
 40
0.3870967741935484
 40
0.4193548387096774
 40
0.4193548387096774
 40
0.4193548387096774
 40
0.4193548387096774
 40
0.4516129032258064
 40
0.4516129032258064
 40
0.4516129032258064
 40
0.4516129032258064
 40
0.4838709677419355
 40
0.4838709677419355
 40
0.4838709677419355
 40
0.4838709677419355
 40
0.5161290322580645
 40
0.5161290322580645
 40
0.5161290322580645
 40
0.5161290322580645
 40
0.5483870967741935
 40
0.5483870967741935
 40
0.5483870967741935
 40
0.5483870967741935
 40
0.5806451612903226
 40
0.5806451612903226
 40
0.5806451612903226
 40
0.5806451612903226
 40
0.6129032258064516
 40
0.6129032258064516
 40
0.6129032258064516
 40
0.6129032258064516
 40
0.6451612903225806
 40
0.6451612903225806
 40
0.6451612903225806
 40
0.6451612903225806
 40
0.6774193548387096
 40
0.6774193548387096
 40
0.6774193548387096
 40
0.6774193548387096
 40
0.7096774193548387
 40
0.7096774193548387
 40
0.7096774193548387
 40
0.7096774193548387
 40
0.7419354838709677
 40
0.7419354838709677
 40
0.7419354838709677
 40
0.7419354838709677
 40
0.7741935483870968
 40
0.7741935483870968
 40
0.7741935483870968
 40
0.7741935483870968
 40
0.8064516129032258
 40
0.8064516129032258
 40
0.8064516129032258
 40
0.8064516129032258
 40
0.8387096774193549
 40
0.8387096774193549
 40
0.8387096774193549
 40
0.8387096774193549
 40
0.8709677419354839
 40
0.8709677419354839
 40
0.8709677419354839
 40
0.8709677419354839
 40
0.9032258064516129
 40
0.9032258064516129
 40
0.9032258064516129
 40
0.9032258064516129
 40
0.9354838709677419
 40
0.9354838709677419
 40
0.9354838709677419
 40
0.9354838709677419
 40
1.0
 40
1.0
 40
1.0
 40
1.0
 10
-3.1485
 20
27.7828
 30
0.0
 10
-3.1796
 20
27.7828
 30
0.0
 10
-3.2165
 20
27.7815
 30
0.0
 10
-3.2579
 20
27.779
 30
0.0
 10
-3.2579
 20
27.779
 30
0.0
 10
-3.2999
 20
27.7763
 30
0.0
 10
-3.3465
 20
27.7712
 30
0.0
 10
-3.397
 20
27.7635
 30
0.0
 10
-3.397
 20
27.7635
 30
0.0
 10
-3.5566
 20
27.7441
 30
0.0
 10
-3.7048
 20
27.7026
 30
0.0
 10
-3.8413
 20
27.6399
 30
0.0
 10
-3.8413
 20
27.6399
 30
0.0
 10
-3.9777
 20
27.5772
 30
0.0
 10
-4.0987
 20
27.4944
 30
0.0
 10
-4.2041
 20
27.3909
 30
0.0
 10
-4.2041
 20
27.3909
 30
0.0
 10
-4.2889
 20
27.3081
 30
0.0
 10
-4.3632
 20
27.2098
 30
0.0
 10
-4.4266
 20
27.096
 30
0.0
 10
-4.4266
 20
27.096
 30
0.0
 10
-4.4906
 20
26.9828
 30
0.0
 10
-4.5404
 20
26.8553
 30
0.0
 10
-4.5767
 20
26.7143
 30
0.0
 10
-4.5767
 20
26.7143
 30
0.0
 10
-4.6123
 20
26.5734
 30
0.0
 10
-4.6303
 20
26.4194
 30
0.0
 10
-4.631
 20
26.2539
 30
0.0
 10
-4.631
 20
26.2539
 30
0.0
 10
-4.6303
 20
26.0895
 30
0.0
 10
-4.609
 20
25.9414
 30
0.0
 10
-4.5676
 20
25.8096
 30
0.0
 10
-4.5676
 20
25.8096
 30
0.0
 10
-4.5255
 20
25.677
 30
0.0
 10
-4.4654
 20
25.5644
 30
0.0
 10
-4.3872
 20
25.4706
 30
0.0
 10
-4.3872
 20
25.4706
 30
0.0
 10
-4.3096
 20
25.3768
 30
0.0
 10
-4.2157
 20
25.3044
 30
0.0
 10
-4.1071
 20
25.2546
 30
0.0
 10
-4.1071
 20
25.2546
 30
0.0
 10
-3.9984
 20
25.2048
 30
0.0
 10
-3.8768
 20
25.1796
 30
0.0
 10
-3.7423
 20
25.1789
 30
0.0
 10
-3.7423
 20
25.1789
 30
0.0
 10
-3.6104
 20
25.1802
 30
0.0
 10
-3.492
 20
25.2048
 30
0.0
 10
-3.3878
 20
25.2526
 30
0.0
 10
-3.3878
 20
25.2526
 30
0.0
 10
-3.2844
 20
25.3011
 30
0.0
 10
-3.1958
 20
25.3672
 30
0.0
 10
-3.1234
 20
25.4506
 30
0.0
 10
-3.1234
 20
25.4506
 30
0.0
 10
-3.0509
 20
25.534
 30
0.0
 10
-2.9953
 20
25.6291
 30
0.0
 10
-2.9578
 20
25.7358
 30
0.0
 10
-2.9578
 20
25.7358
 30
0.0
 10
-2.9196
 20
25.8419
 30
0.0
 10
-2.9002
 20
25.9538
 30
0.0
 10
-2.9002
 20
26.0715
 30
0.0
 10
-2.9002
 20
26.0715
 30
0.0
 10
-2.9008
 20
26.1943
 30
0.0
 10
-2.9196
 20
26.3056
 30
0.0
 10
-2.9565
 20
26.4052
 30
0.0
 10
-2.9565
 20
26.4052
 30
0.0
 10
-2.9933
 20
26.5049
 30
0.0
 10
-3.0458
 20
26.5909
 30
0.0
 10
-3.113
 20
26.6626
 30
0.0
 10
-3.113
 20
26.6626
 30
0.0
 10
-3.1809
 20
26.7338
 30
0.0
 10
-3.2611
 20
26.7894
 30
0.0
 10
-3.3536
 20
26.8275
 30
0.0
 10
-3.3536
 20
26.8275
 30
0.0
 10
-3.4461
 20
26.8664
 30
0.0
 10
-3.5489
 20
26.8858
 30
0.0
 10
-3.6608
 20
26.8864
 30
0.0
 10
-3.6608
 20
26.8864
 30
0.0
 10
-3.7539
 20
26.8858
 30
0.0
 10
-3.8394
 20
26.8722
 30
0.0
 10
-3.917
 20
26.8463
 30
0.0
 10
-3.917
 20
26.8463
 30
0.0
 10
-3.9946
 20
26.8198
 30
0.0
 10
-4.0638
 20
26.7848
 30
0.0
 10
-4.1239
 20
26.7402
 30
0.0
 10
-4.1239
 20
26.7402
 30
0.0
 10
-4.1834
 20
26.6963
 30
0.0
 10
-4.2339
 20
26.6465
 30
0.0
 10
-4.2739
 20
26.5915
 30
0.0
 10
-4.2739
 20
26.5915
 30
0.0
 10
-4.2739
 20
26.5915
 30
0.0
 10
-4.2818
 20
26.5915
 30
0.0
 10
-4.2818
 20
26.5915
 30
0.0
 10
-4.2818
 20
26.5915
 30
0.0
 10
-4.2675
 20
26.6969
 30
0.0
 10
-4.239
 20
26.7984
 30
0.0
 10
-4.1957
 20
26.8961
 30
0.0
 10
-4.1957
 20
26.8961
 30
0.0
 10
-4.153
 20
26.9931
 30
0.0
 10
-4.0961
 20
27.0824
 30
0.0
 10
-4.0237
 20
27.1632
 30
0.0
 10
-4.0237
 20
27.1632
 30
0.0
 10
-3.9513
 20
27.2435
 30
0.0
 10
-3.8639
 20
27.312
 30
0.0
 10
-3.761
 20
27.3676
 30
0.0
 10
-3.761
 20
27.3676
 30
0.0
 10
-3.6582
 20
27.4232
 30
0.0
 10
-3.5392
 20
27.4621
 30
0.0
 10
-3.4047
 20
27.484
 30
0.0
 10
-3.4047
 20
27.484
 30
0.0
 10
-3.3562
 20
27.4918
 30
0.0
 10
-3.3096
 20
27.4976
 30
0.0
 10
-3.2663
 20
27.5008
 30
0.0
 10
-3.2663
 20
27.5008
 30
0.0
 10
-3.223
 20
27.5047
 30
0.0
 10
-3.1835
 20
27.5054
 30
0.0
 10
-3.1485
 20
27.5035
 30
0.0
 10
-3.1485
 20
27.5035
 30
0.0
 10
-3.1485
 20
27.5035
 30
0.0
 10
-3.1485
 20
27.7828
 30
0.0
 10
-3.1485
 20
27.7828
 30
0.0
  0
SPLINE
  5
7D
330
1F
100
AcDbEntity
  8
DEFAULT_1
 62
   250
100
AcDbSpline
210
0.0
220
0.0
230
1.0
 70
    11
 71
     3
 72
    64
 73
    60
 74
     0
 42
0.0000000001
 43
0.0000000001
 40
0.0
 40
0.0
 40
0.0
 40
0.0
 40
0.0625
 40
0.0625
 40
0.0625
 40
0.0625
 40
0.125
 40
0.125
 40
0.125
 40
0.125
 40
0.1875
 40
0.1875
 40
0.1875
 40
0.1875
 40
0.25
 40
0.25
 40
0.25
 40
0.25
 40
0.3125
 40
0.3125
 40
0.3125
 40
0.3125
 40
0.375
 40
0.375
 40
0.375
 40
0.375
 40
0.4375
 40
0.4375
 40
0.4375
 40
0.4375
 40
0.5
 40
0.5
 40
0.5
 40
0.5
 40
0.5625
 40
0.5625
 40
0.5625
 40
0.5625
 40
0.625
 40
0.625
 40
0.625
 40
0.625
 40
0.6875
 40
0.6875
 40
0.6875
 40
0.6875
 40
0.75
 40
0.75
 40
0.75
 40
0.75
 40
0.8125
 40
0.8125
 40
0.8125
 40
0.8125
 40
0.875
 40
0.875
 40
0.875
 40
0.875
 40
1.0
 40
1.0
 40
1.0
 40
1.0
 10
-3.7346
 20
25.4428
 30
0.0
 10
-3.8251
 20
25.4435
 30
0.0
 10
-3.9047
 20
25.4616
 30
0.0
 10
-3.9739
 20
25.4978
 30
0.0
 10
-3.9739
 20
25.4978
 30
0.0
 10
-4.0425
 20
25.534
 30
0.0
 10
-4.1006
 20
25.5845
 30
0.0
 10
-4.1479
 20
25.6498
 30
0.0
 10
-4.1479
 20
25.6498
 30
0.0
 10
-4.195
 20
25.7151
 30
0.0
 10
-4.2306
 20
25.7921
 30
0.0
 10
-4.2552
 20
25.8801
 30
0.0
 10
-4.2552
 20
25.8801
 30
0.0
 10
-4.2798
 20
25.968
 30
0.0
 10
-4.2921
 20
26.0644
 30
0.0
 10
-4.2933
 20
26.1685
 30
0.0
 10
-4.2933
 20
26.1685
 30
0.0
 10
-4.2933
 20
26.1995
 30
0.0
 10
-4.2895
 20
26.2267
 30
0.0
 10
-4.283
 20
26.2512
 30
0.0
 10
-4.283
 20
26.2512
 30
0.0
 10
-4.2766
 20
26.2752
 30
0.0
 10
-4.2682
 20
26.2966
 30
0.0
 10
-4.2584
 20
26.316
 30
0.0
 10
-4.2584
 20
26.316
 30
0.0
 10
-4.2268
 20
26.3787
 30
0.0
 10
-4.186
 20
26.433
 30
0.0
 10
-4.1349
 20
26.4796
 30
0.0
 10
-4.1349
 20
26.4796
 30
0.0
 10
-4.0844
 20
26.5255
 30
0.0
 10
-4.0275
 20
26.5618
 30
0.0
 10
-3.9641
 20
26.5876
 30
0.0
 10
-3.9641
 20
26.5876
 30
0.0
 10
-3.9007
 20
26.6128
 30
0.0
 10
-3.8348
 20
26.6264
 30
0.0
 10
-3.7656
 20
26.6264
 30
0.0
 10
-3.7656
 20
26.6264
 30
0.0
 10
-3.6602
 20
26.6258
 30
0.0
 10
-3.569
 20
26.6024
 30
0.0
 10
-3.4907
 20
26.5566
 30
0.0
 10
-3.4907
 20
26.5566
 30
0.0
 10
-3.4131
 20
26.5106
 30
0.0
 10
-3.3529
 20
26.4447
 30
0.0
 10
-3.3102
 20
26.3587
 30
0.0
 10
-3.3102
 20
26.3587
 30
0.0
 10
-3.2676
 20
26.2726
 30
0.0
 10
-3.2462
 20
26.1692
 30
0.0
 10
-3.2456
 20
26.0482
 30
0.0
 10
-3.2456
 20
26.0482
 30
0.0
 10
-3.2462
 20
25.9272
 30
0.0
 10
-3.2669
 20
25.8212
 30
0.0
 10
-3.3077
 20
25.7306
 30
0.0
 10
-3.3077
 20
25.7306
 30
0.0
 10
-3.3484
 20
25.6401
 30
0.0
 10
-3.4054
 20
25.5703
 30
0.0
 10
-3.4784
 20
25.5197
 30
0.0
 10
-3.4784
 20
25.5197
 30
0.0
 10
-3.5515
 20
25.4693
 30
0.0
 10
-3.6369
 20
25.4435
 30
0.0
 10
-3.7346
 20
25.4428
 30
0.0
  0
SPLINE
  5
7E
330
1F
100
AcDbEntity
  8
DEFAULT_1
 62
   250
100
AcDbSpline
210
0.0
220
0.0
230
1.0
 70
    11
 71
     3
 72
    20
 73
    16
 74
     0
 42
0.0000000001
 43
0.0000000001
 40
0.0
 40
0.0
 40
0.0
 40
0.0
 40
0.2
 40
0.2
 40
0.2
 40
0.2
 40
0.4
 40
0.4
 40
0.4
 40
0.4
 40
0.6
 40
0.6
 40
0.6
 40
0.6
 40
1.0
 40
1.0
 40
1.0
 40
1.0
 10
-2.5161
 20
25.0702
 30
0.0
 10
-2.5161
 20
25.0702
 30
0.0
 10
-1.4295
 20
27.8838
 30
0.0
 10
-1.4295
 20
27.8838
 30
0.0
 10
-1.4295
 20
27.8838
 30
0.0
 10
-1.4295
 20
27.8838
 30
0.0
 10
-1.6972
 20
27.8838
 30
0.0
 10
-1.6972
 20
27.8838
 30
0.0
 10
-1.6972
 20
27.8838
 30
0.0
 10
-1.6972
 20
27.8838
 30
0.0
 10
-2.7761
 20
25.0702
 30
0.0
 10
-2.7761
 20
25.0702
 30
0.0
 10
-2.7761
 20
25.0702
 30
0.0
 10
-2.7761
 20
25.0702
 30
0.0
 10
-2.5161
 20
25.0702
 30
0.0
 10
-2.5161
 20
25.0702
 30
0.0
  0
SPLINE
  5
7F
330
1F
100
AcDbEntity
  8
DEFAULT_1
 62
   250
100
AcDbSpline
210
0.0
220
0.0
230
1.0
 70
    11
 71
     3
 72
    48
 73
    44
 74
     0
 42
0.0000000001
 43
0.0000000001
 40
0.0
 40
0.0
 40
0.0
 40
0.0
 40
0.0833333333333333
 40
0.0833333333333333
 40
0.0833333333333333
 40
0.0833333333333333
 40
0.1666666666666667
 40
0.1666666666666667
 40
0.1666666666666667
 40
0.1666666666666667
 40
0.25
 40
0.25
 40
0.25
 40
0.25
 40
0.3333333333333333
 40
0.3333333333333333
 40
0.3333333333333333
 40
0.3333333333333333
 40
0.4166666666666667
 40
0.4166666666666667
 40
0.4166666666666667
 40
0.4166666666666667
 40
0.5
 40
0.5
 40
0.5
 40
0.5
 40
0.5833333333333334
 40
0.5833333333333334
 40
0.5833333333333334
 40
0.5833333333333334
 40
0.6666666666666666
 40
0.6666666666666666
 40
0.6666666666666666
 40
0.6666666666666666
 40
0.75
 40
0.75
 40
0.75
 40
0.75
 40
0.8333333333333334
 40
0.8333333333333334
 40
0.8333333333333334
 40
0.8333333333333334
 40
1.0
 40
1.0
 40
1.0
 40
1.0
 10
0.1111
 20
25.2216
 30
0.0
 10
0.1111
 20
25.2216
 30
0.0
 10
0.1111
 20
25.9124
 30
0.0
 10
0.1111
 20
25.9124
 30
0.0
 10
0.1111
 20
25.9124
 30
0.0
 10
0.1111
 20
25.9124
 30
0.0
 10
0.4642
 20
25.9124
 30
0.0
 10
0.4642
 20
25.9124
 30
0.0
 10
0.4642
 20
25.9124
 30
0.0
 10
0.4642
 20
25.9124
 30
0.0
 10
0.4642
 20
26.1763
 30
0.0
 10
0.4642
 20
26.1763
 30
0.0
 10
0.4642
 20
26.1763
 30
0.0
 10
0.4642
 20
26.1763
 30
0.0
 10
0.1111
 20
26.1763
 30
0.0
 10
0.1111
 20
26.1763
 30
0.0
 10
0.1111
 20
26.1763
 30
0.0
 10
0.1111
 20
26.1763
 30
0.0
 10
0.1111
 20
27.7441
 30
0.0
 10
0.1111
 20
27.7441
 30
0.0
 10
0.1111
 20
27.7441
 30
0.0
 10
0.1111
 20
27.7441
 30
0.0
 10
-0.2576
 20
27.7441
 30
0.0
 10
-0.2576
 20
27.7441
 30
0.0
 10
-0.2576
 20
27.7441
 30
0.0
 10
-0.2576
 20
27.7441
 30
0.0
 10
-1.383
 20
26.1336
 30
0.0
 10
-1.383
 20
26.1336
 30
0.0
 10
-1.383
 20
26.1336
 30
0.0
 10
-1.383
 20
26.1336
 30
0.0
 10
-1.383
 20
25.9124
 30
0.0
 10
-1.383
 20
25.9124
 30
0.0
 10
-1.383
 20
25.9124
 30
0.0
 10
-1.383
 20
25.9124
 30
0.0
 10
-0.211
 20
25.9124
 30
0.0
 10
-0.211
 20
25.9124
 30
0.0
 10
-0.211
 20
25.9124
 30
0.0
 10
-0.211
 20
25.9124
 30
0.0
 10
-0.211
 20
25.2216
 30
0.0
 10
-0.211
 20
25.2216
 30
0.0
 10
-0.211
 20
25.2216
 30
0.0
 10
-0.211
 20
25.2216
 30
0.0
 10
0.1111
 20
25.2216
 30
0.0
 10
0.1111
 20
25.2216
 30
0.0
  0
SPLINE
  5
80
330
1F
100
AcDbEntity
  8
DEFAULT_1
 62
   250
100
AcDbSpline
210
0.0
220
0.0
230
1.0
 70
    11
 71
     3
 72
    36
 73
    32
 74
     0
 42
0.0000000001
 43
0.0000000001
 40
0.0
 40
0.0
 40
0.0
 40
0.0
 40
0.1111111111111111
 40
0.1111111111111111
 40
0.1111111111111111
 40
0.1111111111111111
 40
0.2222222222222222
 40
0.2222222222222222
 40
0.2222222222222222
 40
0.2222222222222222
 40
0.3333333333333333
 40
0.3333333333333333
 40
0.3333333333333333
 40
0.3333333333333333
 40
0.4444444444444444
 40
0.4444444444444444
 40
0.4444444444444444
 40
0.4444444444444444
 40
0.5555555555555556
 40
0.5555555555555556
 40
0.5555555555555556
 40
0.5555555555555556
 40
0.6666666666666666
 40
0.6666666666666666
 40
0.6666666666666666
 40
0.6666666666666666
 40
0.7777777777777778
 40
0.7777777777777778
 40
0.7777777777777778
 40
0.7777777777777778
 40
1.0
 40
1.0
 40
1.0
 40
1.0
 10
-1.0376
 20
26.1763
 30
0.0
 10
-1.0376
 20
26.1763
 30
0.0
 10
-1.0376
 20
26.184
 30
0.0
 10
-1.0376
 20
26.184
 30
0.0
 10
-1.0376
 20
26.184
 30
0.0
 10
-1.0376
 20
26.184
 30
0.0
 10
-0.4206
 20
27.0416
 30
0.0
 10
-0.4206
 20
27.0416
 30
0.0
 10
-0.4206
 20
27.0416
 30
0.0
 10
-0.3863
 20
27.0992
 30
0.0
 10
-0.352
 20
27.1574
 30
0.0
 10
-0.3183
 20
27.2163
 30
0.0
 10
-0.3183
 20
27.2163
 30
0.0
 10
-0.2854
 20
27.2758
 30
0.0
 10
-0.2491
 20
27.3418
 30
0.0
 10
-0.211
 20
27.4142
 30
0.0
 10
-0.211
 20
27.4142
 30
0.0
 10
-0.211
 20
27.4142
 30
0.0
 10
-0.1993
 20
27.4142
 30
0.0
 10
-0.1993
 20
27.4142
 30
0.0
 10
-0.1993
 20
27.4142
 30
0.0
 10
-0.2071
 20
27.2822
 30
0.0
 10
-0.211
 20
27.1503
 30
0.0
 10
-0.211
 20
27.0184
 30
0.0
 10
-0.211
 20
27.0184
 30
0.0
 10
-0.211
 20
27.0184
 30
0.0
 10
-0.211
 20
26.1763
 30
0.0
 10
-0.211
 20
26.1763
 30
0.0
 10
-0.211
 20
26.1763
 30
0.0
 10
-0.211
 20
26.1763
 30
0.0
 10
-1.0376
 20
26.1763
 30
0.0
 10
-1.0376
 20
26.1763
 30
0.0
  0
SPLINE
  5
81
330
1F
100
AcDbEntity
  8
DEFAULT_1
 62
   250
100
AcDbSpline
210
0.0
220
0.0
230
1.0
 70
    11
 71
     3
 72
    20
 73
    16
 74
     0
 42
0.0000000001
 43
0.0000000001
 40
0.0
 40
0.0
 40
0.0
 40
0.0
 40
0.2
 40
0.2
 40
0.2
 40
0.2
 40
0.4
 40
0.4
 40
0.4
 40
0.4
 40
0.6
 40
0.6
 40
0.6
 40
0.6
 40
1.0
 40
1.0
 40
1.0
 40
1.0
 10
0.7475
 20
27.907
 30
0.0
 10
0.7475
 20
27.907
 30
0.0
 10
0.8096
 20
26.9757
 30
0.0
 10
0.8096
 20
26.9757
 30
0.0
 10
0.8096
 20
26.9757
 30
0.0
 10
0.8096
 20
26.9757
 30
0.0
 10
1.0192
 20
26.9757
 30
0.0
 10
1.0192
 20
26.9757
 30
0.0
 10
1.0192
 20
26.9757
 30
0.0
 10
1.0192
 20
26.9757
 30
0.0
 10
1.0851
 20
27.907
 30
0.0
 10
1.0851
 20
27.907
 30
0.0
 10
1.0851
 20
27.907
 30
0.0
 10
1.0851
 20
27.907
 30
0.0
 10
0.7475
 20
27.907
 30
0.0
 10
0.7475
 20
27.907
 30
0.0
  0
SPLINE
  5
82
330
1F
100
AcDbEntity
  8
DEFAULT_1
 62
   250
100
AcDbSpline
210
0.0
220
0.0
230
1.0
 70
    11
 71
     3
 72
    20
 73
    16
 74
     0
 42
0.0000000001
 43
0.0000000001
 40
0.0
 40
0.0
 40
0.0
 40
0.0
 40
0.2
 40
0.2
 40
0.2
 40
0.2
 40
0.4
 40
0.4
 40
0.4
 40
0.4
 40
0.6
 40
0.6
 40
0.6
 40
0.6
 40
1.0
 40
1.0
 40
1.0
 40
1.0
 10
1.3257
 20
27.907
 30
0.0
 10
1.3257
 20
27.907
 30
0.0
 10
1.3917
 20
26.9757
 30
0.0
 10
1.3917
 20
26.9757
 30
0.0
 10
1.3917
 20
26.9757
 30
0.0
 10
1.3917
 20
26.9757
 30
0.0
 10
1.5974
 20
26.9757
 30
0.0
 10
1.5974
 20
26.9757
 30
0.0
 10
1.5974
 20
26.9757
 30
0.0
 10
1.5974
 20
26.9757
 30
0.0
 10
1.6633
 20
27.907
 30
0.0
 10
1.6633
 20
27.907
 30
0.0
 10
1.6633
 20
27.907
 30
0.0
 10
1.6633
 20
27.907
 30
0.0
 10
1.3257
 20
27.907
 30
0.0
 10
1.3257
 20
27.907
 30
0.0
  0
SPLINE
  5
83
330
1F
100
AcDbEntity
  8
DEFAULT_1
 62
   250
370
     9
100
AcDbSpline
210
0.0
220
0.0
230
1.0
 70
    11
 71
     3
 72
    32
 73
    28
 74
     0
 42
0.0000000001
 43
0.0000000001
 40
0.0
 40
0.0
 40
0.0
 40
0.0
 40
0.125
 40
0.125
 40
0.125
 40
0.125
 40
0.25
 40
0.25
 40
0.25
 40
0.25
 40
0.375
 40
0.375
 40
0.375
 40
0.375
 40
0.5
 40
0.5
 40
0.5
 40
0.5
 40
0.625
 40
0.625
 40
0.625
 40
0.625
 40
0.75
 40
0.75
 40
0.75
 40
0.75
 40
1.0
 40
1.0
 40
1.0
 40
1.0
 10
8.5931
 20
19.7079
 30
0.0
 10
8.5931
 20
19.7079
 30
0.0
 10
8.5931
 20
19.7079
 30
0.0
 10
8.5931
 20
19.7079
 30
0.0
 10
8.5931
 20
19.7079
 30
0.0
 10
8.5931
 20
19.7079
 30
0.0
 10
8.5931
 20
19.7079
 30
0.0
 10
8.5931
 20
19.7079
 30
0.0
 10
8.5931
 20
19.7079
 30
0.0
 10
8.5931
 20
19.7079
 30
0.0
 10
8.1105
 20
21.0932
 30
0.0
 10
8.1105
 20
21.0932
 30
0.0
 10
8.1105
 20
21.0932
 30
0.0
 10
8.1105
 20
21.0932
 30
0.0
 10
7.6279
 20
19.7079
 30
0.0
 10
7.6279
 20
19.7079
 30
0.0
 10
7.6279
 20
19.7079
 30
0.0
 10
7.6279
 20
19.7079
 30
0.0
 10
7.6279
 20
19.7079
 30
0.0
 10
7.6279
 20
19.7079
 30
0.0
 10
7.6279
 20
19.7079
 30
0.0
 10
7.6279
 20
19.7079
 30
0.0
 10
7.6279
 20
19.7079
 30
0.0
 10
7.6279
 20
19.7079
 30
0.0
 10
7.6279
 20
19.7079
 30
0.0
 10
7.6279
 20
19.7079
 30
0.0
 10
8.5931
 20
19.7079
 30
0.0
 10
8.5931
 20
19.7079
 30
0.0
  0
SPLINE
  5
84
330
1F
100
AcDbEntity
  8
DEFAULT_1
 62
   250
370
     9
100
AcDbSpline
210
0.0
220
0.0
230
1.0
 70
    11
 71
     3
 72
    32
 73
    28
 74
     0
 42
0.0000000001
 43
0.0000000001
 40
0.0
 40
0.0
 40
0.0
 40
0.0
 40
0.125
 40
0.125
 40
0.125
 40
0.125
 40
0.25
 40
0.25
 40
0.25
 40
0.25
 40
0.375
 40
0.375
 40
0.375
 40
0.375
 40
0.5
 40
0.5
 40
0.5
 40
0.5
 40
0.625
 40
0.625
 40
0.625
 40
0.625
 40
0.75
 40
0.75
 40
0.75
 40
0.75
 40
1.0
 40
1.0
 40
1.0
 40
1.0
 10
1.9651
 20
-32.3767
 30
0.0
 10
1.9651
 20
-32.3767
 30
0.0
 10
1.9651
 20
-32.3767
 30
0.0
 10
1.9651
 20
-32.3767
 30
0.0
 10
1.9651
 20
-32.3767
 30
0.0
 10
1.9651
 20
-32.3767
 30
0.0
 10
1.9651
 20
-32.3767
 30
0.0
 10
1.9651
 20
-32.3767
 30
0.0
 10
1.9651
 20
-32.3767
 30
0.0
 10
1.9651
 20
-32.3767
 30
0.0
 10
0.5798
 20
-32.8593
 30
0.0
 10
0.5798
 20
-32.8593
 30
0.0
 10
0.5798
 20
-32.8593
 30
0.0
 10
0.5798
 20
-32.8593
 30
0.0
 10
1.9651
 20
-33.3419
 30
0.0
 10
1.9651
 20
-33.3419
 30
0.0
 10
1.9651
 20
-33.3419
 30
0.0
 10
1.9651
 20
-33.3419
 30
0.0
 10
1.9651
 20
-33.3419
 30
0.0
 10
1.9651
 20
-33.3419
 30
0.0
 10
1.9651
 20
-33.3419
 30
0.0
 10
1.9651
 20
-33.3419
 30
0.0
 10
1.9651
 20
-33.3419
 30
0.0
 10
1.9651
 20
-33.3419
 30
0.0
 10
1.9651
 20
-33.3419
 30
0.0
 10
1.9651
 20
-33.3419
 30
0.0
 10
1.9651
 20
-32.3767
 30
0.0
 10
1.9651
 20
-32.3767
 30
0.0
  0
SPLINE
  5
85
330
1F
100
AcDbEntity
  8
DEFAULT_1
 62
   250
370
     9
100
AcDbSpline
210
0.0
220
0.0
230
1.0
 70
    11
 71
     3
 72
    32
 73
    28
 74
     0
 42
0.0000000001
 43
0.0000000001
 40
0.0
 40
0.0
 40
0.0
 40
0.0
 40
0.125
 40
0.125
 40
0.125
 40
0.125
 40
0.25
 40
0.25
 40
0.25
 40
0.25
 40
0.375
 40
0.375
 40
0.375
 40
0.375
 40
0.5
 40
0.5
 40
0.5
 40
0.5
 40
0.625
 40
0.625
 40
0.625
 40
0.625
 40
0.75
 40
0.75
 40
0.75
 40
0.75
 40
1.0
 40
1.0
 40
1.0
 40
1.0
 10
2.6795
 20
24.9963
 30
0.0
 10
2.6795
 20
24.9963
 30
0.0
 10
2.6795
 20
24.9963
 30
0.0
 10
2.6795
 20
24.9963
 30
0.0
 10
2.6795
 20
24.9963
 30
0.0
 10
2.6795
 20
24.9963
 30
0.0
 10
2.6795
 20
24.9963
 30
0.0
 10
2.6795
 20
24.9963
 30
0.0
 10
2.6795
 20
24.9963
 30
0.0
 10
2.6795
 20
24.9963
 30
0.0
 10
1.2942
 20
24.5137
 30
0.0
 10
1.2942
 20
24.5137
 30
0.0
 10
1.2942
 20
24.5137
 30
0.0
 10
1.2942
 20
24.5137
 30
0.0
 10
2.6795
 20
24.0311
 30
0.0
 10
2.6795
 20
24.0311
 30
0.0
 10
2.6795
 20
24.0311
 30
0.0
 10
2.6795
 20
24.0311
 30
0.0
 10
2.6795
 20
24.0311
 30
0.0
 10
2.6795
 20
24.0311
 30
0.0
 10
2.6795
 20
24.0311
 30
0.0
 10
2.6795
 20
24.0311
 30
0.0
 10
2.6795
 20
24.0311
 30
0.0
 10
2.6795
 20
24.0311
 30
0.0
 10
2.6795
 20
24.0311
 30
0.0
 10
2.6795
 20
24.0311
 30
0.0
 10
2.6795
 20
24.9963
 30
0.0
 10
2.6795
 20
24.9963
 30
0.0
  0
SPLINE
  5
86
330
1F
100
AcDbEntity
  8
DEFAULT_1
 62
   250
370
     9
100
AcDbSpline
210
0.0
220
0.0
230
1.0
 70
    11
 71
     3
 72
    32
 73
    28
 74
     0
 42
0.0000000001
 43
0.0000000001
 40
0.0
 40
0.0
 40
0.0
 40
0.0
 40
0.125
 40
0.125
 40
0.125
 40
0.125
 40
0.25
 40
0.25
 40
0.25
 40
0.25
 40
0.375
 40
0.375
 40
0.375
 40
0.375
 40
0.5
 40
0.5
 40
0.5
 40
0.5
 40
0.625
 40
0.625
 40
0.625
 40
0.625
 40
0.75
 40
0.75
 40
0.75
 40
0.75
 40
1.0
 40
1.0
 40
1.0
 40
1.0
 10
3.4881
 20
30.4975
 30
0.0
 10
3.4881
 20
30.4975
 30
0.0
 10
3.4881
 20
30.4975
 30
0.0
 10
3.4881
 20
30.4975
 30
0.0
 10
3.4881
 20
30.4975
 30
0.0
 10
3.4881
 20
30.4975
 30
0.0
 10
3.4881
 20
30.4975
 30
0.0
 10
3.4881
 20
30.4975
 30
0.0
 10
3.4881
 20
30.4975
 30
0.0
 10
3.4881
 20
30.4975
 30
0.0
 10
2.1028
 20
30.0149
 30
0.0
 10
2.1028
 20
30.0149
 30
0.0
 10
2.1028
 20
30.0149
 30
0.0
 10
2.1028
 20
30.0149
 30
0.0
 10
3.4881
 20
29.5323
 30
0.0
 10
3.4881
 20
29.5323
 30
0.0
 10
3.4881
 20
29.5323
 30
0.0
 10
3.4881
 20
29.5323
 30
0.0
 10
3.4881
 20
29.5323
 30
0.0
 10
3.4881
 20
29.5323
 30
0.0
 10
3.4881
 20
29.5323
 30
0.0
 10
3.4881
 20
29.5323
 30
0.0
 10
3.4881
 20
29.5323
 30
0.0
 10
3.4881
 20
29.5323
 30
0.0
 10
3.4881
 20
29.5323
 30
0.0
 10
3.4881
 20
29.5323
 30
0.0
 10
3.4881
 20
30.4975
 30
0.0
 10
3.4881
 20
30.4975
 30
0.0
  0
SPLINE
  5
87
330
1F
100
AcDbEntity
  8
DEFAULT_1
 62
   250
370
     9
100
AcDbSpline
210
0.0
220
0.0
230
1.0
 70
    11
 71
     3
 72
    32
 73
    28
 74
     0
 42
0.0000000001
 43
0.0000000001
 40
0.0
 40
0.0
 40
0.0
 40
0.0
 40
0.125
 40
0.125
 40
0.125
 40
0.125
 40
0.25
 40
0.25
 40
0.25
 40
0.25
 40
0.375
 40
0.375
 40
0.375
 40
0.375
 40
0.5
 40
0.5
 40
0.5
 40
0.5
 40
0.625
 40
0.625
 40
0.625
 40
0.625
 40
0.75
 40
0.75
 40
0.75
 40
0.75
 40
1.0
 40
1.0
 40
1.0
 40
1.0
 10
8.5993
 20
-26.7223
 30
0.0
 10
8.5993
 20
-26.7223
 30
0.0
 10
8.5993
 20
-26.7223
 30
0.0
 10
8.5993
 20
-26.7223
 30
0.0
 10
8.5993
 20
-26.7223
 30
0.0
 10
8.5993
 20
-26.7223
 30
0.0
 10
8.5993
 20
-26.7223
 30
0.0
 10
8.5993
 20
-26.7223
 30
0.0
 10
8.5993
 20
-26.7223
 30
0.0
 10
8.5993
 20
-26.7223
 30
0.0
 10
8.1167
 20
-28.1076
 30
0.0
 10
8.1167
 20
-28.1076
 30
0.0
 10
8.1167
 20
-28.1076
 30
0.0
 10
8.1167
 20
-28.1076
 30
0.0
 10
7.6341
 20
-26.7223
 30
0.0
 10
7.6341
 20
-26.7223
 30
0.0
 10
7.6341
 20
-26.7223
 30
0.0
 10
7.6341
 20
-26.7223
 30
0.0
 10
7.6341
 20
-26.7223
 30
0.0
 10
7.6341
 20
-26.7223
 30
0.0
 10
7.6341
 20
-26.7223
 30
0.0
 10
7.6341
 20
-26.7223
 30
0.0
 10
7.6341
 20
-26.7223
 30
0.0
 10
7.6341
 20
-26.7223
 30
0.0
 10
7.6341
 20
-26.7223
 30
0.0
 10
7.6341
 20
-26.7223
 30
0.0
 10
8.5993
 20
-26.7223
 30
0.0
 10
8.5993
 20
-26.7223
 30
0.0
  0
SPLINE
  5
88
330
1F
100
AcDbEntity
  8
DEFAULT_1
 62
   250
370
     9
100
AcDbSpline
210
0.0
220
0.0
230
1.0
 70
    11
 71
     3
 72
    32
 73
    28
 74
     0
 42
0.0000000001
 43
0.0000000001
 40
0.0
 40
0.0
 40
0.0
 40
0.0
 40
0.125
 40
0.125
 40
0.125
 40
0.125
 40
0.25
 40
0.25
 40
0.25
 40
0.25
 40
0.375
 40
0.375
 40
0.375
 40
0.375
 40
0.5
 40
0.5
 40
0.5
 40
0.5
 40
0.625
 40
0.625
 40
0.625
 40
0.625
 40
0.75
 40
0.75
 40
0.75
 40
0.75
 40
1.0
 40
1.0
 40
1.0
 40
1.0
 10
-8.1793
 20
-32.4065
 30
0.0
 10
-8.1793
 20
-32.4065
 30
0.0
 10
-8.1793
 20
-32.4065
 30
0.0
 10
-8.1793
 20
-32.4065
 30
0.0
 10
-8.1793
 20
-32.4065
 30
0.0
 10
-8.1793
 20
-32.4065
 30
0.0
 10
-8.1793
 20
-32.4065
 30
0.0
 10
-8.1793
 20
-32.4065
 30
0.0
 10
-8.1793
 20
-32.4065
 30
0.0
 10
-8.1793
 20
-32.4065
 30
0.0
 10
-6.794
 20
-32.8891
 30
0.0
 10
-6.794
 20
-32.8891
 30
0.0
 10
-6.794
 20
-32.8891
 30
0.0
 10
-6.794
 20
-32.8891
 30
0.0
 10
-8.1793
 20
-33.3717
 30
0.0
 10
-8.1793
 20
-33.3717
 30
0.0
 10
-8.1793
 20
-33.3717
 30
0.0
 10
-8.1793
 20
-33.3717
 30
0.0
 10
-8.1793
 20
-33.3717
 30
0.0
 10
-8.1793
 20
-33.3717
 30
0.0
 10
-8.1793
 20
-33.3717
 30
0.0
 10
-8.1793
 20
-33.3717
 30
0.0
 10
-8.1793
 20
-33.3717
 30
0.0
 10
-8.1793
 20
-33.3717
 30
0.0
 10
-8.1793
 20
-33.3717
 30
0.0
 10
-8.1793
 20
-33.3717
 30
0.0
 10
-8.1793
 20
-32.4065
 30
0.0
 10
-8.1793
 20
-32.4065
 30
0.0
  0
SPLINE
  5
89
330
1F
100
AcDbEntity
  8
DEFAULT_1
 62
   250
370
     9
100
AcDbSpline
210
0.0
220
0.0
230
1.0
 70
    11
 71
     3
 72
    32
 73
    28
 74
     0
 42
0.0000000001
 43
0.0000000001
 40
0.0
 40
0.0
 40
0.0
 40
0.0
 40
0.125
 40
0.125
 40
0.125
 40
0.125
 40
0.25
 40
0.25
 40
0.25
 40
0.25
 40
0.375
 40
0.375
 40
0.375
 40
0.375
 40
0.5
 40
0.5
 40
0.5
 40
0.5
 40
0.625
 40
0.625
 40
0.625
 40
0.625
 40
0.75
 40
0.75
 40
0.75
 40
0.75
 40
1.0
 40
1.0
 40
1.0
 40
1.0
 10
-8.9527
 20
25.0625
 30
0.0
 10
-8.9527
 20
25.0625
 30
0.0
 10
-8.9527
 20
25.0625
 30
0.0
 10
-8.9527
 20
25.0625
 30
0.0
 10
-8.9527
 20
25.0625
 30
0.0
 10
-8.9527
 20
25.0625
 30
0.0
 10
-8.9527
 20
25.0625
 30
0.0
 10
-8.9527
 20
25.0625
 30
0.0
 10
-8.9527
 20
25.0625
 30
0.0
 10
-8.9527
 20
25.0625
 30
0.0
 10
-7.5674
 20
24.5799
 30
0.0
 10
-7.5674
 20
24.5799
 30
0.0
 10
-7.5674
 20
24.5799
 30
0.0
 10
-7.5674
 20
24.5799
 30
0.0
 10
-8.9527
 20
24.0973
 30
0.0
 10
-8.9527
 20
24.0973
 30
0.0
 10
-8.9527
 20
24.0973
 30
0.0
 10
-8.9527
 20
24.0973
 30
0.0
 10
-8.9527
 20
24.0973
 30
0.0
 10
-8.9527
 20
24.0973
 30
0.0
 10
-8.9527
 20
24.0973
 30
0.0
 10
-8.9527
 20
24.0973
 30
0.0
 10
-8.9527
 20
24.0973
 30
0.0
 10
-8.9527
 20
24.0973
 30
0.0
 10
-8.9527
 20
24.0973
 30
0.0
 10
-8.9527
 20
24.0973
 30
0.0
 10
-8.9527
 20
25.0625
 30
0.0
 10
-8.9527
 20
25.0625
 30
0.0
  0
SPLINE
  5
8A
330
1F
100
AcDbEntity
  8
DEFAULT_1
 62
   250
370
     9
100
AcDbSpline
210
0.0
220
0.0
230
1.0
 70
    11
 71
     3
 72
    32
 73
    28
 74
     0
 42
0.0000000001
 43
0.0000000001
 40
0.0
 40
0.0
 40
0.0
 40
0.0
 40
0.125
 40
0.125
 40
0.125
 40
0.125
 40
0.25
 40
0.25
 40
0.25
 40
0.25
 40
0.375
 40
0.375
 40
0.375
 40
0.375
 40
0.5
 40
0.5
 40
0.5
 40
0.5
 40
0.625
 40
0.625
 40
0.625
 40
0.625
 40
0.75
 40
0.75
 40
0.75
 40
0.75
 40
1.0
 40
1.0
 40
1.0
 40
1.0
 10
-9.7377
 20
30.5304
 30
0.0
 10
-9.7377
 20
30.5304
 30
0.0
 10
-9.7377
 20
30.5304
 30
0.0
 10
-9.7377
 20
30.5304
 30
0.0
 10
-9.7377
 20
30.5304
 30
0.0
 10
-9.7377
 20
30.5304
 30
0.0
 10
-9.7377
 20
30.5304
 30
0.0
 10
-9.7377
 20
30.5304
 30
0.0
 10
-9.7377
 20
30.5304
 30
0.0
 10
-9.7377
 20
30.5304
 30
0.0
 10
-8.3524
 20
30.0478
 30
0.0
 10
-8.3524
 20
30.0478
 30
0.0
 10
-8.3524
 20
30.0478
 30
0.0
 10
-8.3524
 20
30.0478
 30
0.0
 10
-9.7377
 20
29.5652
 30
0.0
 10
-9.7377
 20
29.5652
 30
0.0
 10
-9.7377
 20
29.5652
 30
0.0
 10
-9.7377
 20
29.5652
 30
0.0
 10
-9.7377
 20
29.5652
 30
0.0
 10
-9.7377
 20
29.5652
 30
0.0
 10
-9.7377
 20
29.5652
 30
0.0
 10
-9.7377
 20
29.5652
 30
0.0
 10
-9.7377
 20
29.5652
 30
0.0
 10
-9.7377
 20
29.5652
 30
0.0
 10
-9.7377
 20
29.5652
 30
0.0
 10
-9.7377
 20
29.5652
 30
0.0
 10
-9.7377
 20
30.5304
 30
0.0
 10
-9.7377
 20
30.5304
 30
0.0
  0
SPLINE
  5
8B
330
1F
100
AcDbEntity
  8
DEFAULT_1
 62
   250
100
AcDbSpline
210
0.0
220
0.0
230
1.0
 70
    11
 71
     3
 72
    68
 73
    64
 74
     0
 42
0.0000000001
 43
0.0000000001
 40
0.0
 40
0.0
 40
0.0
 40
0.0
 40
0.0588235294117647
 40
0.0588235294117647
 40
0.0588235294117647
 40
0.0588235294117647
 40
0.1176470588235294
 40
0.1176470588235294
 40
0.1176470588235294
 40
0.1176470588235294
 40
0.1764705882352941
 40
0.1764705882352941
 40
0.1764705882352941
 40
0.1764705882352941
 40
0.2352941176470588
 40
0.2352941176470588
 40
0.2352941176470588
 40
0.2352941176470588
 40
0.2941176470588235
 40
0.2941176470588235
 40
0.2941176470588235
 40
0.2941176470588235
 40
0.3529411764705883
 40
0.3529411764705883
 40
0.3529411764705883
 40
0.3529411764705883
 40
0.4117647058823529
 40
0.4117647058823529
 40
0.4117647058823529
 40
0.4117647058823529
 40
0.4705882352941176
 40
0.4705882352941176
 40
0.4705882352941176
 40
0.4705882352941176
 40
0.5294117647058824
 40
0.5294117647058824
 40
0.5294117647058824
 40
0.5294117647058824
 40
0.5882352941176471
 40
0.5882352941176471
 40
0.5882352941176471
 40
0.5882352941176471
 40
0.6470588235294118
 40
0.6470588235294118
 40
0.6470588235294118
 40
0.6470588235294118
 40
0.7058823529411765
 40
0.7058823529411765
 40
0.7058823529411765
 40
0.7058823529411765
 40
0.7647058823529411
 40
0.7647058823529411
 40
0.7647058823529411
 40
0.7647058823529411
 40
0.8235294117647058
 40
0.8235294117647058
 40
0.8235294117647058
 40
0.8235294117647058
 40
0.8823529411764706
 40
0.8823529411764706
 40
0.8823529411764706
 40
0.8823529411764706
 40
1.0
 40
1.0
 40
1.0
 40
1.0
 10
-6.8863
 20
33.495
 30
0.0
 10
-6.9484
 20
33.4135
 30
0.0
 10
-7.0086
 20
33.321
 30
0.0
 10
-7.068
 20
33.2163
 30
0.0
 10
-7.068
 20
33.2163
 30
0.0
 10
-7.1276
 20
33.1122
 30
0.0
 10
-7.1818
 20
32.9945
 30
0.0
 10
-7.2304
 20
32.8644
 30
0.0
 10
-7.2304
 20
32.8644
 30
0.0
 10
-7.2795
 20
32.7345
 30
0.0
 10
-7.3184
 20
32.5896
 30
0.0
 10
-7.3481
 20
32.4311
 30
0.0
 10
-7.3481
 20
32.4311
 30
0.0
 10
-7.3772
 20
32.272
 30
0.0
 10
-7.3927
 20
32.098
 30
0.0
 10
-7.3947
 20
31.9079
 30
0.0
 10
-7.3947
 20
31.9079
 30
0.0
 10
-7.3941
 20
31.719
 30
0.0
 10
-7.3791
 20
31.5457
 30
0.0
 10
-7.3494
 20
31.3878
 30
0.0
 10
-7.3494
 20
31.3878
 30
0.0
 10
-7.3203
 20
31.2301
 30
0.0
 10
-7.2808
 20
31.0864
 30
0.0
 10
-7.2324
 20
30.9571
 30
0.0
 10
-7.2324
 20
30.9571
 30
0.0
 10
-7.1832
 20
30.8278
 30
0.0
 10
-7.1289
 20
30.7113
 30
0.0
 10
-7.0687
 20
30.6078
 30
0.0
 10
-7.0687
 20
30.6078
 30
0.0
 10
-7.0092
 20
30.5044
 30
0.0
 10
-6.9484
 20
30.4126
 30
0.0
 10
-6.8863
 20
30.3323
 30
0.0
 10
-6.8863
 20
30.3323
 30
0.0
 10
-6.8863
 20
30.3323
 30
0.0
 10
-6.6224
 20
30.3323
 30
0.0
 10
-6.6224
 20
30.3323
 30
0.0
 10
-6.6224
 20
30.3323
 30
0.0
 10
-6.7143
 20
30.4611
 30
0.0
 10
-6.7964
 20
30.6034
 30
0.0
 10
-6.8689
 20
30.7586
 30
0.0
 10
-6.8689
 20
30.7586
 30
0.0
 10
-6.9419
 20
30.9144
 30
0.0
 10
-6.9994
 20
31.0864
 30
0.0
 10
-7.0422
 20
31.2759
 30
0.0
 10
-7.0422
 20
31.2759
 30
0.0
 10
-7.0849
 20
31.4648
 30
0.0
 10
-7.1069
 20
31.6744
 30
0.0
 10
-7.1075
 20
31.904
 30
0.0
 10
-7.1075
 20
31.904
 30
0.0
 10
-7.1069
 20
32.1388
 30
0.0
 10
-7.0862
 20
32.3529
 30
0.0
 10
-7.0448
 20
32.545
 30
0.0
 10
-7.0448
 20
32.545
 30
0.0
 10
-7.0034
 20
32.7377
 30
0.0
 10
-6.9465
 20
32.9123
 30
0.0
 10
-6.874
 20
33.0688
 30
0.0
 10
-6.874
 20
33.0688
 30
0.0
 10
-6.8015
 20
33.2254
 30
0.0
 10
-6.7175
 20
33.3676
 30
0.0
 10
-6.6224
 20
33.495
 30
0.0
 10
-6.6224
 20
33.495
 30
0.0
 10
-6.6224
 20
33.495
 30
0.0
 10
-6.8863
 20
33.495
 30
0.0
 10
-6.8863
 20
33.495
 30
0.0
  0
SPLINE
  5
8C
330
1F
100
AcDbEntity
  8
DEFAULT_1
 62
   250
100
AcDbSpline
210
0.0
220
0.0
230
1.0
 70
    11
 71
     3
 72
   104
 73
   100
 74
     0
 42
0.0000000001
 43
0.0000000001
 40
0.0
 40
0.0
 40
0.0
 40
0.0
 40
0.0384615384615385
 40
0.0384615384615385
 40
0.0384615384615385
 40
0.0384615384615385
 40
0.0769230769230769
 40
0.0769230769230769
 40
0.0769230769230769
 40
0.0769230769230769
 40
0.1153846153846154
 40
0.1153846153846154
 40
0.1153846153846154
 40
0.1153846153846154
 40
0.1538461538461539
 40
0.1538461538461539
 40
0.1538461538461539
 40
0.1538461538461539
 40
0.1923076923076923
 40
0.1923076923076923
 40
0.1923076923076923
 40
0.1923076923076923
 40
0.2307692307692308
 40
0.2307692307692308
 40
0.2307692307692308
 40
0.2307692307692308
 40
0.2692307692307692
 40
0.2692307692307692
 40
0.2692307692307692
 40
0.2692307692307692
 40
0.3076923076923077
 40
0.3076923076923077
 40
0.3076923076923077
 40
0.3076923076923077
 40
0.3461538461538461
 40
0.3461538461538461
 40
0.3461538461538461
 40
0.3461538461538461
 40
0.3846153846153846
 40
0.3846153846153846
 40
0.3846153846153846
 40
0.3846153846153846
 40
0.4230769230769231
 40
0.4230769230769231
 40
0.4230769230769231
 40
0.4230769230769231
 40
0.4615384615384616
 40
0.4615384615384616
 40
0.4615384615384616
 40
0.4615384615384616
 40
0.5
 40
0.5
 40
0.5
 40
0.5
 40
0.5384615384615384
 40
0.5384615384615384
 40
0.5384615384615384
 40
0.5384615384615384
 40
0.5769230769230769
 40
0.5769230769230769
 40
0.5769230769230769
 40
0.5769230769230769
 40
0.6153846153846154
 40
0.6153846153846154
 40
0.6153846153846154
 40
0.6153846153846154
 40
0.6538461538461539
 40
0.6538461538461539
 40
0.6538461538461539
 40
0.6538461538461539
 40
0.6923076923076923
 40
0.6923076923076923
 40
0.6923076923076923
 40
0.6923076923076923
 40
0.7307692307692307
 40
0.7307692307692307
 40
0.7307692307692307
 40
0.7307692307692307
 40
0.7692307692307693
 40
0.7692307692307693
 40
0.7692307692307693
 40
0.7692307692307693
 40
0.8076923076923077
 40
0.8076923076923077
 40
0.8076923076923077
 40
0.8076923076923077
 40
0.8461538461538461
 40
0.8461538461538461
 40
0.8461538461538461
 40
0.8461538461538461
 40
0.8846153846153846
 40
0.8846153846153846
 40
0.8846153846153846
 40
0.8846153846153846
 40
0.9230769230769231
 40
0.9230769230769231
 40
0.9230769230769231
 40
0.9230769230769231
 40
1.0
 40
1.0
 40
1.0
 40
1.0
 10
-6.1063
 20
30.635
 30
0.0
 10
-6.1063
 20
30.635
 30
0.0
 10
-5.8618
 20
30.9688
 30
0.0
 10
-5.8618
 20
30.9688
 30
0.0
 10
-5.8618
 20
30.9688
 30
0.0
 10
-5.768
 20
30.9009
 30
0.0
 10
-5.6651
 20
30.8485
 30
0.0
 10
-5.554
 20
30.8129
 30
0.0
 10
-5.554
 20
30.8129
 30
0.0
 10
-5.4421
 20
30.7774
 30
0.0
 10
-5.325
 20
30.7592
 30
0.0
 10
-5.2021
 20
30.7592
 30
0.0
 10
-5.2021
 20
30.7592
 30
0.0
 10
-5.076
 20
30.7592
 30
0.0
 10
-4.9537
 20
30.778
 30
0.0
 10
-4.8367
 20
30.8149
 30
0.0
 10
-4.8367
 20
30.8149
 30
0.0
 10
-4.7196
 20
30.8517
 30
0.0
 10
-4.6109
 20
30.9067
 30
0.0
 10
-4.5113
 20
30.9804
 30
0.0
 10
-4.5113
 20
30.9804
 30
0.0
 10
-4.4111
 20
31.0535
 30
0.0
 10
-4.3238
 20
31.1454
 30
0.0
 10
-4.2488
 20
31.2552
 30
0.0
 10
-4.2488
 20
31.2552
 30
0.0
 10
-4.1743
 20
31.3652
 30
0.0
 10
-4.1162
 20
31.4933
 30
0.0
 10
-4.0741
 20
31.6401
 30
0.0
 10
-4.0741
 20
31.6401
 30
0.0
 10
-4.0327
 20
31.7863
 30
0.0
 10
-4.0114
 20
31.9505
 30
0.0
 10
-4.0107
 20
32.1329
 30
0.0
 10
-4.0107
 20
32.1329
 30
0.0
 10
-4.0107
 20
32.2617
 30
0.0
 10
-4.0237
 20
32.3839
 30
0.0
 10
-4.0502
 20
32.5004
 30
0.0
 10
-4.0502
 20
32.5004
 30
0.0
 10
-4.076
 20
32.6174
 30
0.0
 10
-4.1142
 20
32.7261
 30
0.0
 10
-4.164
 20
32.8263
 30
0.0
 10
-4.164
 20
32.8263
 30
0.0
 10
-4.2145
 20
32.9265
 30
0.0
 10
-4.2759
 20
33.0158
 30
0.0
 10
-4.3483
 20
33.0953
 30
0.0
 10
-4.3483
 20
33.0953
 30
0.0
 10
-4.3483
 20
33.0953
 30
0.0
 10
-4.1078
 20
33.4291
 30
0.0
 10
-4.1078
 20
33.4291
 30
0.0
 10
-4.1078
 20
33.4291
 30
0.0
 10
-4.1078
 20
33.4291
 30
0.0
 10
-4.3134
 20
33.5688
 30
0.0
 10
-4.3134
 20
33.5688
 30
0.0
 10
-4.3134
 20
33.5688
 30
0.0
 10
-4.3134
 20
33.5688
 30
0.0
 10
-4.5424
 20
33.2545
 30
0.0
 10
-4.5424
 20
33.2545
 30
0.0
 10
-4.5424
 20
33.2545
 30
0.0
 10
-4.6362
 20
33.3243
 30
0.0
 10
-4.7378
 20
33.3767
 30
0.0
 10
-4.8476
 20
33.4116
 30
0.0
 10
-4.8476
 20
33.4116
 30
0.0
 10
-4.9583
 20
33.4465
 30
0.0
 10
-5.0734
 20
33.464
 30
0.0
 10
-5.1943
 20
33.464
 30
0.0
 10
-5.1943
 20
33.464
 30
0.0
 10
-5.367
 20
33.4634
 30
0.0
 10
-5.5262
 20
33.431
 30
0.0
 10
-5.673
 20
33.367
 30
0.0
 10
-5.673
 20
33.367
 30
0.0
 10
-5.8191
 20
33.303
 30
0.0
 10
-5.9465
 20
33.2105
 30
0.0
 10
-6.0552
 20
33.0909
 30
0.0
 10
-6.0552
 20
33.0909
 30
0.0
 10
-6.1644
 20
32.9712
 30
0.0
 10
-6.2485
 20
32.8276
 30
0.0
 10
-6.3094
 20
32.66
 30
0.0
 10
-6.3094
 20
32.66
 30
0.0
 10
-6.3695
 20
32.4925
 30
0.0
 10
-6.4006
 20
32.3057
 30
0.0
 10
-6.4012
 20
32.098
 30
0.0
 10
-6.4012
 20
32.098
 30
0.0
 10
-6.4012
 20
31.9674
 30
0.0
 10
-6.387
 20
31.8426
 30
0.0
 10
-6.3598
 20
31.7248
 30
0.0
 10
-6.3598
 20
31.7248
 30
0.0
 10
-6.3326
 20
31.6072
 30
0.0
 10
-6.2932
 20
31.4978
 30
0.0
 10
-6.2421
 20
31.3976
 30
0.0
 10
-6.2421
 20
31.3976
 30
0.0
 10
-6.1903
 20
31.2973
 30
0.0
 10
-6.1282
 20
31.2075
 30
0.0
 10
-6.0558
 20
31.1278
 30
0.0
 10
-6.0558
 20
31.1278
 30
0.0
 10
-6.0558
 20
31.1278
 30
0.0
 10
-6.2964
 20
30.7902
 30
0.0
 10
-6.2964
 20
30.7902
 30
0.0
 10
-6.2964
 20
30.7902
 30
0.0
 10
-6.2964
 20
30.7902
 30
0.0
 10
-6.1063
 20
30.635
 30
0.0
 10
-6.1063
 20
30.635
 30
0.0
  0
SPLINE
  5
8D
330
1F
100
AcDbEntity
  8
DEFAULT_1
 62
   250
100
AcDbSpline
210
0.0
220
0.0
230
1.0
 70
    11
 71
     3
 72
    52
 73
    48
 74
     0
 42
0.0000000001
 43
0.0000000001
 40
0.0
 40
0.0
 40
0.0
 40
0.0
 40
0.0769230769230769
 40
0.0769230769230769
 40
0.0769230769230769
 40
0.0769230769230769
 40
0.1538461538461539
 40
0.1538461538461539
 40
0.1538461538461539
 40
0.1538461538461539
 40
0.2307692307692308
 40
0.2307692307692308
 40
0.2307692307692308
 40
0.2307692307692308
 40
0.3076923076923077
 40
0.3076923076923077
 40
0.3076923076923077
 40
0.3076923076923077
 40
0.3846153846153846
 40
0.3846153846153846
 40
0.3846153846153846
 40
0.3846153846153846
 40
0.4615384615384616
 40
0.4615384615384616
 40
0.4615384615384616
 40
0.4615384615384616
 40
0.5384615384615384
 40
0.5384615384615384
 40
0.5384615384615384
 40
0.5384615384615384
 40
0.6153846153846154
 40
0.6153846153846154
 40
0.6153846153846154
 40
0.6153846153846154
 40
0.6923076923076923
 40
0.6923076923076923
 40
0.6923076923076923
 40
0.6923076923076923
 40
0.7692307692307693
 40
0.7692307692307693
 40
0.7692307692307693
 40
0.7692307692307693
 40
0.8461538461538461
 40
0.8461538461538461
 40
0.8461538461538461
 40
0.8461538461538461
 40
1.0
 40
1.0
 40
1.0
 40
1.0
 10
-5.8579
 20
31.415
 30
0.0
 10
-5.8579
 20
31.415
 30
0.0
 10
-5.8657
 20
31.4112
 30
0.0
 10
-5.8657
 20
31.4112
 30
0.0
 10
-5.8657
 20
31.4112
 30
0.0
 10
-5.9044
 20
31.4778
 30
0.0
 10
-5.9381
 20
31.547
 30
0.0
 10
-5.9665
 20
31.6181
 30
0.0
 10
-5.9665
 20
31.6181
 30
0.0
 10
-5.995
 20
31.6899
 30
0.0
 10
-6.017
 20
31.7656
 30
0.0
 10
-6.0326
 20
31.8471
 30
0.0
 10
-6.0326
 20
31.8471
 30
0.0
 10
-6.0481
 20
31.9279
 30
0.0
 10
-6.0558
 20
32.0172
 30
0.0
 10
-6.0558
 20
32.1136
 30
0.0
 10
-6.0558
 20
32.1136
 30
0.0
 10
-6.0558
 20
32.2248
 30
0.0
 10
-6.0442
 20
32.3322
 30
0.0
 10
-6.0215
 20
32.4376
 30
0.0
 10
-6.0215
 20
32.4376
 30
0.0
 10
-5.9983
 20
32.5424
 30
0.0
 10
-5.964
 20
32.6407
 30
0.0
 10
-5.9187
 20
32.7312
 30
0.0
 10
-5.9187
 20
32.7312
 30
0.0
 10
-5.8728
 20
32.8224
 30
0.0
 10
-5.8159
 20
32.9026
 30
0.0
 10
-5.7473
 20
32.9712
 30
0.0
 10
-5.7473
 20
32.9712
 30
0.0
 10
-5.6787
 20
33.0403
 30
0.0
 10
-5.5992
 20
33.0941
 30
0.0
 10
-5.5086
 20
33.1329
 30
0.0
 10
-5.5086
 20
33.1329
 30
0.0
 10
-5.4174
 20
33.1723
 30
0.0
 10
-5.3153
 20
33.1917
 30
0.0
 10
-5.2021
 20
33.1924
 30
0.0
 10
-5.2021
 20
33.1924
 30
0.0
 10
-5.1031
 20
33.1917
 30
0.0
 10
-5.0126
 20
33.1756
 30
0.0
 10
-4.9311
 20
33.1432
 30
0.0
 10
-4.9311
 20
33.1432
 30
0.0
 10
-4.8489
 20
33.1116
 30
0.0
 10
-4.7752
 20
33.0669
 30
0.0
 10
-4.7092
 20
33.01
 30
0.0
 10
-4.7092
 20
33.01
 30
0.0
 10
-4.7092
 20
33.01
 30
0.0
 10
-5.8579
 20
31.415
 30
0.0
 10
-5.8579
 20
31.415
 30
0.0
  0
SPLINE
  5
8E
330
1F
100
AcDbEntity
  8
DEFAULT_1
 62
   250
100
AcDbSpline
210
0.0
220
0.0
230
1.0
 70
    11
 71
     3
 72
    48
 73
    44
 74
     0
 42
0.0000000001
 43
0.0000000001
 40
0.0
 40
0.0
 40
0.0
 40
0.0
 40
0.0833333333333333
 40
0.0833333333333333
 40
0.0833333333333333
 40
0.0833333333333333
 40
0.1666666666666667
 40
0.1666666666666667
 40
0.1666666666666667
 40
0.1666666666666667
 40
0.25
 40
0.25
 40
0.25
 40
0.25
 40
0.3333333333333333
 40
0.3333333333333333
 40
0.3333333333333333
 40
0.3333333333333333
 40
0.4166666666666667
 40
0.4166666666666667
 40
0.4166666666666667
 40
0.4166666666666667
 40
0.5
 40
0.5
 40
0.5
 40
0.5
 40
0.5833333333333334
 40
0.5833333333333334
 40
0.5833333333333334
 40
0.5833333333333334
 40
0.6666666666666666
 40
0.6666666666666666
 40
0.6666666666666666
 40
0.6666666666666666
 40
0.75
 40
0.75
 40
0.75
 40
0.75
 40
0.8333333333333334
 40
0.8333333333333334
 40
0.8333333333333334
 40
0.8333333333333334
 40
1.0
 40
1.0
 40
1.0
 40
1.0
 10
-4.5502
 20
32.8043
 30
0.0
 10
-4.5502
 20
32.8043
 30
0.0
 10
-4.5385
 20
32.8043
 30
0.0
 10
-4.5385
 20
32.8043
 30
0.0
 10
-4.5385
 20
32.8043
 30
0.0
 10
-4.4713
 20
32.6918
 30
0.0
 10
-4.424
 20
32.578
 30
0.0
 10
-4.3962
 20
32.4628
 30
0.0
 10
-4.3962
 20
32.4628
 30
0.0
 10
-4.3684
 20
32.3483
 30
0.0
 10
-4.3548
 20
32.2345
 30
0.0
 10
-4.3561
 20
32.1213
 30
0.0
 10
-4.3561
 20
32.1213
 30
0.0
 10
-4.3561
 20
32.0036
 30
0.0
 10
-4.3684
 20
31.8911
 30
0.0
 10
-4.3923
 20
31.7831
 30
0.0
 10
-4.3923
 20
31.7831
 30
0.0
 10
-4.4163
 20
31.675
 30
0.0
 10
-4.4519
 20
31.5754
 30
0.0
 10
-4.4984
 20
31.4842
 30
0.0
 10
-4.4984
 20
31.4842
 30
0.0
 10
-4.5456
 20
31.393
 30
0.0
 10
-4.6031
 20
31.3135
 30
0.0
 10
-4.6717
 20
31.2462
 30
0.0
 10
-4.6717
 20
31.2462
 30
0.0
 10
-4.7409
 20
31.1784
 30
0.0
 10
-4.8198
 20
31.1253
 30
0.0
 10
-4.9091
 20
31.0878
 30
0.0
 10
-4.9091
 20
31.0878
 30
0.0
 10
-4.9984
 20
31.0502
 30
0.0
 10
-5.0973
 20
31.0315
 30
0.0
 10
-5.206
 20
31.0309
 30
0.0
 10
-5.206
 20
31.0309
 30
0.0
 10
-5.3114
 20
31.0309
 30
0.0
 10
-5.4039
 20
31.047
 30
0.0
 10
-5.4821
 20
31.0787
 30
0.0
 10
-5.4821
 20
31.0787
 30
0.0
 10
-5.5611
 20
31.1104
 30
0.0
 10
-5.6316
 20
31.157
 30
0.0
 10
-5.695
 20
31.2171
 30
0.0
 10
-5.695
 20
31.2171
 30
0.0
 10
-5.695
 20
31.2171
 30
0.0
 10
-4.5502
 20
32.8043
 30
0.0
 10
-4.5502
 20
32.8043
 30
0.0
  0
SPLINE
  5
8F
330
1F
100
AcDbEntity
  8
DEFAULT_1
 62
   250
100
AcDbSpline
210
0.0
220
0.0
230
1.0
 70
    11
 71
     3
 72
   132
 73
   128
 74
     0
 42
0.0000000001
 43
0.0000000001
 40
0.0
 40
0.0
 40
0.0
 40
0.0
 40
0.0303030303030303
 40
0.0303030303030303
 40
0.0303030303030303
 40
0.0303030303030303
 40
0.0606060606060606
 40
0.0606060606060606
 40
0.0606060606060606
 40
0.0606060606060606
 40
0.0909090909090909
 40
0.0909090909090909
 40
0.0909090909090909
 40
0.0909090909090909
 40
0.1212121212121212
 40
0.1212121212121212
 40
0.1212121212121212
 40
0.1212121212121212
 40
0.1515151515151515
 40
0.1515151515151515
 40
0.1515151515151515
 40
0.1515151515151515
 40
0.1818181818181818
 40
0.1818181818181818
 40
0.1818181818181818
 40
0.1818181818181818
 40
0.2121212121212121
 40
0.2121212121212121
 40
0.2121212121212121
 40
0.2121212121212121
 40
0.2424242424242424
 40
0.2424242424242424
 40
0.2424242424242424
 40
0.2424242424242424
 40
0.2727272727272727
 40
0.2727272727272727
 40
0.2727272727272727
 40
0.2727272727272727
 40
0.303030303030303
 40
0.303030303030303
 40
0.303030303030303
 40
0.303030303030303
 40
0.3333333333333333
 40
0.3333333333333333
 40
0.3333333333333333
 40
0.3333333333333333
 40
0.3636363636363636
 40
0.3636363636363636
 40
0.3636363636363636
 40
0.3636363636363636
 40
0.3939393939393939
 40
0.3939393939393939
 40
0.3939393939393939
 40
0.3939393939393939
 40
0.4242424242424243
 40
0.4242424242424243
 40
0.4242424242424243
 40
0.4242424242424243
 40
0.4545454545454545
 40
0.4545454545454545
 40
0.4545454545454545
 40
0.4545454545454545
 40
0.4848484848484849
 40
0.4848484848484849
 40
0.4848484848484849
 40
0.4848484848484849
 40
0.5151515151515151
 40
0.5151515151515151
 40
0.5151515151515151
 40
0.5151515151515151
 40
0.5454545454545454
 40
0.5454545454545454
 40
0.5454545454545454
 40
0.5454545454545454
 40
0.5757575757575758
 40
0.5757575757575758
 40
0.5757575757575758
 40
0.5757575757575758
 40
0.6060606060606061
 40
0.6060606060606061
 40
0.6060606060606061
 40
0.6060606060606061
 40
0.6363636363636364
 40
0.6363636363636364
 40
0.6363636363636364
 40
0.6363636363636364
 40
0.6666666666666666
 40
0.6666666666666666
 40
0.6666666666666666
 40
0.6666666666666666
 40
0.696969696969697
 40
0.696969696969697
 40
0.696969696969697
 40
0.696969696969697
 40
0.7272727272727273
 40
0.7272727272727273
 40
0.7272727272727273
 40
0.7272727272727273
 40
0.7575757575757576
 40
0.7575757575757576
 40
0.7575757575757576
 40
0.7575757575757576
 40
0.7878787878787878
 40
0.7878787878787878
 40
0.7878787878787878
 40
0.7878787878787878
 40
0.8181818181818182
 40
0.8181818181818182
 40
0.8181818181818182
 40
0.8181818181818182
 40
0.8484848484848485
 40
0.8484848484848485
 40
0.8484848484848485
 40
0.8484848484848485
 40
0.8787878787878788
 40
0.8787878787878788
 40
0.8787878787878788
 40
0.8787878787878788
 40
0.9090909090909091
 40
0.9090909090909091
 40
0.9090909090909091
 40
0.9090909090909091
 40
0.9393939393939394
 40
0.9393939393939394
 40
0.9393939393939394
 40
0.9393939393939394
 40
1.0
 40
1.0
 40
1.0
 40
1.0
 10
-2.1869
 20
33.3243
 30
0.0
 10
-2.1869
 20
33.3243
 30
0.0
 10
-3.3938
 20
33.3243
 30
0.0
 10
-3.3938
 20
33.3243
 30
0.0
 10
-3.3938
 20
33.3243
 30
0.0
 10
-3.3938
 20
33.3243
 30
0.0
 10
-3.5567
 20
32.1136
 30
0.0
 10
-3.5567
 20
32.1136
 30
0.0
 10
-3.5567
 20
32.1136
 30
0.0
 10
-3.5101
 20
32.12
 30
0.0
 10
-3.4584
 20
32.1252
 30
0.0
 10
-3.4003
 20
32.1297
 30
0.0
 10
-3.4003
 20
32.1297
 30
0.0
 10
-3.3426
 20
32.1343
 30
0.0
 10
-3.2767
 20
32.1368
 30
0.0
 10
-3.2036
 20
32.1368
 30
0.0
 10
-3.2036
 20
32.1368
 30
0.0
 10
-3.0367
 20
32.1362
 30
0.0
 10
-2.9002
 20
32.1122
 30
0.0
 10
-2.7942
 20
32.0657
 30
0.0
 10
-2.7942
 20
32.0657
 30
0.0
 10
-2.6875
 20
32.0185
 30
0.0
 10
-2.6086
 20
31.9538
 30
0.0
 10
-2.5575
 20
31.871
 30
0.0
 10
-2.5575
 20
31.871
 30
0.0
 10
-2.5063
 20
31.7876
 30
0.0
 10
-2.4812
 20
31.6912
 30
0.0
 10
-2.4818
 20
31.5819
 30
0.0
 10
-2.4818
 20
31.5819
 30
0.0
 10
-2.4812
 20
31.4972
 30
0.0
 10
-2.4967
 20
31.4215
 30
0.0
 10
-2.5284
 20
31.3543
 30
0.0
 10
-2.5284
 20
31.3543
 30
0.0
 10
-2.5594
 20
31.2863
 30
0.0
 10
-2.6027
 20
31.2294
 30
0.0
 10
-2.6577
 20
31.1816
 30
0.0
 10
-2.6577
 20
31.1816
 30
0.0
 10
-2.7127
 20
31.1343
 30
0.0
 10
-2.7761
 20
31.0981
 30
0.0
 10
-2.8479
 20
31.0729
 30
0.0
 10
-2.8479
 20
31.0729
 30
0.0
 10
-2.9196
 20
31.0477
 30
0.0
 10
-2.9953
 20
31.0347
 30
0.0
 10
-3.0755
 20
31.0347
 30
0.0
 10
-3.0755
 20
31.0347
 30
0.0
 10
-3.1538
 20
31.0354
 30
0.0
 10
-3.2275
 20
31.0425
 30
0.0
 10
-3.2967
 20
31.0573
 30
0.0
 10
-3.2967
 20
31.0573
 30
0.0
 10
-3.366
 20
31.0716
 30
0.0
 10
-3.4281
 20
31.0891
 30
0.0
 10
-3.483
 20
31.1104
 30
0.0
 10
-3.483
 20
31.1104
 30
0.0
 10
-3.538
 20
31.1318
 30
0.0
 10
-3.5833
 20
31.1531
 30
0.0
 10
-3.6189
 20
31.1744
 30
0.0
 10
-3.6189
 20
31.1744
 30
0.0
 10
-3.6189
 20
31.1744
 30
0.0
 10
-3.7042
 20
30.9144
 30
0.0
 10
-3.7042
 20
30.9144
 30
0.0
 10
-3.7042
 20
30.9144
 30
0.0
 10
-3.6622
 20
30.8879
 30
0.0
 10
-3.6097
 20
30.8634
 30
0.0
 10
-3.547
 20
30.8394
 30
0.0
 10
-3.547
 20
30.8394
 30
0.0
 10
-3.4843
 20
30.8161
 30
0.0
 10
-3.4131
 20
30.7973
 30
0.0
 10
-3.3336
 20
30.7825
 30
0.0
 10
-3.3336
 20
30.7825
 30
0.0
 10
-3.2534
 20
30.7676
 30
0.0
 10
-3.1673
 20
30.7599
 30
0.0
 10
-3.0755
 20
30.7592
 30
0.0
 10
-3.0755
 20
30.7592
 30
0.0
 10
-2.9378
 20
30.7599
 30
0.0
 10
-2.8123
 20
30.7818
 30
0.0
 10
-2.6979
 20
30.8245
 30
0.0
 10
-2.6979
 20
30.8245
 30
0.0
 10
-2.5833
 20
30.8672
 30
0.0
 10
-2.4844
 20
30.9274
 30
0.0
 10
-2.4009
 20
31.005
 30
0.0
 10
-2.4009
 20
31.005
 30
0.0
 10
-2.3168
 20
31.0826
 30
0.0
 10
-2.2522
 20
31.1738
 30
0.0
 10
-2.2063
 20
31.278
 30
0.0
 10
-2.2063
 20
31.278
 30
0.0
 10
-2.1603
 20
31.3827
 30
0.0
 10
-2.1371
 20
31.4972
 30
0.0
 10
-2.1364
 20
31.6207
 30
0.0
 10
-2.1364
 20
31.6207
 30
0.0
 10
-2.1371
 20
31.7255
 30
0.0
 10
-2.1539
 20
31.8199
 30
0.0
 10
-2.1862
 20
31.9034
 30
0.0
 10
-2.1862
 20
31.9034
 30
0.0
 10
-2.2185
 20
31.9868
 30
0.0
 10
-2.2613
 20
32.0586
 30
0.0
 10
-2.3156
 20
32.1193
 30
0.0
 10
-2.3156
 20
32.1193
 30
0.0
 10
-2.3699
 20
32.1802
 30
0.0
 10
-2.4307
 20
32.2287
 30
0.0
 10
-2.4973
 20
32.2649
 30
0.0
 10
-2.4973
 20
32.2649
 30
0.0
 10
-2.5756
 20
32.3128
 30
0.0
 10
-2.6603
 20
32.3477
 30
0.0
 10
-2.7528
 20
32.369
 30
0.0
 10
-2.7528
 20
32.369
 30
0.0
 10
-2.8453
 20
32.3904
 30
0.0
 10
-2.941
 20
32.4014
 30
0.0
 10
-3.0406
 20
32.4007
 30
0.0
 10
-3.0406
 20
32.4007
 30
0.0
 10
-3.0859
 20
32.4007
 30
0.0
 10
-3.1247
 20
32.4
 30
0.0
 10
-3.1564
 20
32.3981
 30
0.0
 10
-3.1564
 20
32.3981
 30
0.0
 10
-3.188
 20
32.3962
 30
0.0
 10
-3.2179
 20
32.3929
 30
0.0
 10
-3.2463
 20
32.3891
 30
0.0
 10
-3.2463
 20
32.3891
 30
0.0
 10
-3.2463
 20
32.3891
 30
0.0
 10
-3.1493
 20
33.0371
 30
0.0
 10
-3.1493
 20
33.0371
 30
0.0
 10
-3.1493
 20
33.0371
 30
0.0
 10
-3.1493
 20
33.0371
 30
0.0
 10
-2.1869
 20
33.0371
 30
0.0
 10
-2.1869
 20
33.0371
 30
0.0
 10
-2.1869
 20
33.0371
 30
0.0
 10
-2.1869
 20
33.0371
 30
0.0
 10
-2.1869
 20
33.3243
 30
0.0
 10
-2.1869
 20
33.3243
 30
0.0
  0
SPLINE
  5
90
330
1F
100
AcDbEntity
  8
DEFAULT_1
 62
   250
100
AcDbSpline
210
0.0
220
0.0
230
1.0
 70
    11
 71
     3
 72
   132
 73
   128
 74
     0
 42
0.0000000001
 43
0.0000000001
 40
0.0
 40
0.0
 40
0.0
 40
0.0
 40
0.0303030303030303
 40
0.0303030303030303
 40
0.0303030303030303
 40
0.0303030303030303
 40
0.0606060606060606
 40
0.0606060606060606
 40
0.0606060606060606
 40
0.0606060606060606
 40
0.0909090909090909
 40
0.0909090909090909
 40
0.0909090909090909
 40
0.0909090909090909
 40
0.1212121212121212
 40
0.1212121212121212
 40
0.1212121212121212
 40
0.1212121212121212
 40
0.1515151515151515
 40
0.1515151515151515
 40
0.1515151515151515
 40
0.1515151515151515
 40
0.1818181818181818
 40
0.1818181818181818
 40
0.1818181818181818
 40
0.1818181818181818
 40
0.2121212121212121
 40
0.2121212121212121
 40
0.2121212121212121
 40
0.2121212121212121
 40
0.2424242424242424
 40
0.2424242424242424
 40
0.2424242424242424
 40
0.2424242424242424
 40
0.2727272727272727
 40
0.2727272727272727
 40
0.2727272727272727
 40
0.2727272727272727
 40
0.303030303030303
 40
0.303030303030303
 40
0.303030303030303
 40
0.303030303030303
 40
0.3333333333333333
 40
0.3333333333333333
 40
0.3333333333333333
 40
0.3333333333333333
 40
0.3636363636363636
 40
0.3636363636363636
 40
0.3636363636363636
 40
0.3636363636363636
 40
0.3939393939393939
 40
0.3939393939393939
 40
0.3939393939393939
 40
0.3939393939393939
 40
0.4242424242424243
 40
0.4242424242424243
 40
0.4242424242424243
 40
0.4242424242424243
 40
0.4545454545454545
 40
0.4545454545454545
 40
0.4545454545454545
 40
0.4545454545454545
 40
0.4848484848484849
 40
0.4848484848484849
 40
0.4848484848484849
 40
0.4848484848484849
 40
0.5151515151515151
 40
0.5151515151515151
 40
0.5151515151515151
 40
0.5151515151515151
 40
0.5454545454545454
 40
0.5454545454545454
 40
0.5454545454545454
 40
0.5454545454545454
 40
0.5757575757575758
 40
0.5757575757575758
 40
0.5757575757575758
 40
0.5757575757575758
 40
0.6060606060606061
 40
0.6060606060606061
 40
0.6060606060606061
 40
0.6060606060606061
 40
0.6363636363636364
 40
0.6363636363636364
 40
0.6363636363636364
 40
0.6363636363636364
 40
0.6666666666666666
 40
0.6666666666666666
 40
0.6666666666666666
 40
0.6666666666666666
 40
0.696969696969697
 40
0.696969696969697
 40
0.696969696969697
 40
0.696969696969697
 40
0.7272727272727273
 40
0.7272727272727273
 40
0.7272727272727273
 40
0.7272727272727273
 40
0.7575757575757576
 40
0.7575757575757576
 40
0.7575757575757576
 40
0.7575757575757576
 40
0.7878787878787878
 40
0.7878787878787878
 40
0.7878787878787878
 40
0.7878787878787878
 40
0.8181818181818182
 40
0.8181818181818182
 40
0.8181818181818182
 40
0.8181818181818182
 40
0.8484848484848485
 40
0.8484848484848485
 40
0.8484848484848485
 40
0.8484848484848485
 40
0.8787878787878788
 40
0.8787878787878788
 40
0.8787878787878788
 40
0.8787878787878788
 40
0.9090909090909091
 40
0.9090909090909091
 40
0.9090909090909091
 40
0.9090909090909091
 40
0.9393939393939394
 40
0.9393939393939394
 40
0.9393939393939394
 40
0.9393939393939394
 40
1.0
 40
1.0
 40
1.0
 40
1.0
 10
-0.1961
 20
33.3243
 30
0.0
 10
-0.1961
 20
33.3243
 30
0.0
 10
-1.403
 20
33.3243
 30
0.0
 10
-1.403
 20
33.3243
 30
0.0
 10
-1.403
 20
33.3243
 30
0.0
 10
-1.403
 20
33.3243
 30
0.0
 10
-1.566
 20
32.1136
 30
0.0
 10
-1.566
 20
32.1136
 30
0.0
 10
-1.566
 20
32.1136
 30
0.0
 10
-1.5194
 20
32.12
 30
0.0
 10
-1.4677
 20
32.1252
 30
0.0
 10
-1.4095
 20
32.1297
 30
0.0
 10
-1.4095
 20
32.1297
 30
0.0
 10
-1.3519
 20
32.1343
 30
0.0
 10
-1.2859
 20
32.1368
 30
0.0
 10
-1.2129
 20
32.1368
 30
0.0
 10
-1.2129
 20
32.1368
 30
0.0
 10
-1.046
 20
32.1362
 30
0.0
 10
-0.9095
 20
32.1122
 30
0.0
 10
-0.8034
 20
32.0657
 30
0.0
 10
-0.8034
 20
32.0657
 30
0.0
 10
-0.6967
 20
32.0185
 30
0.0
 10
-0.6178
 20
31.9538
 30
0.0
 10
-0.5668
 20
31.871
 30
0.0
 10
-0.5668
 20
31.871
 30
0.0
 10
-0.5156
 20
31.7876
 30
0.0
 10
-0.4904
 20
31.6912
 30
0.0
 10
-0.4911
 20
31.5819
 30
0.0
 10
-0.4911
 20
31.5819
 30
0.0
 10
-0.4904
 20
31.4972
 30
0.0
 10
-0.5059
 20
31.4215
 30
0.0
 10
-0.5377
 20
31.3543
 30
0.0
 10
-0.5377
 20
31.3543
 30
0.0
 10
-0.5687
 20
31.2863
 30
0.0
 10
-0.612
 20
31.2294
 30
0.0
 10
-0.667
 20
31.1816
 30
0.0
 10
-0.667
 20
31.1816
 30
0.0
 10
-0.722
 20
31.1343
 30
0.0
 10
-0.7854
 20
31.0981
 30
0.0
 10
-0.8571
 20
31.0729
 30
0.0
 10
-0.8571
 20
31.0729
 30
0.0
 10
-0.9289
 20
31.0477
 30
0.0
 10
-1.0046
 20
31.0347
 30
0.0
 10
-1.0848
 20
31.0347
 30
0.0
 10
-1.0848
 20
31.0347
 30
0.0
 10
-1.1631
 20
31.0354
 30
0.0
 10
-1.2368
 20
31.0425
 30
0.0
 10
-1.306
 20
31.0573
 30
0.0
 10
-1.306
 20
31.0573
 30
0.0
 10
-1.3752
 20
31.0716
 30
0.0
 10
-1.4373
 20
31.0891
 30
0.0
 10
-1.4922
 20
31.1104
 30
0.0
 10
-1.4922
 20
31.1104
 30
0.0
 10
-1.5472
 20
31.1318
 30
0.0
 10
-1.5925
 20
31.1531
 30
0.0
 10
-1.6281
 20
31.1744
 30
0.0
 10
-1.6281
 20
31.1744
 30
0.0
 10
-1.6281
 20
31.1744
 30
0.0
 10
-1.7135
 20
30.9144
 30
0.0
 10
-1.7135
 20
30.9144
 30
0.0
 10
-1.7135
 20
30.9144
 30
0.0
 10
-1.6714
 20
30.8879
 30
0.0
 10
-1.619
 20
30.8634
 30
0.0
 10
-1.5562
 20
30.8394
 30
0.0
 10
-1.5562
 20
30.8394
 30
0.0
 10
-1.4936
 20
30.8161
 30
0.0
 10
-1.4224
 20
30.7973
 30
0.0
 10
-1.3428
 20
30.7825
 30
0.0
 10
-1.3428
 20
30.7825
 30
0.0
 10
-1.2627
 20
30.7676
 30
0.0
 10
-1.1766
 20
30.7599
 30
0.0
 10
-1.0848
 20
30.7592
 30
0.0
 10
-1.0848
 20
30.7592
 30
0.0
 10
-0.947
 20
30.7599
 30
0.0
 10
-0.8216
 20
30.7818
 30
0.0
 10
-0.7071
 20
30.8245
 30
0.0
 10
-0.7071
 20
30.8245
 30
0.0
 10
-0.5926
 20
30.8672
 30
0.0
 10
-0.4936
 20
30.9274
 30
0.0
 10
-0.4102
 20
31.005
 30
0.0
 10
-0.4102
 20
31.005
 30
0.0
 10
-0.3261
 20
31.0826
 30
0.0
 10
-0.2614
 20
31.1738
 30
0.0
 10
-0.2156
 20
31.278
 30
0.0
 10
-0.2156
 20
31.278
 30
0.0
 10
-0.1696
 20
31.3827
 30
0.0
 10
-0.1463
 20
31.4972
 30
0.0
 10
-0.1457
 20
31.6207
 30
0.0
 10
-0.1457
 20
31.6207
 30
0.0
 10
-0.1463
 20
31.7255
 30
0.0
 10
-0.1631
 20
31.8199
 30
0.0
 10
-0.1955
 20
31.9034
 30
0.0
 10
-0.1955
 20
31.9034
 30
0.0
 10
-0.2278
 20
31.9868
 30
0.0
 10
-0.2705
 20
32.0586
 30
0.0
 10
-0.3248
 20
32.1193
 30
0.0
 10
-0.3248
 20
32.1193
 30
0.0
 10
-0.3792
 20
32.1802
 30
0.0
 10
-0.44
 20
32.2287
 30
0.0
 10
-0.5066
 20
32.2649
 30
0.0
 10
-0.5066
 20
32.2649
 30
0.0
 10
-0.5848
 20
32.3128
 30
0.0
 10
-0.6695
 20
32.3477
 30
0.0
 10
-0.762
 20
32.369
 30
0.0
 10
-0.762
 20
32.369
 30
0.0
 10
-0.8546
 20
32.3904
 30
0.0
 10
-0.9502
 20
32.4014
 30
0.0
 10
-1.0498
 20
32.4007
 30
0.0
 10
-1.0498
 20
32.4007
 30
0.0
 10
-1.0952
 20
32.4007
 30
0.0
 10
-1.1339
 20
32.4
 30
0.0
 10
-1.1656
 20
32.3981
 30
0.0
 10
-1.1656
 20
32.3981
 30
0.0
 10
-1.1973
 20
32.3962
 30
0.0
 10
-1.2271
 20
32.3929
 30
0.0
 10
-1.2556
 20
32.3891
 30
0.0
 10
-1.2556
 20
32.3891
 30
0.0
 10
-1.2556
 20
32.3891
 30
0.0
 10
-1.1585
 20
33.0371
 30
0.0
 10
-1.1585
 20
33.0371
 30
0.0
 10
-1.1585
 20
33.0371
 30
0.0
 10
-1.1585
 20
33.0371
 30
0.0
 10
-0.1961
 20
33.0371
 30
0.0
 10
-0.1961
 20
33.0371
 30
0.0
 10
-0.1961
 20
33.0371
 30
0.0
 10
-0.1961
 20
33.0371
 30
0.0
 10
-0.1961
 20
33.3243
 30
0.0
 10
-0.1961
 20
33.3243
 30
0.0
  0
SPLINE
  5
91
330
1F
100
AcDbEntity
  8
DEFAULT_1
 62
   250
100
AcDbSpline
210
0.0
220
0.0
230
1.0
 70
    11
 71
     3
 72
    68
 73
    64
 74
     0
 42
0.0000000001
 43
0.0000000001
 40
0.0
 40
0.0
 40
0.0
 40
0.0
 40
0.0588235294117647
 40
0.0588235294117647
 40
0.0588235294117647
 40
0.0588235294117647
 40
0.1176470588235294
 40
0.1176470588235294
 40
0.1176470588235294
 40
0.1176470588235294
 40
0.1764705882352941
 40
0.1764705882352941
 40
0.1764705882352941
 40
0.1764705882352941
 40
0.2352941176470588
 40
0.2352941176470588
 40
0.2352941176470588
 40
0.2352941176470588
 40
0.2941176470588235
 40
0.2941176470588235
 40
0.2941176470588235
 40
0.2941176470588235
 40
0.3529411764705883
 40
0.3529411764705883
 40
0.3529411764705883
 40
0.3529411764705883
 40
0.4117647058823529
 40
0.4117647058823529
 40
0.4117647058823529
 40
0.4117647058823529
 40
0.4705882352941176
 40
0.4705882352941176
 40
0.4705882352941176
 40
0.4705882352941176
 40
0.5294117647058824
 40
0.5294117647058824
 40
0.5294117647058824
 40
0.5294117647058824
 40
0.5882352941176471
 40
0.5882352941176471
 40
0.5882352941176471
 40
0.5882352941176471
 40
0.6470588235294118
 40
0.6470588235294118
 40
0.6470588235294118
 40
0.6470588235294118
 40
0.7058823529411765
 40
0.7058823529411765
 40
0.7058823529411765
 40
0.7058823529411765
 40
0.7647058823529411
 40
0.7647058823529411
 40
0.7647058823529411
 40
0.7647058823529411
 40
0.8235294117647058
 40
0.8235294117647058
 40
0.8235294117647058
 40
0.8235294117647058
 40
0.8823529411764706
 40
0.8823529411764706
 40
0.8823529411764706
 40
0.8823529411764706
 40
1.0
 40
1.0
 40
1.0
 40
1.0
 10
0.4558
 20
30.3323
 30
0.0
 10
0.5179
 20
30.4139
 30
0.0
 10
0.578
 20
30.5063
 30
0.0
 10
0.6382
 20
30.6105
 30
0.0
 10
0.6382
 20
30.6105
 30
0.0
 10
0.6977
 20
30.7146
 30
0.0
 10
0.7514
 20
30.831
 30
0.0
 10
0.8006
 20
30.961
 30
0.0
 10
0.8006
 20
30.961
 30
0.0
 10
0.8491
 20
31.091
 30
0.0
 10
0.8878
 20
31.2346
 30
0.0
 10
0.9176
 20
31.393
 30
0.0
 10
0.9176
 20
31.393
 30
0.0
 10
0.9467
 20
31.5515
 30
0.0
 10
0.9623
 20
31.7255
 30
0.0
 10
0.9642
 20
31.9156
 30
0.0
 10
0.9642
 20
31.9156
 30
0.0
 10
0.9635
 20
32.1057
 30
0.0
 10
0.9487
 20
32.2798
 30
0.0
 10
0.9188
 20
32.4389
 30
0.0
 10
0.9188
 20
32.4389
 30
0.0
 10
0.8898
 20
32.5973
 30
0.0
 10
0.851
 20
32.7416
 30
0.0
 10
0.8018
 20
32.8715
 30
0.0
 10
0.8018
 20
32.8715
 30
0.0
 10
0.7527
 20
33.0009
 30
0.0
 10
0.6983
 20
33.1173
 30
0.0
 10
0.6382
 20
33.2208
 30
0.0
 10
0.6382
 20
33.2208
 30
0.0
 10
0.5787
 20
33.3243
 30
0.0
 10
0.5179
 20
33.4155
 30
0.0
 10
0.4558
 20
33.495
 30
0.0
 10
0.4558
 20
33.495
 30
0.0
 10
0.4558
 20
33.495
 30
0.0
 10
0.1919
 20
33.495
 30
0.0
 10
0.1919
 20
33.495
 30
0.0
 10
0.1919
 20
33.495
 30
0.0
 10
0.2844
 20
33.3664
 30
0.0
 10
0.3672
 20
33.2241
 30
0.0
 10
0.4402
 20
33.0682
 30
0.0
 10
0.4402
 20
33.0682
 30
0.0
 10
0.5127
 20
32.9123
 30
0.0
 10
0.5703
 20
32.7397
 30
0.0
 10
0.6123
 20
32.5495
 30
0.0
 10
0.6123
 20
32.5495
 30
0.0
 10
0.6544
 20
32.3594
 30
0.0
 10
0.6764
 20
32.1478
 30
0.0
 10
0.677
 20
31.9156
 30
0.0
 10
0.677
 20
31.9156
 30
0.0
 10
0.6764
 20
31.6834
 30
0.0
 10
0.6544
 20
31.4713
 30
0.0
 10
0.6117
 20
31.2799
 30
0.0
 10
0.6117
 20
31.2799
 30
0.0
 10
0.569
 20
31.0884
 30
0.0
 10
0.5114
 20
30.9151
 30
0.0
 10
0.4383
 20
30.7586
 30
0.0
 10
0.4383
 20
30.7586
 30
0.0
 10
0.3659
 20
30.6021
 30
0.0
 10
0.2838
 20
30.4597
 30
0.0
 10
0.1919
 20
30.3323
 30
0.0
 10
0.1919
 20
30.3323
 30
0.0
 10
0.1919
 20
30.3323
 30
0.0
 10
0.4558
 20
30.3323
 30
0.0
 10
0.4558
 20
30.3323
 30
0.0
  0
SPLINE
  5
92
330
1F
100
AcDbEntity
  8
DEFAULT_1
 62
   250
370
    15
100
AcDbSpline
210
0.0
220
0.0
230
1.0
 70
    24
 71
     3
 72
     8
 73
     4
 74
     0
 42
0.0000000001
 43
0.0000000001
 40
0.0
 40
0.0
 40
0.0
 40
0.0
 40
1.0
 40
1.0
 40
1.0
 40
1.0
 10
2.0653
 20
25.3807
 30
0.0
 10
2.0653
 20
25.3807
 30
0.0
 10
2.0653
 20
30.4466
 30
0.0
 10
2.0653
 20
30.4466
 30
0.0
  0
SPLINE
  5
93
330
1F
100
AcDbEntity
  8
DEFAULT_1
 62
   250
370
    15
100
AcDbSpline
210
0.0
220
0.0
230
1.0
 70
    24
 71
     3
 72
     8
 73
     4
 74
     0
 42
0.0000000001
 43
0.0000000001
 40
0.0
 40
0.0
 40
0.0
 40
0.0
 40
1.0
 40
1.0
 40
1.0
 40
1.0
 10
2.0749
 20
21.4164
 30
0.0
 10
2.0749
 20
21.4164
 30
0.0
 10
2.0749
 20
24.0968
 30
0.0
 10
2.0749
 20
24.0968
 30
0.0
  0
ENDSEC
  0
SECTION
  2
OBJECTS
  0
DICTIONARY
  5
C
330
0
100
AcDbDictionary
281
     1
  3
ACAD_GROUP
350
D
  3
ACAD_LAYOUT
350
1A
  3
ACAD_MATERIAL
350
3B
  3
ACAD_MLEADERSTYLE
350
96
  3
ACAD_MLINESTYLE
350
17
  3
ACAD_PLOTSETTINGS
350
19
  3
ACAD_PLOTSTYLENAME
350
E
  3
ACAD_VISUALSTYLE
350
2A
  3
AcDbVariableDictionary
350
94
  0
DICTIONARY
  5
D
102
{ACAD_REACTORS
330
C
102
}
330
C
100
AcDbDictionary
281
     1
  0
DICTIONARY
  5
1A
102
{ACAD_REACTORS
330
C
102
}
330
C
100
AcDbDictionary
281
     1
  3
Layout1
350
1E
  3
Layout2
350
26
  3
Model
350
22
  0
DICTIONARY
  5
3B
102
{ACAD_REACTORS
330
C
102
}
330
C
100
AcDbDictionary
281
     1
  3
ByBlock
350
3D
  3
ByLayer
350
3C
  3
Global
350
3E
  0
DICTIONARY
  5
96
102
{ACAD_REACTORS
330
C
102
}
330
C
100
AcDbDictionary
281
     1
  0
DICTIONARY
  5
17
102
{ACAD_REACTORS
330
C
102
}
330
C
100
AcDbDictionary
281
     1
  3
Standard
350
18
  0
DICTIONARY
  5
19
102
{ACAD_REACTORS
330
C
102
}
330
C
100
AcDbDictionary
281
     1
  0
ACDBDICTIONARYWDFLT
  5
E
102
{ACAD_REACTORS
330
C
102
}
330
C
100
AcDbDictionary
281
     1
  3
Normal
350
F
100
AcDbDictionaryWithDefault
340
F
  0
DICTIONARY
  5
2A
102
{ACAD_REACTORS
330
C
102
}
330
C
100
AcDbDictionary
281
     1
  3
2dWireframe
350
2F
  3
3D Hidden
350
31
  3
3dWireframe
350
30
  3
Basic
350
32
  3
Brighten
350
36
  3
ColorChange
350
3A
  3
Conceptual
350
34
  3
Dim
350
35
  3
Facepattern
350
39
  3
Flat
350
2B
  3
FlatWithEdges
350
2C
  3
Gouraud
350
2D
  3
GouraudWithEdges
350
2E
  3
Linepattern
350
38
  3
Realistic
350
33
  3
Thicken
350
37
  0
DICTIONARY
  5
94
102
{ACAD_REACTORS
330
C
102
}
330
C
100
AcDbDictionary
281
     1
  3
DIMASSOC
350
97
  3
HIDETEXT
350
98
  0
LAYOUT
  5
1E
102
{ACAD_REACTORS
330
1A
102
}
330
1A
100
AcDbPlotSettings
  1

  2
none_device
  4

  6

 40
0.0
 41
0.0
 42
0.0
 43
0.0
 44
0.0
 45
0.0
 46
0.0
 47
0.0
 48
0.0
 49
0.0
140
0.0
141
0.0
142
1.0
143
1.0
 70
   688
 72
     0
 73
     0
 74
     5
  7

 75
    16
147
1.0
148
0.0
149
0.0
100
AcDbLayout
  1
Layout1
 70
     1
 71
     1
 10
0.0
 20
0.0
 11
12.0
 21
9.0
 12
0.0
 22
0.0
 32
0.0
 14
1.000000000000000E+20
 24
1.000000000000000E+20
 34
1.000000000000000E+20
 15
-1.000000000000000E+20
 25
-1.000000000000000E+20
 35
-1.000000000000000E+20
146
0.0
 13
0.0
 23
0.0
 33
0.0
 16
1.0
 26
0.0
 36
0.0
 17
0.0
 27
1.0
 37
0.0
 76
     0
330
1B
  0
LAYOUT
  5
26
102
{ACAD_REACTORS
330
1A
102
}
330
1A
100
AcDbPlotSettings
  1

  2
none_device
  4

  6

 40
0.0
 41
0.0
 42
0.0
 43
0.0
 44
0.0
 45
0.0
 46
0.0
 47
0.0
 48
0.0
 49
0.0
140
0.0
141
0.0
142
1.0
143
1.0
 70
   688
 72
     0
 73
     0
 74
     5
  7

 75
    16
147
1.0
148
0.0
149
0.0
100
AcDbLayout
  1
Layout2
 70
     1
 71
     2
 10
0.0
 20
0.0
 11
0.0
 21
0.0
 12
0.0
 22
0.0
 32
0.0
 14
0.0
 24
0.0
 34
0.0
 15
0.0
 25
0.0
 35
0.0
146
0.0
 13
0.0
 23
0.0
 33
0.0
 16
1.0
 26
0.0
 36
0.0
 17
0.0
 27
1.0
 37
0.0
 76
     0
330
23
  0
LAYOUT
  5
22
102
{ACAD_REACTORS
330
1A
102
}
330
1A
100
AcDbPlotSettings
  1

  2
none_device
  4

  6

 40
0.0
 41
0.0
 42
0.0
 43
0.0
 44
0.0
 45
0.0
 46
0.0
 47
0.0
 48
0.0
 49
0.0
140
0.0
141
0.0
142
1.0
143
1.0
 70
  1712
 72
     0
 73
     0
 74
     0
  7

 75
     0
147
1.0
148
0.0
149
0.0
100
AcDbLayout
  1
Model
 70
     1
 71
     0
 10
0.0
 20
0.0
 11
12.0
 21
9.0
 12
0.0
 22
0.0
 32
0.0
 14
-10.3731
 24
-33.5689
 34
0.0
 15
10.3731
 25
33.5688
 35
0.0
146
0.0
 13
0.0
 23
0.0
 33
0.0
 16
1.0
 26
0.0
 36
0.0
 17
0.0
 27
1.0
 37
0.0
 76
     0
330
1F
331
29
  0
MATERIAL
  5
3D
102
{ACAD_REACTORS
330
3B
102
}
102
{ACAD_XDICTIONARY
360
BB
102
}
330
3B
100
AcDbMaterial
  1
ByBlock
  0
MATERIAL
  5
3C
102
{ACAD_REACTORS
330
3B
102
}
102
{ACAD_XDICTIONARY
360
B9
102
}
330
3B
100
AcDbMaterial
  1
ByLayer
  0
MATERIAL
  5
3E
102
{ACAD_REACTORS
330
3B
102
}
102
{ACAD_XDICTIONARY
360
BD
102
}
330
3B
100
AcDbMaterial
  1
Global
  0
MLINESTYLE
  5
18
102
{ACAD_REACTORS
330
17
102
}
330
17
100
AcDbMlineStyle
  2
Standard
 70
     0
  3

 62
   256
 51
90.0
 52
90.0
 71
     2
 49
0.5
 62
   256
  6
BYLAYER
 49
-0.5
 62
   256
  6
BYLAYER
  0
ACDBPLACEHOLDER
  5
F
102
{ACAD_REACTORS
330
E
102
}
330
E
  0
VISUALSTYLE
  5
2F
102
{ACAD_REACTORS
330
2A
102
}
102
{ACAD_XDICTIONARY
360
A1
102
}
330
2A
100
AcDbVisualStyle
  2
2dWireframe
 70
     4
 71
     0
 72
     2
 73
     0
 90
        0
 40
-0.6
 41
-30.0
 62
     5
 63
     7
 74
     1
 91
        4
 64
     7
 65
   257
 75
     1
175
     1
 42
1.0
 92
        0
 66
   257
 43
1.0
 76
     1
 77
     6
 78
     2
 67
     7
 79
     5
170
     0
171
     0
290
     0
174
     0
 93
        1
 44
0.0
173
     0
291
     0
 45
0.0
1001
ACAD
1000
AcDbSavedByObjectVersion
1070
     0
  0
VISUALSTYLE
  5
31
102
{ACAD_REACTORS
330
2A
102
}
102
{ACAD_XDICTIONARY
360
A5
102
}
330
2A
100
AcDbVisualStyle
  2
3D Hidden
 70
     6
 71
     1
 72
     2
 73
     2
 90
        0
 40
-0.6
 41
-30.0
 62
     5
 63
     7
 74
     2
 91
        2
 64
     7
 65
   257
 75
     2
175
     1
 42
40.0
 92
        0
 66
   257
 43
1.0
 76
     1
 77
     6
 78
     2
 67
     7
 79
     3
170
     0
171
     0
290
     0
174
     0
 93
        1
 44
0.0
173
     0
291
     0
 45
0.0
1001
ACAD
1000
AcDbSavedByObjectVersion
1070
     0
  0
VISUALSTYLE
  5
30
102
{ACAD_REACTORS
330
2A
102
}
102
{ACAD_XDICTIONARY
360
A3
102
}
330
2A
100
AcDbVisualStyle
  2
3dWireframe
 70
     5
 71
     0
 72
     2
 73
     0
 90
        0
 40
-0.6
 41
-30.0
 62
     5
 63
     7
 74
     1
 91
        4
 64
     7
 65
   257
 75
     1
175
     1
 42
1.0
 92
        0
 66
   257
 43
1.0
 76
     1
 77
     6
 78
     2
 67
     7
 79
     5
170
     0
171
     0
290
     0
174
     0
 93
        1
 44
0.0
173
     0
291
     0
 45
0.0
1001
ACAD
1000
AcDbSavedByObjectVersion
1070
     0
  0
VISUALSTYLE
  5
32
102
{ACAD_REACTORS
330
2A
102
}
102
{ACAD_XDICTIONARY
360
A7
102
}
330
2A
100
AcDbVisualStyle
  2
Basic
 70
     7
 71
     1
 72
     0
 73
     1
 90
        0
 40
-0.6
 41
-30.0
 62
     5
 63
     7
 74
     0
 91
        4
 64
     7
 65
   257
 75
     1
175
     1
 42
1.0
 92
        8
 66
     7
 43
1.0
 76
     1
 77
     6
 78
     2
 67
     7
 79
     5
170
     0
171
     0
290
     0
174
     0
 93
        1
 44
0.0
173
     0
291
     1
 45
0.0
1001
ACAD
1000
AcDbSavedByObjectVersion
1070
     0
  0
VISUALSTYLE
  5
36
102
{ACAD_REACTORS
330
2A
102
}
102
{ACAD_XDICTIONARY
360
AF
102
}
330
2A
100
AcDbVisualStyle
  2
Brighten
 70
    12
 71
     2
 72
     2
 73
     0
 90
        0
 40
-0.6
 41
-30.0
 62
     5
 63
     7
 74
     1
 91
        4
 64
     7
 65
   257
 75
     1
175
     1
 42
1.0
 92
        8
 66
     7
 43
1.0
 76
     1
 77
     6
 78
     2
 67
     7
 79
     5
170
     0
171
     0
290
     0
174
     0
 93
        1
 44
50.0
173
     0
291
     1
 45
0.0
1001
ACAD
1000
AcDbSavedByObjectVersion
1070
     0
  0
VISUALSTYLE
  5
3A
102
{ACAD_REACTORS
330
2A
102
}
102
{ACAD_XDICTIONARY
360
B7
102
}
330
2A
100
AcDbVisualStyle
  2
ColorChange
 70
    16
 71
     2
 72
     2
 73
     3
 90
        0
 40
-0.6
 41
-30.0
 62
     5
 63
     8
 74
     1
 91
        4
 64
     7
 65
   257
 75
     1
175
     1
 42
1.0
 92
        8
 66
     8
 43
1.0
 76
     1
 77
     6
 78
     2
 67
     7
 79
     5
170
     0
171
     0
290
     0
174
     0
 93
        1
 44
0.0
173
     0
291
     1
 45
0.0
1001
ACAD
1000
AcDbSavedByObjectVersion
1070
     0
  0
VISUALSTYLE
  5
34
102
{ACAD_REACTORS
330
2A
102
}
102
{ACAD_XDICTIONARY
360
AB
102
}
330
2A
100
AcDbVisualStyle
  2
Conceptual
 70
     9
 71
     3
 72
     2
 73
     0
 90
        0
 40
-0.6
 41
-30.0
 62
     5
 63
     7
 74
     2
 91
        2
 64
     7
 65
   257
 75
     1
175
     1
 42
40.0
 92
        8
 66
     7
 43
1.0
 76
     1
 77
     6
 78
     2
 67
     7
 79
     3
170
     0
171
     0
290
     0
174
     0
 93
        1
 44
0.0
173
     0
291
     0
 45
0.0
1001
ACAD
1000
AcDbSavedByObjectVersion
1070
     0
  0
VISUALSTYLE
  5
35
102
{ACAD_REACTORS
330
2A
102
}
102
{ACAD_XDICTIONARY
360
AD
102
}
330
2A
100
AcDbVisualStyle
  2
Dim
 70
    11
 71
     2
 72
     2
 73
     0
 90
        0
 40
-0.6
 41
-30.0
 62
     5
 63
     7
 74
     1
 91
        4
 64
     7
 65
   257
 75
     1
175
     1
 42
1.0
 92
        8
 66
     7
 43
1.0
 76
     1
 77
     6
 78
     2
 67
     7
 79
     5
170
     0
171
     0
290
     0
174
     0
 93
        1
 44
-50.0
173
     0
291
     1
 45
0.0
1001
ACAD
1000
AcDbSavedByObjectVersion
1070
     0
  0
VISUALSTYLE
  5
39
102
{ACAD_REACTORS
330
2A
102
}
102
{ACAD_XDICTIONARY
360
B5
102
}
330
2A
100
AcDbVisualStyle
  2
Facepattern
 70
    15
 71
     2
 72
     2
 73
     0
 90
        0
 40
-0.6
 41
-30.0
 62
     5
 63
     7
 74
     1
 91
        4
 64
     7
 65
   257
 75
     1
175
     1
 42
1.0
 92
        8
 66
     7
 43
1.0
 76
     1
 77
     6
 78
     2
 67
     7
 79
     5
170
     0
171
     0
290
     0
174
     0
 93
        1
 44
0.0
173
     0
291
     1
 45
0.0
1001
ACAD
1000
AcDbSavedByObjectVersion
1070
     0
  0
VISUALSTYLE
  5
2B
102
{ACAD_REACTORS
330
2A
102
}
102
{ACAD_XDICTIONARY
360
99
102
}
330
2A
100
AcDbVisualStyle
  2
Flat
 70
     0
 71
     2
 72
     1
 73
     1
 90
        2
 40
-0.6
 41
30.0
 62
     5
 63
     7
 74
     0
 91
        4
 64
     7
 65
   257
 75
     1
175
     1
 42
1.0
 92
        8
 66
     7
 43
1.0
 76
     1
 77
     6
 78
     2
 67
     7
 79
     5
170
     0
171
     0
290
     0
174
     0
 93
       13
 44
0.0
173
     0
291
     1
 45
0.0
1001
ACAD
1000
AcDbSavedByObjectVersion
1070
     0
  0
VISUALSTYLE
  5
2C
102
{ACAD_REACTORS
330
2A
102
}
102
{ACAD_XDICTIONARY
360
9B
102
}
330
2A
100
AcDbVisualStyle
  2
FlatWithEdges
 70
     1
 71
     2
 72
     1
 73
     1
 90
        2
 40
-0.6
 41
30.0
 62
     5
 63
     7
 74
     1
 91
        4
 64
     7
 65
   257
 75
     1
175
     1
 42
1.0
 92
        0
 66
   257
 43
1.0
 76
     1
 77
     6
 78
     2
 67
     7
 79
     5
170
     0
171
     0
290
     0
174
     0
 93
       13
 44
0.0
173
     0
291
     1
 45
0.0
1001
ACAD
1000
AcDbSavedByObjectVersion
1070
     0
  0
VISUALSTYLE
  5
2D
102
{ACAD_REACTORS
330
2A
102
}
102
{ACAD_XDICTIONARY
360
9D
102
}
330
2A
100
AcDbVisualStyle
  2
Gouraud
 70
     2
 71
     2
 72
     2
 73
     1
 90
        2
 40
-0.6
 41
30.0
 62
     5
 63
     7
 74
     0
 91
        4
 64
     7
 65
   257
 75
     1
175
     1
 42
1.0
 92
        0
 66
     7
 43
1.0
 76
     1
 77
     6
 78
     2
 67
     7
 79
     5
170
     0
171
     0
290
     0
174
     0
 93
       13
 44
0.0
173
     0
291
     1
 45
0.0
1001
ACAD
1000
AcDbSavedByObjectVersion
1070
     0
  0
VISUALSTYLE
  5
2E
102
{ACAD_REACTORS
330
2A
102
}
102
{ACAD_XDICTIONARY
360
9F
102
}
330
2A
100
AcDbVisualStyle
  2
GouraudWithEdges
 70
     3
 71
     2
 72
     2
 73
     1
 90
        2
 40
-0.6
 41
30.0
 62
     5
 63
     7
 74
     1
 91
        4
 64
     7
 65
   257
 75
     1
175
     1
 42
1.0
 92
        0
 66
   257
 43
1.0
 76
     1
 77
     6
 78
     2
 67
     7
 79
     5
170
     0
171
     0
290
     0
174
     0
 93
       13
 44
0.0
173
     0
291
     1
 45
0.0
1001
ACAD
1000
AcDbSavedByObjectVersion
1070
     0
  0
VISUALSTYLE
  5
38
102
{ACAD_REACTORS
330
2A
102
}
102
{ACAD_XDICTIONARY
360
B3
102
}
330
2A
100
AcDbVisualStyle
  2
Linepattern
 70
    14
 71
     2
 72
     2
 73
     0
 90
        0
 40
-0.6
 41
-30.0
 62
     5
 63
     7
 74
     1
 91
        4
 64
     7
 65
   257
 75
     7
175
     7
 42
1.0
 92
        8
 66
     7
 43
1.0
 76
     1
 77
     6
 78
     2
 67
     7
 79
     5
170
     0
171
     0
290
     0
174
     0
 93
        1
 44
0.0
173
     0
291
     1
 45
0.0
1001
ACAD
1000
AcDbSavedByObjectVersion
1070
     0
  0
VISUALSTYLE
  5
33
102
{ACAD_REACTORS
330
2A
102
}
102
{ACAD_XDICTIONARY
360
A9
102
}
330
2A
100
AcDbVisualStyle
  2
Realistic
 70
     8
 71
     2
 72
     2
 73
     0
 90
        0
 40
-0.6
 41
-30.0
 62
     5
 63
     7
 74
     1
 91
        0
 64
     7
 65
   257
 75
     1
175
     1
 42
1.0
 92
        8
 66
     8
 43
1.0
 76
     1
 77
     6
 78
     2
 67
     7
 79
     5
170
     0
171
     0
290
     0
174
     0
 93
       13
 44
0.0
173
     0
291
     0
 45
0.0
1001
ACAD
1000
AcDbSavedByObjectVersion
1070
     0
  0
VISUALSTYLE
  5
37
102
{ACAD_REACTORS
330
2A
102
}
102
{ACAD_XDICTIONARY
360
B1
102
}
330
2A
100
AcDbVisualStyle
  2
Thicken
 70
    13
 71
     2
 72
     2
 73
     0
 90
        0
 40
-0.6
 41
-30.0
 62
     5
 63
     7
 74
     1
 91
        4
 64
     7
 65
   257
 75
     1
175
     1
 42
1.0
 92
       12
 66
     7
 43
1.0
 76
     1
 77
     6
 78
     2
 67
     7
 79
     5
170
     0
171
     0
290
     0
174
     0
 93
        1
 44
0.0
173
     0
291
     1
 45
0.0
1001
ACAD
1000
AcDbSavedByObjectVersion
1070
     0
  0
DICTIONARYVAR
  5
97
102
{ACAD_REACTORS
330
94
102
}
330
94
100
DictionaryVariables
280
     0
  1
2
  0
DICTIONARYVAR
  5
98
102
{ACAD_REACTORS
330
94
102
}
330
94
100
DictionaryVariables
280
     0
  1
1
  0
DICTIONARY
  5
BB
330
3D
100
AcDbDictionary
280
     1
281
     1
  3
ACAD_XREC_ROUNDTRIP
360
BC
  0
DICTIONARY
  5
B9
330
3C
100
AcDbDictionary
280
     1
281
     1
  3
ACAD_XREC_ROUNDTRIP
360
BA
  0
DICTIONARY
  5
BD
330
3E
100
AcDbDictionary
280
     1
281
     1
  3
ACAD_XREC_ROUNDTRIP
360
BE
  0
DICTIONARY
  5
A1
330
2F
100
AcDbDictionary
280
     1
281
     1
  3
ACAD_XREC_ROUNDTRIP
360
A2
  0
DICTIONARY
  5
A5
330
31
100
AcDbDictionary
280
     1
281
     1
  3
ACAD_XREC_ROUNDTRIP
360
A6
  0
DICTIONARY
  5
A3
330
30
100
AcDbDictionary
280
     1
281
     1
  3
ACAD_XREC_ROUNDTRIP
360
A4
  0
DICTIONARY
  5
A7
330
32
100
AcDbDictionary
280
     1
281
     1
  3
ACAD_XREC_ROUNDTRIP
360
A8
  0
DICTIONARY
  5
AF
330
36
100
AcDbDictionary
280
     1
281
     1
  3
ACAD_XREC_ROUNDTRIP
360
B0
  0
DICTIONARY
  5
B7
330
3A
100
AcDbDictionary
280
     1
281
     1
  3
ACAD_XREC_ROUNDTRIP
360
B8
  0
DICTIONARY
  5
AB
330
34
100
AcDbDictionary
280
     1
281
     1
  3
ACAD_XREC_ROUNDTRIP
360
AC
  0
DICTIONARY
  5
AD
330
35
100
AcDbDictionary
280
     1
281
     1
  3
ACAD_XREC_ROUNDTRIP
360
AE
  0
DICTIONARY
  5
B5
330
39
100
AcDbDictionary
280
     1
281
     1
  3
ACAD_XREC_ROUNDTRIP
360
B6
  0
DICTIONARY
  5
99
330
2B
100
AcDbDictionary
280
     1
281
     1
  3
ACAD_XREC_ROUNDTRIP
360
9A
  0
DICTIONARY
  5
9B
330
2C
100
AcDbDictionary
280
     1
281
     1
  3
ACAD_XREC_ROUNDTRIP
360
9C
  0
DICTIONARY
  5
9D
330
2D
100
AcDbDictionary
280
     1
281
     1
  3
ACAD_XREC_ROUNDTRIP
360
9E
  0
DICTIONARY
  5
9F
330
2E
100
AcDbDictionary
280
     1
281
     1
  3
ACAD_XREC_ROUNDTRIP
360
A0
  0
DICTIONARY
  5
B3
330
38
100
AcDbDictionary
280
     1
281
     1
  3
ACAD_XREC_ROUNDTRIP
360
B4
  0
DICTIONARY
  5
A9
330
33
100
AcDbDictionary
280
     1
281
     1
  3
ACAD_XREC_ROUNDTRIP
360
AA
  0
DICTIONARY
  5
B1
330
37
100
AcDbDictionary
280
     1
281
     1
  3
ACAD_XREC_ROUNDTRIP
360
B2
  0
XRECORD
  5
BC
102
{ACAD_REACTORS
330
BB
102
}
330
BB
100
AcDbXrecord
280
     1
102
MATERIAL
148
0.0
149
0.0
149
0.0
 93
        0
 94
      127
282
     0
 72
     1
 77
     1
171
     1
175
     1
179
     1
273
     0
  0
XRECORD
  5
BA
102
{ACAD_REACTORS
330
B9
102
}
330
B9
100
AcDbXrecord
280
     1
102
MATERIAL
148
0.0
149
0.0
149
0.0
 93
        0
 94
      127
282
     0
 72
     1
 77
     1
171
     1
175
     1
179
     1
273
     0
  0
XRECORD
  5
BE
102
{ACAD_REACTORS
330
BD
102
}
330
BD
100
AcDbXrecord
280
     1
102
MATERIAL
148
0.0
149
0.0
149
0.0
 93
        0
 94
      127
282
     0
 72
     1
 77
     1
171
     1
175
     1
179
     1
273
     0
  0
XRECORD
  5
A2
102
{ACAD_REACTORS
330
A1
102
}
330
A1
100
AcDbXrecord
280
     1
102
RTVSPropertyOp0
 70
     1
102
RTVSPropertyOp1
 70
     1
102
RTVSPropertyOp2
 70
     1
102
RTVSPropertyOp3
 70
     1
102
RTVSPropertyOp4
 70
     1
102
RTVSPropertyOp5
 70
     1
102
RTVSPropertyOp6
 70
     1
102
RTVSPropertyOp7
 70
     1
102
RTVSPropertyOp8
 70
     1
102
RTVSPropertyOp9
 70
     1
102
RTVSPropertyOp10
 70
     1
102
RTVSPropertyOp11
 70
     1
102
RTVSPropertyOp12
 70
     1
102
RTVSPropertyOp13
 70
     1
102
RTVSPropertyOp14
 70
     1
102
RTVSPropertyOp15
 70
     1
102
RTVSPropertyOp16
 70
     1
102
RTVSPropertyOp17
 70
     1
102
RTVSPropertyOp18
 70
     1
102
RTVSPropertyOp19
 70
     1
102
RTVSPropertyOp20
 70
     1
102
RTVSPropertyOp21
 70
     1
102
RTVSPropertyOp22
 70
     1
102
RTVSPropertyOp23
 70
     1
102
RTVSPropertyOp24
 70
     1
102
RTVSPropertyOp25
 70
     1
102
RTVSPropertyOp26
 70
     1
102
RTVSPropertyOp27
 70
     1
  0
XRECORD
  5
A6
102
{ACAD_REACTORS
330
A5
102
}
330
A5
100
AcDbXrecord
280
     1
102
RTVSPropertyOp0
 70
     1
102
RTVSPropertyOp1
 70
     1
102
RTVSPropertyOp2
 70
     1
102
RTVSPropertyOp3
 70
     1
102
RTVSPropertyOp4
 70
     1
102
RTVSPropertyOp5
 70
     1
102
RTVSPropertyOp6
 70
     1
102
RTVSPropertyOp7
 70
     1
102
RTVSPropertyOp8
 70
     1
102
RTVSPropertyOp9
 70
     1
102
RTVSPropertyOp10
 70
     1
102
RTVSPropertyOp11
 70
     1
102
RTVSPropertyOp12
 70
     1
102
RTVSPropertyOp13
 70
     1
102
RTVSPropertyOp14
 70
     1
102
RTVSPropertyOp15
 70
     1
102
RTVSPropertyOp16
 70
     1
102
RTVSPropertyOp17
 70
     1
102
RTVSPropertyOp18
 70
     1
102
RTVSPropertyOp19
 70
     1
102
RTVSPropertyOp20
 70
     1
102
RTVSPropertyOp21
 70
     1
102
RTVSPropertyOp22
 70
     1
102
RTVSPropertyOp23
 70
     1
102
RTVSPropertyOp24
 70
     1
102
RTVSPropertyOp25
 70
     1
102
RTVSPropertyOp26
 70
     1
102
RTVSPropertyOp27
 70
     1
  0
XRECORD
  5
A4
102
{ACAD_REACTORS
330
A3
102
}
330
A3
100
AcDbXrecord
280
     1
102
RTVSPropertyOp0
 70
     1
102
RTVSPropertyOp1
 70
     1
102
RTVSPropertyOp2
 70
     1
102
RTVSPropertyOp3
 70
     1
102
RTVSPropertyOp4
 70
     1
102
RTVSPropertyOp5
 70
     1
102
RTVSPropertyOp6
 70
     1
102
RTVSPropertyOp7
 70
     1
102
RTVSPropertyOp8
 70
     1
102
RTVSPropertyOp9
 70
     1
102
RTVSPropertyOp10
 70
     1
102
RTVSPropertyOp11
 70
     1
102
RTVSPropertyOp12
 70
     1
102
RTVSPropertyOp13
 70
     1
102
RTVSPropertyOp14
 70
     1
102
RTVSPropertyOp15
 70
     1
102
RTVSPropertyOp16
 70
     1
102
RTVSPropertyOp17
 70
     1
102
RTVSPropertyOp18
 70
     1
102
RTVSPropertyOp19
 70
     1
102
RTVSPropertyOp20
 70
     1
102
RTVSPropertyOp21
 70
     1
102
RTVSPropertyOp22
 70
     1
102
RTVSPropertyOp23
 70
     1
102
RTVSPropertyOp24
 70
     1
102
RTVSPropertyOp25
 70
     1
102
RTVSPropertyOp26
 70
     1
102
RTVSPropertyOp27
 70
     1
  0
XRECORD
  5
A8
102
{ACAD_REACTORS
330
A7
102
}
330
A7
100
AcDbXrecord
280
     1
102
RTVSPropertyOp0
 70
     1
102
RTVSPropertyOp1
 70
     1
102
RTVSPropertyOp2
 70
     1
102
RTVSPropertyOp3
 70
     1
102
RTVSPropertyOp4
 70
     1
102
RTVSPropertyOp5
 70
     1
102
RTVSPropertyOp6
 70
     1
102
RTVSPropertyOp7
 70
     1
102
RTVSPropertyOp8
 70
     1
102
RTVSPropertyOp9
 70
     1
102
RTVSPropertyOp10
 70
     1
102
RTVSPropertyOp11
 70
     1
102
RTVSPropertyOp12
 70
     1
102
RTVSPropertyOp13
 70
     1
102
RTVSPropertyOp14
 70
     1
102
RTVSPropertyOp15
 70
     1
102
RTVSPropertyOp16
 70
     1
102
RTVSPropertyOp17
 70
     1
102
RTVSPropertyOp18
 70
     1
102
RTVSPropertyOp19
 70
     1
102
RTVSPropertyOp20
 70
     1
102
RTVSPropertyOp21
 70
     1
102
RTVSPropertyOp22
 70
     1
102
RTVSPropertyOp23
 70
     1
102
RTVSPropertyOp24
 70
     1
102
RTVSPropertyOp25
 70
     1
102
RTVSPropertyOp26
 70
     1
102
RTVSPropertyOp27
 70
     1
  0
XRECORD
  5
B0
102
{ACAD_REACTORS
330
AF
102
}
330
AF
100
AcDbXrecord
280
     1
102
RTVSPropertyOp0
 70
     1
102
RTVSPropertyOp1
 70
     1
102
RTVSPropertyOp2
 70
     1
102
RTVSPropertyOp3
 70
     1
102
RTVSPropertyOp4
 70
     1
102
RTVSPropertyOp5
 70
     1
102
RTVSPropertyOp6
 70
     1
102
RTVSPropertyOp7
 70
     1
102
RTVSPropertyOp8
 70
     1
102
RTVSPropertyOp9
 70
     1
102
RTVSPropertyOp10
 70
     1
102
RTVSPropertyOp11
 70
     1
102
RTVSPropertyOp12
 70
     1
102
RTVSPropertyOp13
 70
     1
102
RTVSPropertyOp14
 70
     1
102
RTVSPropertyOp15
 70
     1
102
RTVSPropertyOp16
 70
     1
102
RTVSPropertyOp17
 70
     1
102
RTVSPropertyOp18
 70
     1
102
RTVSPropertyOp19
 70
     1
102
RTVSPropertyOp20
 70
     1
102
RTVSPropertyOp21
 70
     1
102
RTVSPropertyOp22
 70
     1
102
RTVSPropertyOp23
 70
     1
102
RTVSPropertyOp24
 70
     1
102
RTVSPropertyOp25
 70
     1
102
RTVSPropertyOp26
 70
     1
102
RTVSPropertyOp27
 70
     1
  0
XRECORD
  5
B8
102
{ACAD_REACTORS
330
B7
102
}
330
B7
100
AcDbXrecord
280
     1
102
RTVSPropertyOp0
 70
     1
102
RTVSPropertyOp1
 70
     1
102
RTVSPropertyOp2
 70
     1
102
RTVSPropertyOp3
 70
     1
102
RTVSPropertyOp4
 70
     1
102
RTVSPropertyOp5
 70
     1
102
RTVSPropertyOp6
 70
     1
102
RTVSPropertyOp7
 70
     1
102
RTVSPropertyOp8
 70
     1
102
RTVSPropertyOp9
 70
     1
102
RTVSPropertyOp10
 70
     1
102
RTVSPropertyOp11
 70
     1
102
RTVSPropertyOp12
 70
     1
102
RTVSPropertyOp13
 70
     1
102
RTVSPropertyOp14
 70
     1
102
RTVSPropertyOp15
 70
     1
102
RTVSPropertyOp16
 70
     1
102
RTVSPropertyOp17
 70
     1
102
RTVSPropertyOp18
 70
     1
102
RTVSPropertyOp19
 70
     1
102
RTVSPropertyOp20
 70
     1
102
RTVSPropertyOp21
 70
     1
102
RTVSPropertyOp22
 70
     1
102
RTVSPropertyOp23
 70
     1
102
RTVSPropertyOp24
 70
     1
102
RTVSPropertyOp25
 70
     1
102
RTVSPropertyOp26
 70
     1
102
RTVSPropertyOp27
 70
     1
  0
XRECORD
  5
AC
102
{ACAD_REACTORS
330
AB
102
}
330
AB
100
AcDbXrecord
280
     1
102
RTVSPropertyOp0
 70
     1
102
RTVSPropertyOp1
 70
     1
102
RTVSPropertyOp2
 70
     1
102
RTVSPropertyOp3
 70
     1
102
RTVSPropertyOp4
 70
     1
102
RTVSPropertyOp5
 70
     1
102
RTVSPropertyOp6
 70
     1
102
RTVSPropertyOp7
 70
     1
102
RTVSPropertyOp8
 70
     1
102
RTVSPropertyOp9
 70
     1
102
RTVSPropertyOp10
 70
     1
102
RTVSPropertyOp11
 70
     1
102
RTVSPropertyOp12
 70
     1
102
RTVSPropertyOp13
 70
     1
102
RTVSPropertyOp14
 70
     1
102
RTVSPropertyOp15
 70
     1
102
RTVSPropertyOp16
 70
     1
102
RTVSPropertyOp17
 70
     1
102
RTVSPropertyOp18
 70
     1
102
RTVSPropertyOp19
 70
     1
102
RTVSPropertyOp20
 70
     1
102
RTVSPropertyOp21
 70
     1
102
RTVSPropertyOp22
 70
     1
102
RTVSPropertyOp23
 70
     1
102
RTVSPropertyOp24
 70
     1
102
RTVSPropertyOp25
 70
     1
102
RTVSPropertyOp26
 70
     1
102
RTVSPropertyOp27
 70
     1
  0
XRECORD
  5
AE
102
{ACAD_REACTORS
330
AD
102
}
330
AD
100
AcDbXrecord
280
     1
102
RTVSPropertyOp0
 70
     1
102
RTVSPropertyOp1
 70
     1
102
RTVSPropertyOp2
 70
     1
102
RTVSPropertyOp3
 70
     1
102
RTVSPropertyOp4
 70
     1
102
RTVSPropertyOp5
 70
     1
102
RTVSPropertyOp6
 70
     1
102
RTVSPropertyOp7
 70
     1
102
RTVSPropertyOp8
 70
     1
102
RTVSPropertyOp9
 70
     1
102
RTVSPropertyOp10
 70
     1
102
RTVSPropertyOp11
 70
     1
102
RTVSPropertyOp12
 70
     1
102
RTVSPropertyOp13
 70
     1
102
RTVSPropertyOp14
 70
     1
102
RTVSPropertyOp15
 70
     1
102
RTVSPropertyOp16
 70
     1
102
RTVSPropertyOp17
 70
     1
102
RTVSPropertyOp18
 70
     1
102
RTVSPropertyOp19
 70
     1
102
RTVSPropertyOp20
 70
     1
102
RTVSPropertyOp21
 70
     1
102
RTVSPropertyOp22
 70
     1
102
RTVSPropertyOp23
 70
     1
102
RTVSPropertyOp24
 70
     1
102
RTVSPropertyOp25
 70
     1
102
RTVSPropertyOp26
 70
     1
102
RTVSPropertyOp27
 70
     1
  0
XRECORD
  5
B6
102
{ACAD_REACTORS
330
B5
102
}
330
B5
100
AcDbXrecord
280
     1
102
RTVSPropertyOp0
 70
     1
102
RTVSPropertyOp1
 70
     1
102
RTVSPropertyOp2
 70
     1
102
RTVSPropertyOp3
 70
     1
102
RTVSPropertyOp4
 70
     1
102
RTVSPropertyOp5
 70
     1
102
RTVSPropertyOp6
 70
     1
102
RTVSPropertyOp7
 70
     1
102
RTVSPropertyOp8
 70
     1
102
RTVSPropertyOp9
 70
     1
102
RTVSPropertyOp10
 70
     1
102
RTVSPropertyOp11
 70
     1
102
RTVSPropertyOp12
 70
     1
102
RTVSPropertyOp13
 70
     1
102
RTVSPropertyOp14
 70
     1
102
RTVSPropertyOp15
 70
     1
102
RTVSPropertyOp16
 70
     1
102
RTVSPropertyOp17
 70
     1
102
RTVSPropertyOp18
 70
     1
102
RTVSPropertyOp19
 70
     1
102
RTVSPropertyOp20
 70
     1
102
RTVSPropertyOp21
 70
     1
102
RTVSPropertyOp22
 70
     1
102
RTVSPropertyOp23
 70
     1
102
RTVSPropertyOp24
 70
     1
102
RTVSPropertyOp25
 70
     1
102
RTVSPropertyOp26
 70
     1
102
RTVSPropertyOp27
 70
     1
  0
XRECORD
  5
9A
102
{ACAD_REACTORS
330
99
102
}
330
99
100
AcDbXrecord
280
     1
102
RTVSPropertyOp0
 70
     1
102
RTVSPropertyOp1
 70
     1
102
RTVSPropertyOp2
 70
     1
102
RTVSPropertyOp3
 70
     1
102
RTVSPropertyOp4
 70
     1
102
RTVSPropertyOp5
 70
     1
102
RTVSPropertyOp6
 70
     1
102
RTVSPropertyOp7
 70
     1
102
RTVSPropertyOp8
 70
     1
102
RTVSPropertyOp9
 70
     1
102
RTVSPropertyOp10
 70
     1
102
RTVSPropertyOp11
 70
     1
102
RTVSPropertyOp12
 70
     1
102
RTVSPropertyOp13
 70
     1
102
RTVSPropertyOp14
 70
     1
102
RTVSPropertyOp15
 70
     1
102
RTVSPropertyOp16
 70
     1
102
RTVSPropertyOp17
 70
     1
102
RTVSPropertyOp18
 70
     1
102
RTVSPropertyOp19
 70
     1
102
RTVSPropertyOp20
 70
     1
102
RTVSPropertyOp21
 70
     1
102
RTVSPropertyOp22
 70
     1
102
RTVSPropertyOp23
 70
     1
102
RTVSPropertyOp24
 70
     1
102
RTVSPropertyOp25
 70
     1
102
RTVSPropertyOp26
 70
     1
102
RTVSPropertyOp27
 70
     1
  0
XRECORD
  5
9C
102
{ACAD_REACTORS
330
9B
102
}
330
9B
100
AcDbXrecord
280
     1
102
RTVSPropertyOp0
 70
     1
102
RTVSPropertyOp1
 70
     1
102
RTVSPropertyOp2
 70
     1
102
RTVSPropertyOp3
 70
     1
102
RTVSPropertyOp4
 70
     1
102
RTVSPropertyOp5
 70
     1
102
RTVSPropertyOp6
 70
     1
102
RTVSPropertyOp7
 70
     1
102
RTVSPropertyOp8
 70
     1
102
RTVSPropertyOp9
 70
     1
102
RTVSPropertyOp10
 70
     1
102
RTVSPropertyOp11
 70
     1
102
RTVSPropertyOp12
 70
     1
102
RTVSPropertyOp13
 70
     1
102
RTVSPropertyOp14
 70
     1
102
RTVSPropertyOp15
 70
     1
102
RTVSPropertyOp16
 70
     1
102
RTVSPropertyOp17
 70
     1
102
RTVSPropertyOp18
 70
     1
102
RTVSPropertyOp19
 70
     1
102
RTVSPropertyOp20
 70
     1
102
RTVSPropertyOp21
 70
     1
102
RTVSPropertyOp22
 70
     1
102
RTVSPropertyOp23
 70
     1
102
RTVSPropertyOp24
 70
     1
102
RTVSPropertyOp25
 70
     1
102
RTVSPropertyOp26
 70
     1
102
RTVSPropertyOp27
 70
     1
  0
XRECORD
  5
9E
102
{ACAD_REACTORS
330
9D
102
}
330
9D
100
AcDbXrecord
280
     1
102
RTVSPropertyOp0
 70
     1
102
RTVSPropertyOp1
 70
     1
102
RTVSPropertyOp2
 70
     1
102
RTVSPropertyOp3
 70
     1
102
RTVSPropertyOp4
 70
     1
102
RTVSPropertyOp5
 70
     1
102
RTVSPropertyOp6
 70
     1
102
RTVSPropertyOp7
 70
     1
102
RTVSPropertyOp8
 70
     1
102
RTVSPropertyOp9
 70
     1
102
RTVSPropertyOp10
 70
     1
102
RTVSPropertyOp11
 70
     1
102
RTVSPropertyOp12
 70
     1
102
RTVSPropertyOp13
 70
     1
102
RTVSPropertyOp14
 70
     1
102
RTVSPropertyOp15
 70
     1
102
RTVSPropertyOp16
 70
     1
102
RTVSPropertyOp17
 70
     1
102
RTVSPropertyOp18
 70
     1
102
RTVSPropertyOp19
 70
     1
102
RTVSPropertyOp20
 70
     1
102
RTVSPropertyOp21
 70
     1
102
RTVSPropertyOp22
 70
     1
102
RTVSPropertyOp23
 70
     1
102
RTVSPropertyOp24
 70
     1
102
RTVSPropertyOp25
 70
     1
102
RTVSPropertyOp26
 70
     1
102
RTVSPropertyOp27
 70
     1
  0
XRECORD
  5
A0
102
{ACAD_REACTORS
330
9F
102
}
330
9F
100
AcDbXrecord
280
     1
102
RTVSPropertyOp0
 70
     1
102
RTVSPropertyOp1
 70
     1
102
RTVSPropertyOp2
 70
     1
102
RTVSPropertyOp3
 70
     1
102
RTVSPropertyOp4
 70
     1
102
RTVSPropertyOp5
 70
     1
102
RTVSPropertyOp6
 70
     1
102
RTVSPropertyOp7
 70
     1
102
RTVSPropertyOp8
 70
     1
102
RTVSPropertyOp9
 70
     1
102
RTVSPropertyOp10
 70
     1
102
RTVSPropertyOp11
 70
     1
102
RTVSPropertyOp12
 70
     1
102
RTVSPropertyOp13
 70
     1
102
RTVSPropertyOp14
 70
     1
102
RTVSPropertyOp15
 70
     1
102
RTVSPropertyOp16
 70
     1
102
RTVSPropertyOp17
 70
     1
102
RTVSPropertyOp18
 70
     1
102
RTVSPropertyOp19
 70
     1
102
RTVSPropertyOp20
 70
     1
102
RTVSPropertyOp21
 70
     1
102
RTVSPropertyOp22
 70
     1
102
RTVSPropertyOp23
 70
     1
102
RTVSPropertyOp24
 70
     1
102
RTVSPropertyOp25
 70
     1
102
RTVSPropertyOp26
 70
     1
102
RTVSPropertyOp27
 70
     1
  0
XRECORD
  5
B4
102
{ACAD_REACTORS
330
B3
102
}
330
B3
100
AcDbXrecord
280
     1
102
RTVSPropertyOp0
 70
     1
102
RTVSPropertyOp1
 70
     1
102
RTVSPropertyOp2
 70
     1
102
RTVSPropertyOp3
 70
     1
102
RTVSPropertyOp4
 70
     1
102
RTVSPropertyOp5
 70
     1
102
RTVSPropertyOp6
 70
     1
102
RTVSPropertyOp7
 70
     1
102
RTVSPropertyOp8
 70
     1
102
RTVSPropertyOp9
 70
     1
102
RTVSPropertyOp10
 70
     1
102
RTVSPropertyOp11
 70
     1
102
RTVSPropertyOp12
 70
     1
102
RTVSPropertyOp13
 70
     1
102
RTVSPropertyOp14
 70
     1
102
RTVSPropertyOp15
 70
     1
102
RTVSPropertyOp16
 70
     1
102
RTVSPropertyOp17
 70
     1
102
RTVSPropertyOp18
 70
     1
102
RTVSPropertyOp19
 70
     1
102
RTVSPropertyOp20
 70
     1
102
RTVSPropertyOp21
 70
     1
102
RTVSPropertyOp22
 70
     1
102
RTVSPropertyOp23
 70
     1
102
RTVSPropertyOp24
 70
     1
102
RTVSPropertyOp25
 70
     1
102
RTVSPropertyOp26
 70
     1
102
RTVSPropertyOp27
 70
     1
  0
XRECORD
  5
AA
102
{ACAD_REACTORS
330
A9
102
}
330
A9
100
AcDbXrecord
280
     1
102
RTVSPropertyOp0
 70
     1
102
RTVSPropertyOp1
 70
     1
102
RTVSPropertyOp2
 70
     1
102
RTVSPropertyOp3
 70
     1
102
RTVSPropertyOp4
 70
     1
102
RTVSPropertyOp5
 70
     1
102
RTVSPropertyOp6
 70
     1
102
RTVSPropertyOp7
 70
     1
102
RTVSPropertyOp8
 70
     1
102
RTVSPropertyOp9
 70
     1
102
RTVSPropertyOp10
 70
     1
102
RTVSPropertyOp11
 70
     1
102
RTVSPropertyOp12
 70
     1
102
RTVSPropertyOp13
 70
     1
102
RTVSPropertyOp14
 70
     1
102
RTVSPropertyOp15
 70
     1
102
RTVSPropertyOp16
 70
     1
102
RTVSPropertyOp17
 70
     1
102
RTVSPropertyOp18
 70
     1
102
RTVSPropertyOp19
 70
     1
102
RTVSPropertyOp20
 70
     1
102
RTVSPropertyOp21
 70
     1
102
RTVSPropertyOp22
 70
     1
102
RTVSPropertyOp23
 70
     1
102
RTVSPropertyOp24
 70
     1
102
RTVSPropertyOp25
 70
     1
102
RTVSPropertyOp26
 70
     1
102
RTVSPropertyOp27
 70
     1
  0
XRECORD
  5
B2
102
{ACAD_REACTORS
330
B1
102
}
330
B1
100
AcDbXrecord
280
     1
102
RTVSPropertyOp0
 70
     1
102
RTVSPropertyOp1
 70
     1
102
RTVSPropertyOp2
 70
     1
102
RTVSPropertyOp3
 70
     1
102
RTVSPropertyOp4
 70
     1
102
RTVSPropertyOp5
 70
     1
102
RTVSPropertyOp6
 70
     1
102
RTVSPropertyOp7
 70
     1
102
RTVSPropertyOp8
 70
     1
102
RTVSPropertyOp9
 70
     1
102
RTVSPropertyOp10
 70
     1
102
RTVSPropertyOp11
 70
     1
102
RTVSPropertyOp12
 70
     1
102
RTVSPropertyOp13
 70
     1
102
RTVSPropertyOp14
 70
     1
102
RTVSPropertyOp15
 70
     1
102
RTVSPropertyOp16
 70
     1
102
RTVSPropertyOp17
 70
     1
102
RTVSPropertyOp18
 70
     1
102
RTVSPropertyOp19
 70
     1
102
RTVSPropertyOp20
 70
     1
102
RTVSPropertyOp21
 70
     1
102
RTVSPropertyOp22
 70
     1
102
RTVSPropertyOp23
 70
     1
102
RTVSPropertyOp24
 70
     1
102
RTVSPropertyOp25
 70
     1
102
RTVSPropertyOp26
 70
     1
102
RTVSPropertyOp27
 70
     1
  0
ENDSEC
  0
EOF
