  0
SECTION
  2
HEADER
  9
$ACADVER
  1
AC1014
  9
$ACADMAINTVER
 70
     9
  9
$DWGCODEPAGE
  3
ANSI_1250
  9
$INSBASE
 10
0.0
 20
0.0
 30
0.0
  9
$EXTMIN
 10
-28.1103
 20
-23.7165
 30
0.0
  9
$EXTMAX
 10
28.1103
 20
23.7162
 30
0.0
  9
$LIMMIN
 10
0.0
 20
0.0
  9
$LIMMAX
 10
12.0
 20
9.0
  9
$ORTHOMODE
 70
     0
  9
$REGENMODE
 70
     1
  9
$FILLMODE
 70
     1
  9
$QTEXTMODE
 70
     0
  9
$MIRRTEXT
 70
     1
  9
$DRAGMODE
 70
     2
  9
$LTSCALE
 40
1.0
  9
$OSMODE
 70
    37
  9
$ATTMODE
 70
     1
  9
$TEXTSIZE
 40
0.2
  9
$TRACEWID
 40
0.05
  9
$TEXTSTYLE
  7
STANDARD
  9
$CLAYER
  8
0
  9
$CELTYPE
  6
BYLAYER
  9
$CECOLOR
 62
   256
  9
$CELTSCALE
 40
1.0
  9
$DELOBJ
 70
     1
  9
$DISPSILH
 70
     0
  9
$DIMSCALE
 40
1.0
  9
$DIMASZ
 40
0.18
  9
$DIMEXO
 40
0.0625
  9
$DIMDLI
 40
0.38
  9
$DIMRND
 40
0.0
  9
$DIMDLE
 40
0.0
  9
$DIMEXE
 40
0.18
  9
$DIMTP
 40
0.0
  9
$DIMTM
 40
0.0
  9
$DIMTXT
 40
0.18
  9
$DIMCEN
 40
0.09
  9
$DIMTSZ
 40
0.0
  9
$DIMTOL
 70
     0
  9
$DIMLIM
 70
     0
  9
$DIMTIH
 70
     1
  9
$DIMTOH
 70
     1
  9
$DIMSE1
 70
     0
  9
$DIMSE2
 70
     0
  9
$DIMTAD
 70
     0
  9
$DIMZIN
 70
     0
  9
$DIMBLK
  1

  9
$DIMASO
 70
     1
  9
$DIMSHO
 70
     1
  9
$DIMPOST
  1

  9
$DIMAPOST
  1

  9
$DIMALT
 70
     0
  9
$DIMALTD
 70
     2
  9
$DIMALTF
 40
25.4
  9
$DIMLFAC
 40
1.0
  9
$DIMTOFL
 70
     0
  9
$DIMTVP
 40
0.0
  9
$DIMTIX
 70
     0
  9
$DIMSOXD
 70
     0
  9
$DIMSAH
 70
     0
  9
$DIMBLK1
  1

  9
$DIMBLK2
  1

  9
$DIMSTYLE
  2
STANDARD
  9
$DIMCLRD
 70
     0
  9
$DIMCLRE
 70
     0
  9
$DIMCLRT
 70
     0
  9
$DIMTFAC
 40
1.0
  9
$DIMGAP
 40
0.09
  9
$DIMJUST
 70
     0
  9
$DIMSD1
 70
     0
  9
$DIMSD2
 70
     0
  9
$DIMTOLJ
 70
     1
  9
$DIMTZIN
 70
     0
  9
$DIMALTZ
 70
     0
  9
$DIMALTTZ
 70
     0
  9
$DIMFIT
 70
     3
  9
$DIMUPT
 70
     0
  9
$DIMUNIT
 70
     2
  9
$DIMDEC
 70
     4
  9
$DIMTDEC
 70
     4
  9
$DIMALTU
 70
     2
  9
$DIMALTTD
 70
     2
  9
$DIMTXSTY
  7
STANDARD
  9
$DIMAUNIT
 70
     0
  9
$LUNITS
 70
     2
  9
$LUPREC
 70
     4
  9
$SKETCHINC
 40
0.1
  9
$FILLETRAD
 40
0.5
  9
$AUNITS
 70
     0
  9
$AUPREC
 70
     0
  9
$MENU
  1
.
  9
$ELEVATION
 40
0.0
  9
$PELEVATION
 40
0.0
  9
$THICKNESS
 40
0.0
  9
$LIMCHECK
 70
     0
  9
$CHAMFERA
 40
0.5
  9
$CHAMFERB
 40
0.5
  9
$CHAMFERC
 40
1.0
  9
$CHAMFERD
 40
0.0
  9
$SKPOLY
 70
     0
  9
$TDCREATE
 40
2456240.623678576
  9
$TDUPDATE
 40
2456240.623678588
  9
$TDINDWG
 40
0.0000000116
  9
$TDUSRTIMER
 40
0.0000000116
  9
$USRTIMER
 70
     1
  9
$ANGBASE
 50
0.0
  9
$ANGDIR
 70
     0
  9
$PDMODE
 70
     0
  9
$PDSIZE
 40
0.0
  9
$PLINEWID
 40
0.0
  9
$COORDS
 70
     1
  9
$SPLFRAME
 70
     0
  9
$SPLINETYPE
 70
     6
  9
$SPLINESEGS
 70
     8
  9
$ATTDIA
 70
     0
  9
$ATTREQ
 70
     1
  9
$HANDLING
 70
     1
  9
$HANDSEED
  5
C5
  9
$SURFTAB1
 70
     6
  9
$SURFTAB2
 70
     6
  9
$SURFTYPE
 70
     6
  9
$SURFU
 70
     6
  9
$SURFV
 70
     6
  9
$UCSNAME
  2

  9
$UCSORG
 10
0.0
 20
0.0
 30
0.0
  9
$UCSXDIR
 10
1.0
 20
0.0
 30
0.0
  9
$UCSYDIR
 10
0.0
 20
1.0
 30
0.0
  9
$PUCSNAME
  2

  9
$PUCSORG
 10
0.0
 20
0.0
 30
0.0
  9
$PUCSXDIR
 10
1.0
 20
0.0
 30
0.0
  9
$PUCSYDIR
 10
0.0
 20
1.0
 30
0.0
  9
$USERI1
 70
     0
  9
$USERI2
 70
     0
  9
$USERI3
 70
     0
  9
$USERI4
 70
     0
  9
$USERI5
 70
     0
  9
$USERR1
 40
0.0
  9
$USERR2
 40
0.0
  9
$USERR3
 40
0.0
  9
$USERR4
 40
0.0
  9
$USERR5
 40
0.0
  9
$WORLDVIEW
 70
     1
  9
$SHADEDGE
 70
     3
  9
$SHADEDIF
 70
    70
  9
$TILEMODE
 70
     1
  9
$MAXACTVP
 70
    64
  9
$PINSBASE
 10
0.0
 20
0.0
 30
0.0
  9
$PLIMCHECK
 70
     0
  9
$PEXTMIN
 10
1.000000000000000E+20
 20
1.000000000000000E+20
 30
1.000000000000000E+20
  9
$PEXTMAX
 10
-1.000000000000000E+20
 20
-1.000000000000000E+20
 30
-1.000000000000000E+20
  9
$PLIMMIN
 10
0.0
 20
0.0
  9
$PLIMMAX
 10
12.0
 20
9.0
  9
$UNITMODE
 70
     0
  9
$VISRETAIN
 70
     1
  9
$PLINEGEN
 70
     0
  9
$PSLTSCALE
 70
     1
  9
$TREEDEPTH
 70
  3020
  9
$PICKSTYLE
 70
     1
  9
$CMLSTYLE
  2
STANDARD
  9
$CMLJUST
 70
     0
  9
$CMLSCALE
 40
1.0
  9
$PROXYGRAPHICS
 70
     1
  9
$MEASUREMENT
 70
     0
  0
ENDSEC
  0
SECTION
  2
CLASSES
  0
CLASS
  1
ACDBDICTIONARYWDFLT
  2
AcDbDictionaryWithDefault
  3
ObjectDBX Classes
 90
        0
280
     0
281
     0
  0
CLASS
  1
VISUALSTYLE
  2
AcDbVisualStyle
  3
ObjectDBX Classes
 90
     4095
280
     0
281
     0
  0
CLASS
  1
MATERIAL
  2
AcDbMaterial
  3
ObjectDBX Classes
 90
     1153
280
     0
281
     0
  0
CLASS
  1
DICTIONARYVAR
  2
AcDbDictionaryVar
  3
ObjectDBX Classes
 90
        0
280
     0
281
     0
  0
CLASS
  1
XRECORD
  2
AcDbXrecord
  3
AutoCAD 2000
 90
        0
280
     0
281
     0
  0
CLASS
  1
LWPOLYLINE
  2
AcDbPolyline
  3
AutoCAD 2000
 90
        0
280
     0
281
     1
  0
CLASS
  1
HATCH
  2
AcDbHatch
  3
AutoCAD 2000
 90
        0
280
     0
281
     1
  0
CLASS
  1
ACDBPLACEHOLDER
  2
AcDbPlaceHolder
  3
ObjectDBX Classes
 90
        0
280
     0
281
     0
  0
CLASS
  1
LAYOUT
  2
AcDbLayout
  3
ObjectDBX Classes
 90
        0
280
     0
281
     0
  0
ENDSEC
  0
SECTION
  2
TABLES
  0
TABLE
  2
VPORT
  5
8
330
0
100
AcDbSymbolTable
 70
     1
  0
VPORT
  5
29
330
8
100
AcDbSymbolTableRecord
100
AcDbViewportTableRecord
  2
*ACTIVE
 70
     0
 10
0.0
 20
0.0
 11
1.0
 21
1.0
 12
10.42990654205607
 22
4.5
 13
0.0
 23
0.0
 14
0.5
 24
0.5
 15
0.5
 25
0.5
 16
0.0
 26
0.0
 36
1.0
 17
0.0
 27
0.0
 37
0.0
 40
9.0
 41
1.972972972850329
 42
50.0
 43
0.0
 44
0.0
 50
0.0
 51
0.0
 71
     0
 72
   100
 73
     1
 74
     3
 75
     0
 76
     0
 77
     0
 78
     0
  0
ENDTAB
  0
TABLE
  2
LTYPE
  5
5
330
0
100
AcDbSymbolTable
 70
     3
  0
LTYPE
  5
14
330
5
100
AcDbSymbolTableRecord
100
AcDbLinetypeTableRecord
  2
BYBLOCK
 70
     0
  3

 72
    65
 73
     0
 40
0.0
  0
LTYPE
  5
15
330
5
100
AcDbSymbolTableRecord
100
AcDbLinetypeTableRecord
  2
BYLAYER
 70
     0
  3

 72
    65
 73
     0
 40
0.0
  0
LTYPE
  5
16
330
5
100
AcDbSymbolTableRecord
100
AcDbLinetypeTableRecord
  2
CONTINUOUS
 70
     0
  3
Solid line
 72
    65
 73
     0
 40
0.0
  0
LTYPE
  5
97
330
5
100
AcDbSymbolTableRecord
100
AcDbLinetypeTableRecord
  2
NEW_LINE1
 70
     0
  3

 72
    65
 73
     4
 40
1.2
 49
0.5
 74
     4
 75
     0
340
0
 46
1.0
 50
0.0
 44
0.0
 45
0.0
 49
-0.3
 74
     4
 75
     0
340
0
 46
1.0
 50
0.0
 44
0.0
 45
0.0
 49
0.1
 74
     4
 75
     0
340
0
 46
1.0
 50
0.0
 44
0.0
 45
0.0
 49
-0.3
 74
     4
 75
     0
340
0
 46
1.0
 50
0.0
 44
0.0
 45
0.0
  0
LTYPE
  5
99
330
5
100
AcDbSymbolTableRecord
100
AcDbLinetypeTableRecord
  2
NEW_LINE2
 70
     0
  3

 72
    65
 73
     4
 40
1.2
 49
0.5
 74
     4
 75
     0
340
0
 46
1.0
 50
0.0
 44
0.0
 45
0.0
 49
-0.3
 74
     4
 75
     0
340
0
 46
1.0
 50
0.0
 44
0.0
 45
0.0
 49
0.1
 74
     4
 75
     0
340
0
 46
1.0
 50
0.0
 44
0.0
 45
0.0
 49
-0.3
 74
     4
 75
     0
340
0
 46
1.0
 50
0.0
 44
0.0
 45
0.0
  0
ENDTAB
  0
TABLE
  2
LAYER
  5
2
330
0
100
AcDbSymbolTable
 70
     2
  0
LAYER
  5
10
330
2
100
AcDbSymbolTableRecord
100
AcDbLayerTableRecord
  2
0
 70
     0
 62
     7
  6
CONTINUOUS
  0
LAYER
  5
40
330
2
100
AcDbSymbolTableRecord
100
AcDbLayerTableRecord
  2
ROUND
 70
     0
 62
     7
  6
CONTINUOUS
  0
ENDTAB
  0
TABLE
  2
STYLE
  5
3
330
0
100
AcDbSymbolTable
 70
     1
  0
STYLE
  5
11
330
3
100
AcDbSymbolTableRecord
100
AcDbTextStyleTableRecord
  2
STANDARD
 70
     0
 40
0.0
 41
1.0
 50
0.0
 71
     0
 42
0.2
  3
txt
  4

  0
ENDTAB
  0
TABLE
  2
VIEW
  5
6
330
0
100
AcDbSymbolTable
 70
     0
  0
ENDTAB
  0
TABLE
  2
UCS
  5
7
330
0
100
AcDbSymbolTable
 70
     0
  0
ENDTAB
  0
TABLE
  2
APPID
  5
9
330
0
100
AcDbSymbolTable
 70
     2
  0
APPID
  5
12
330
9
100
AcDbSymbolTableRecord
100
AcDbRegAppTableRecord
  2
ACAD
 70
     0
  0
APPID
  5
3F
330
9
100
AcDbSymbolTableRecord
100
AcDbRegAppTableRecord
  2
ODA
 70
     0
  0
ENDTAB
  0
TABLE
  2
DIMSTYLE
  5
A
330
0
100
AcDbSymbolTable
 70
     1
  0
DIMSTYLE
105
27
330
A
100
AcDbSymbolTableRecord
100
AcDbDimStyleTableRecord
  2
STANDARD
 70
     0
  3

  4

  5

  6

  7

 40
1.0
 41
0.18
 42
0.0625
 43
0.38
 44
0.18
 45
0.0
 46
0.0
 47
0.0
 48
0.0
140
0.18
141
0.09
142
0.0
143
25.4
144
1.0
145
0.0
146
1.0
147
0.09
 71
     0
 72
     0
 73
     1
 74
     1
 75
     0
 76
     0
 77
     0
 78
     0
170
     0
171
     2
172
     0
173
     0
174
     0
175
     0
176
     0
177
     0
178
     0
270
     2
271
     4
272
     4
273
     2
274
     2
340
11
275
     0
280
     0
281
     0
282
     0
283
     1
284
     0
285
     0
286
     0
287
     3
288
     0
  0
ENDTAB
  0
TABLE
  2
BLOCK_RECORD
  5
1
330
0
100
AcDbSymbolTable
 70
     1
  0
BLOCK_RECORD
  5
1F
330
1
100
AcDbSymbolTableRecord
100
AcDbBlockTableRecord
  2
*MODEL_SPACE
  0
BLOCK_RECORD
  5
1B
330
1
100
AcDbSymbolTableRecord
100
AcDbBlockTableRecord
  2
*PAPER_SPACE
  0
ENDTAB
  0
ENDSEC
  0
SECTION
  2
BLOCKS
  0
BLOCK
  5
20
330
1F
100
AcDbEntity
  8
0
100
AcDbBlockBegin
  2
*MODEL_SPACE
 70
     0
 10
0.0
 20
0.0
 30
0.0
  3
*MODEL_SPACE
  1

  0
ENDBLK
  5
21
330
1F
100
AcDbEntity
  8
0
100
AcDbBlockEnd
  0
BLOCK
  5
1C
330
1B
100
AcDbEntity
 67
     1
  8
0
100
AcDbBlockBegin
  2
*PAPER_SPACE
 70
     0
 10
0.0
 20
0.0
 30
0.0
  3
*PAPER_SPACE
  1

  0
ENDBLK
  5
1D
330
1B
100
AcDbEntity
 67
     1
  8
0
100
AcDbBlockEnd
  0
ENDSEC
  0
SECTION
  2
ENTITIES
  0
SPLINE
  5
41
330
1F
100
AcDbEntity
  8
ROUND
 62
   250
100
AcDbSpline
210
0.0
220
0.0
230
1.0
 70
    24
 71
     3
 72
     8
 73
     4
 74
     0
 42
0.0000000001
 43
0.0000000001
 40
0.0
 40
0.0
 40
0.0
 40
0.0
 40
1.0
 40
1.0
 40
1.0
 40
1.0
 10
-14.4374
 20
10.5398
 30
0.0
 10
-14.4374
 20
10.5398
 30
0.0
 10
-14.4374
 20
21.8544
 30
0.0
 10
-14.4374
 20
21.8544
 30
0.0
  0
SPLINE
  5
42
330
1F
100
AcDbEntity
  8
ROUND
 62
   250
100
AcDbSpline
210
0.0
220
0.0
230
1.0
 70
    24
 71
     3
 72
     8
 73
     4
 74
     0
 42
0.0000000001
 43
0.0000000001
 40
0.0
 40
0.0
 40
0.0
 40
0.0
 40
1.0
 40
1.0
 40
1.0
 40
1.0
 10
8.8161
 20
10.6367
 30
0.0
 10
8.8161
 20
10.6367
 30
0.0
 10
8.8161
 20
22.0064
 30
0.0
 10
8.8161
 20
22.0064
 30
0.0
  0
SPLINE
  5
43
330
1F
100
AcDbEntity
  8
ROUND
 62
   250
100
AcDbSpline
210
0.0
220
0.0
230
1.0
 70
    24
 71
     3
 72
     8
 73
     4
 74
     0
 42
0.0000000001
 43
0.0000000001
 40
0.0
 40
0.0
 40
0.0
 40
0.0
 40
1.0
 40
1.0
 40
1.0
 40
1.0
 10
-14.0096
 20
20.8348
 30
0.0
 10
-14.0096
 20
20.8348
 30
0.0
 10
8.5484
 20
20.8348
 30
0.0
 10
8.5484
 20
20.8348
 30
0.0
  0
SPLINE
  5
44
330
1F
100
AcDbEntity
  8
ROUND
 62
   250
100
AcDbSpline
210
0.0
220
0.0
230
1.0
 70
     8
 71
     3
 72
    16
 73
    12
 74
     0
 42
0.0000000001
 43
0.0000000001
 40
0.0
 40
0.0
 40
0.0
 40
0.0
 40
0.25
 40
0.25
 40
0.25
 40
0.25
 40
0.5
 40
0.5
 40
0.5
 40
0.5
 40
1.0
 40
1.0
 40
1.0
 40
1.0
 10
-16.6759
 20
0.6853
 30
0.0
 10
-16.6759
 20
0.6853
 30
0.0
 10
-16.7016
 20
3.3339
 30
0.0
 10
-16.7016
 20
3.3339
 30
0.0
 10
-16.7016
 20
3.3339
 30
0.0
 10
-16.7016
 20
3.3339
 30
0.0
 10
11.0804
 20
3.3339
 30
0.0
 10
11.0804
 20
3.3339
 30
0.0
 10
11.0804
 20
3.3339
 30
0.0
 10
11.0804
 20
3.3339
 30
0.0
 10
11.0461
 20
0.7517
 30
0.0
 10
11.0461
 20
0.7517
 30
0.0
  0
SPLINE
  5
45
330
1F
100
AcDbEntity
  8
ROUND
 62
   250
100
AcDbSpline
210
0.0
220
0.0
230
1.0
 70
     8
 71
     3
 72
    16
 73
    12
 74
     0
 42
0.0000000001
 43
0.0000000001
 40
0.0
 40
0.0
 40
0.0
 40
0.0
 40
0.25
 40
0.25
 40
0.25
 40
0.25
 40
0.5
 40
0.5
 40
0.5
 40
0.5
 40
1.0
 40
1.0
 40
1.0
 40
1.0
 10
19.0882
 20
-4.347
 30
0.0
 10
19.0882
 20
-4.347
 30
0.0
 10
14.5123
 20
-4.347
 30
0.0
 10
14.5123
 20
-4.347
 30
0.0
 10
14.5123
 20
-4.347
 30
0.0
 10
14.5123
 20
-4.347
 30
0.0
 10
14.4989
 20
-22.3914
 30
0.0
 10
14.4989
 20
-22.3914
 30
0.0
 10
14.4989
 20
-22.3914
 30
0.0
 10
14.4989
 20
-22.3914
 30
0.0
 10
19.1352
 20
-22.3914
 30
0.0
 10
19.1352
 20
-22.3914
 30
0.0
  0
SPLINE
  5
46
330
1F
100
AcDbEntity
  8
ROUND
 62
   250
100
AcDbSpline
210
0.0
220
0.0
230
1.0
 70
     8
 71
     3
 72
   124
 73
   120
 74
     0
 42
0.0000000001
 43
0.0000000001
 40
0.0
 40
0.0
 40
0.0
 40
0.0
 40
0.032258064516129
 40
0.032258064516129
 40
0.032258064516129
 40
0.032258064516129
 40
0.0645161290322581
 40
0.0645161290322581
 40
0.0645161290322581
 40
0.0645161290322581
 40
0.0967741935483871
 40
0.0967741935483871
 40
0.0967741935483871
 40
0.0967741935483871
 40
0.1290322580645161
 40
0.1290322580645161
 40
0.1290322580645161
 40
0.1290322580645161
 40
0.1612903225806452
 40
0.1612903225806452
 40
0.1612903225806452
 40
0.1612903225806452
 40
0.1935483870967742
 40
0.1935483870967742
 40
0.1935483870967742
 40
0.1935483870967742
 40
0.2258064516129032
 40
0.2258064516129032
 40
0.2258064516129032
 40
0.2258064516129032
 40
0.2580645161290323
 40
0.2580645161290323
 40
0.2580645161290323
 40
0.2580645161290323
 40
0.2903225806451613
 40
0.2903225806451613
 40
0.2903225806451613
 40
0.2903225806451613
 40
0.3225806451612903
 40
0.3225806451612903
 40
0.3225806451612903
 40
0.3225806451612903
 40
0.3548387096774194
 40
0.3548387096774194
 40
0.3548387096774194
 40
0.3548387096774194
 40
0.3870967741935484
 40
0.3870967741935484
 40
0.3870967741935484
 40
0.3870967741935484
 40
0.4193548387096774
 40
0.4193548387096774
 40
0.4193548387096774
 40
0.4193548387096774
 40
0.4516129032258064
 40
0.4516129032258064
 40
0.4516129032258064
 40
0.4516129032258064
 40
0.4838709677419355
 40
0.4838709677419355
 40
0.4838709677419355
 40
0.4838709677419355
 40
0.5161290322580645
 40
0.5161290322580645
 40
0.5161290322580645
 40
0.5161290322580645
 40
0.5483870967741935
 40
0.5483870967741935
 40
0.5483870967741935
 40
0.5483870967741935
 40
0.5806451612903226
 40
0.5806451612903226
 40
0.5806451612903226
 40
0.5806451612903226
 40
0.6129032258064516
 40
0.6129032258064516
 40
0.6129032258064516
 40
0.6129032258064516
 40
0.6451612903225806
 40
0.6451612903225806
 40
0.6451612903225806
 40
0.6451612903225806
 40
0.6774193548387096
 40
0.6774193548387096
 40
0.6774193548387096
 40
0.6774193548387096
 40
0.7096774193548387
 40
0.7096774193548387
 40
0.7096774193548387
 40
0.7096774193548387
 40
0.7419354838709677
 40
0.7419354838709677
 40
0.7419354838709677
 40
0.7419354838709677
 40
0.7741935483870968
 40
0.7741935483870968
 40
0.7741935483870968
 40
0.7741935483870968
 40
0.8064516129032258
 40
0.8064516129032258
 40
0.8064516129032258
 40
0.8064516129032258
 40
0.8387096774193549
 40
0.8387096774193549
 40
0.8387096774193549
 40
0.8387096774193549
 40
0.8709677419354839
 40
0.8709677419354839
 40
0.8709677419354839
 40
0.8709677419354839
 40
0.9032258064516129
 40
0.9032258064516129
 40
0.9032258064516129
 40
0.9032258064516129
 40
0.9354838709677419
 40
0.9354838709677419
 40
0.9354838709677419
 40
0.9354838709677419
 40
1.0
 40
1.0
 40
1.0
 40
1.0
 10
18.4345
 20
-22.2997
 30
0.0
 10
18.4345
 20
-22.2997
 30
0.0
 10
15.4928
 20
-22.2997
 30
0.0
 10
15.4928
 20
-22.2997
 30
0.0
 10
15.4928
 20
-22.2997
 30
0.0
 10
15.4928
 20
-22.2997
 30
0.0
 10
15.4977
 20
-20.1994
 30
0.0
 10
15.4977
 20
-20.1994
 30
0.0
 10
15.4977
 20
-20.1994
 30
0.0
 10
15.4977
 20
-20.1994
 30
0.0
 10
18.6349
 20
-20.1741
 30
0.0
 10
18.6349
 20
-20.1741
 30
0.0
 10
18.6349
 20
-20.1741
 30
0.0
 10
18.6349
 20
-20.1741
 30
0.0
 10
18.8626
 20
-20.0476
 30
0.0
 10
18.8626
 20
-20.0476
 30
0.0
 10
18.8626
 20
-20.0476
 30
0.0
 10
18.8626
 20
-20.0476
 30
0.0
 10
19.0903
 20
-19.7946
 30
0.0
 10
19.0903
 20
-19.7946
 30
0.0
 10
19.0903
 20
-19.7946
 30
0.0
 10
19.0903
 20
-19.7946
 30
0.0
 10
19.0903
 20
-19.5669
 30
0.0
 10
19.0903
 20
-19.5669
 30
0.0
 10
19.0903
 20
-19.5669
 30
0.0
 10
19.0903
 20
-19.5669
 30
0.0
 10
18.9638
 20
-19.4151
 30
0.0
 10
18.9638
 20
-19.4151
 30
0.0
 10
18.9638
 20
-19.4151
 30
0.0
 10
18.9638
 20
-19.4151
 30
0.0
 10
18.812
 20
-19.2633
 30
0.0
 10
18.812
 20
-19.2633
 30
0.0
 10
18.812
 20
-19.2633
 30
0.0
 10
18.812
 20
-19.2633
 30
0.0
 10
18.4578
 20
-19.238
 30
0.0
 10
18.4578
 20
-19.238
 30
0.0
 10
18.4578
 20
-19.238
 30
0.0
 10
18.4578
 20
-19.238
 30
0.0
 10
15.5483
 20
-19.2127
 30
0.0
 10
15.5483
 20
-19.2127
 30
0.0
 10
15.5483
 20
-19.2127
 30
0.0
 10
15.5483
 20
-19.2127
 30
0.0
 10
15.4977
 20
-13.9503
 30
0.0
 10
15.4977
 20
-13.9503
 30
0.0
 10
15.4977
 20
-13.9503
 30
0.0
 10
15.4977
 20
-13.9503
 30
0.0
 10
18.4325
 20
-13.9756
 30
0.0
 10
18.4325
 20
-13.9756
 30
0.0
 10
18.4325
 20
-13.9756
 30
0.0
 10
18.4325
 20
-13.9756
 30
0.0
 10
18.7108
 20
-13.8997
 30
0.0
 10
18.7108
 20
-13.8997
 30
0.0
 10
18.7108
 20
-13.8997
 30
0.0
 10
18.7108
 20
-13.8997
 30
0.0
 10
18.9385
 20
-13.7479
 30
0.0
 10
18.9385
 20
-13.7479
 30
0.0
 10
18.9385
 20
-13.7479
 30
0.0
 10
18.9385
 20
-13.7479
 30
0.0
 10
19.065
 20
-13.4949
 30
0.0
 10
19.065
 20
-13.4949
 30
0.0
 10
19.065
 20
-13.4949
 30
0.0
 10
19.065
 20
-13.4949
 30
0.0
 10
19.065
 20
-13.1913
 30
0.0
 10
19.065
 20
-13.1913
 30
0.0
 10
19.065
 20
-13.1913
 30
0.0
 10
19.065
 20
-13.1913
 30
0.0
 10
18.9638
 20
-12.9636
 30
0.0
 10
18.9638
 20
-12.9636
 30
0.0
 10
18.9638
 20
-12.9636
 30
0.0
 10
18.9638
 20
-12.9636
 30
0.0
 10
18.7614
 20
-12.7865
 30
0.0
 10
18.7614
 20
-12.7865
 30
0.0
 10
18.7614
 20
-12.7865
 30
0.0
 10
18.7614
 20
-12.7865
 30
0.0
 10
18.5084
 20
-12.7106
 30
0.0
 10
18.5084
 20
-12.7106
 30
0.0
 10
18.5084
 20
-12.7106
 30
0.0
 10
18.5084
 20
-12.7106
 30
0.0
 10
15.523
 20
-12.7359
 30
0.0
 10
15.523
 20
-12.7359
 30
0.0
 10
15.523
 20
-12.7359
 30
0.0
 10
15.523
 20
-12.7359
 30
0.0
 10
15.4977
 20
-7.4482
 30
0.0
 10
15.4977
 20
-7.4482
 30
0.0
 10
15.4977
 20
-7.4482
 30
0.0
 10
15.4977
 20
-7.4482
 30
0.0
 10
18.5566
 20
-7.4416
 30
0.0
 10
18.5566
 20
-7.4416
 30
0.0
 10
18.5566
 20
-7.4416
 30
0.0
 10
18.5566
 20
-7.4416
 30
0.0
 10
18.88
 20
-7.3463
 30
0.0
 10
18.88
 20
-7.3463
 30
0.0
 10
18.88
 20
-7.3463
 30
0.0
 10
18.88
 20
-7.3463
 30
0.0
 10
19.0892
 20
-7.0795
 30
0.0
 10
19.0892
 20
-7.0795
 30
0.0
 10
19.0892
 20
-7.0795
 30
0.0
 10
19.0892
 20
-7.0795
 30
0.0
 10
19.0892
 20
-6.8699
 30
0.0
 10
19.0892
 20
-6.8699
 30
0.0
 10
19.0892
 20
-6.8699
 30
0.0
 10
19.0892
 20
-6.8699
 30
0.0
 10
18.9941
 20
-6.6793
 30
0.0
 10
18.9941
 20
-6.6793
 30
0.0
 10
18.9941
 20
-6.6793
 30
0.0
 10
18.9941
 20
-6.6793
 30
0.0
 10
18.6898
 20
-6.565
 30
0.0
 10
18.6898
 20
-6.565
 30
0.0
 10
18.6898
 20
-6.565
 30
0.0
 10
18.6898
 20
-6.565
 30
0.0
 10
18.4805
 20
-6.5268
 30
0.0
 10
18.4805
 20
-6.5268
 30
0.0
 10
18.4805
 20
-6.5268
 30
0.0
 10
18.4805
 20
-6.5268
 30
0.0
 10
15.4945
 20
-6.5268
 30
0.0
 10
15.4945
 20
-6.5268
 30
0.0
 10
15.4945
 20
-6.5268
 30
0.0
 10
15.4945
 20
-6.5268
 30
0.0
 10
15.4945
 20
-4.3161
 30
0.0
 10
15.4945
 20
-4.3161
 30
0.0
  0
SPLINE
  5
47
330
1F
100
AcDbEntity
  8
ROUND
 62
   250
100
AcDbSpline
210
0.0
220
0.0
230
1.0
 70
     8
 71
     3
 72
    36
 73
    32
 74
     0
 42
0.0000000001
 43
0.0000000001
 40
0.0
 40
0.0
 40
0.0
 40
0.0
 40
0.1111111111111111
 40
0.1111111111111111
 40
0.1111111111111111
 40
0.1111111111111111
 40
0.2222222222222222
 40
0.2222222222222222
 40
0.2222222222222222
 40
0.2222222222222222
 40
0.3333333333333333
 40
0.3333333333333333
 40
0.3333333333333333
 40
0.3333333333333333
 40
0.4444444444444444
 40
0.4444444444444444
 40
0.4444444444444444
 40
0.4444444444444444
 40
0.5555555555555556
 40
0.5555555555555556
 40
0.5555555555555556
 40
0.5555555555555556
 40
0.6666666666666666
 40
0.6666666666666666
 40
0.6666666666666666
 40
0.6666666666666666
 40
0.7777777777777778
 40
0.7777777777777778
 40
0.7777777777777778
 40
0.7777777777777778
 40
1.0
 40
1.0
 40
1.0
 40
1.0
 10
15.4842
 20
-4.5067
 30
0.0
 10
15.4842
 20
-4.5067
 30
0.0
 10
19.5441
 20
-4.5102
 30
0.0
 10
19.9051
 20
-4.5102
 30
0.0
 10
19.9051
 20
-4.5102
 30
0.0
 10
20.2661
 20
-4.5102
 30
0.0
 10
20.5589
 20
-4.8035
 30
0.0
 10
20.5589
 20
-5.1644
 30
0.0
 10
20.5589
 20
-5.1644
 30
0.0
 10
20.5589
 20
-5.5253
 30
0.0
 10
20.5713
 20
-21.5031
 30
0.0
 10
20.5713
 20
-21.5031
 30
0.0
 10
20.5713
 20
-21.5031
 30
0.0
 10
20.5713
 20
-21.5031
 30
0.0
 10
20.4775
 20
-21.7615
 30
0.0
 10
20.4775
 20
-21.7615
 30
0.0
 10
20.4775
 20
-21.7615
 30
0.0
 10
20.4775
 20
-21.7615
 30
0.0
 10
20.3592
 20
-21.989
 30
0.0
 10
20.3592
 20
-21.989
 30
0.0
 10
20.3592
 20
-21.989
 30
0.0
 10
20.3592
 20
-21.989
 30
0.0
 10
20.1681
 20
-22.1255
 30
0.0
 10
20.1681
 20
-22.1255
 30
0.0
 10
20.1681
 20
-22.1255
 30
0.0
 10
20.1681
 20
-22.1255
 30
0.0
 10
19.9588
 20
-22.1619
 30
0.0
 10
19.9588
 20
-22.1619
 30
0.0
 10
19.9588
 20
-22.1619
 30
0.0
 10
19.9588
 20
-22.1619
 30
0.0
 10
15.4725
 20
-22.1528
 30
0.0
 10
15.4725
 20
-22.1528
 30
0.0
  0
SPLINE
  5
48
330
1F
100
AcDbEntity
  8
ROUND
 62
   250
100
AcDbSpline
210
0.0
220
0.0
230
1.0
 70
     8
 71
     3
 72
    36
 73
    32
 74
     0
 42
0.0000000001
 43
0.0000000001
 40
0.0
 40
0.0
 40
0.0
 40
0.0
 40
0.1111111111111111
 40
0.1111111111111111
 40
0.1111111111111111
 40
0.1111111111111111
 40
0.2222222222222222
 40
0.2222222222222222
 40
0.2222222222222222
 40
0.2222222222222222
 40
0.3333333333333333
 40
0.3333333333333333
 40
0.3333333333333333
 40
0.3333333333333333
 40
0.4444444444444444
 40
0.4444444444444444
 40
0.4444444444444444
 40
0.4444444444444444
 40
0.5555555555555556
 40
0.5555555555555556
 40
0.5555555555555556
 40
0.5555555555555556
 40
0.6666666666666666
 40
0.6666666666666666
 40
0.6666666666666666
 40
0.6666666666666666
 40
0.7777777777777778
 40
0.7777777777777778
 40
0.7777777777777778
 40
0.7777777777777778
 40
1.0
 40
1.0
 40
1.0
 40
1.0
 10
-15.1154
 20
-15.9532
 30
0.0
 10
-15.1154
 20
-15.9532
 30
0.0
 10
-15.067
 20
-21.2931
 30
0.0
 10
-15.067
 20
-21.8339
 30
0.0
 10
-15.067
 20
-21.8339
 30
0.0
 10
-15.067
 20
-22.3747
 30
0.0
 10
-14.6278
 20
-22.8138
 30
0.0
 10
-14.087
 20
-22.8138
 30
0.0
 10
-14.087
 20
-22.8138
 30
0.0
 10
-13.5462
 20
-22.8138
 30
0.0
 10
8.4093
 20
-22.8271
 30
0.0
 10
8.4093
 20
-22.8271
 30
0.0
 10
8.4093
 20
-22.8271
 30
0.0
 10
8.4093
 20
-22.8271
 30
0.0
 10
8.8518
 20
-22.7386
 30
0.0
 10
8.8518
 20
-22.7386
 30
0.0
 10
8.8518
 20
-22.7386
 30
0.0
 10
8.8518
 20
-22.7386
 30
0.0
 10
9.1468
 20
-22.5321
 30
0.0
 10
9.1468
 20
-22.5321
 30
0.0
 10
9.1468
 20
-22.5321
 30
0.0
 10
9.1468
 20
-22.5321
 30
0.0
 10
9.3238
 20
-22.3256
 30
0.0
 10
9.3238
 20
-22.3256
 30
0.0
 10
9.3238
 20
-22.3256
 30
0.0
 10
9.3238
 20
-22.3256
 30
0.0
 10
9.4713
 20
-21.9716
 30
0.0
 10
9.4713
 20
-21.9716
 30
0.0
 10
9.4713
 20
-21.9716
 30
0.0
 10
9.4713
 20
-21.9716
 30
0.0
 10
9.4418
 20
-20.2606
 30
0.0
 10
9.4418
 20
-20.2606
 30
0.0
  0
SPLINE
  5
49
330
1F
100
AcDbEntity
  8
ROUND
 62
   250
100
AcDbSpline
210
0.0
220
0.0
230
1.0
 70
     8
 71
     3
 72
    24
 73
    20
 74
     0
 42
0.0000000001
 43
0.0000000001
 40
0.0
 40
0.0
 40
0.0
 40
0.0
 40
0.1666666666666667
 40
0.1666666666666667
 40
0.1666666666666667
 40
0.1666666666666667
 40
0.3333333333333333
 40
0.3333333333333333
 40
0.3333333333333333
 40
0.3333333333333333
 40
0.5
 40
0.5
 40
0.5
 40
0.5
 40
0.6666666666666666
 40
0.6666666666666666
 40
0.6666666666666666
 40
0.6666666666666666
 40
1.0
 40
1.0
 40
1.0
 40
1.0
 10
-18.2031
 20
-3.9627
 30
0.0
 10
-18.2031
 20
-3.9627
 30
0.0
 10
-17.4395
 20
0.5525
 30
0.0
 10
-17.4395
 20
0.5525
 30
0.0
 10
-17.4395
 20
0.5525
 30
0.0
 10
-17.4395
 20
0.5525
 30
0.0
 10
-17.2842
 20
0.7191
 30
0.0
 10
-17.2842
 20
0.7191
 30
0.0
 10
-17.2842
 20
0.7191
 30
0.0
 10
-17.2842
 20
0.7191
 30
0.0
 10
11.663
 20
0.7191
 30
0.0
 10
11.663
 20
0.7191
 30
0.0
 10
11.663
 20
0.7191
 30
0.0
 10
11.663
 20
0.7191
 30
0.0
 10
11.837
 20
0.5749
 30
0.0
 10
11.837
 20
0.5749
 30
0.0
 10
11.837
 20
0.5749
 30
0.0
 10
11.837
 20
0.5749
 30
0.0
 10
12.6277
 20
-3.9366
 30
0.0
 10
12.6277
 20
-3.9366
 30
0.0
  0
SPLINE
  5
4A
330
1F
100
AcDbEntity
  8
ROUND
 62
   250
100
AcDbSpline
210
0.0
220
0.0
230
1.0
 70
    11
 71
     3
 72
    20
 73
    16
 74
     0
 42
0.0000000001
 43
0.0000000001
 40
0.0
 40
0.0
 40
0.0
 40
0.0
 40
0.2
 40
0.2
 40
0.2
 40
0.2
 40
0.4
 40
0.4
 40
0.4
 40
0.4
 40
0.6
 40
0.6
 40
0.6
 40
0.6
 40
1.0
 40
1.0
 40
1.0
 40
1.0
 10
13.7377
 20
-3.9315
 30
0.0
 10
13.7377
 20
-3.9315
 30
0.0
 10
13.7377
 20
-5.1899
 30
0.0
 10
13.7377
 20
-5.1899
 30
0.0
 10
13.7377
 20
-5.1899
 30
0.0
 10
13.7377
 20
-5.1899
 30
0.0
 10
-19.3195
 20
-5.1899
 30
0.0
 10
-19.3195
 20
-5.1899
 30
0.0
 10
-19.3195
 20
-5.1899
 30
0.0
 10
-19.3195
 20
-5.1899
 30
0.0
 10
-19.3195
 20
-3.9315
 30
0.0
 10
-19.3195
 20
-3.9315
 30
0.0
 10
-19.3195
 20
-3.9315
 30
0.0
 10
-19.3195
 20
-3.9315
 30
0.0
 10
13.7377
 20
-3.9315
 30
0.0
 10
13.7377
 20
-3.9315
 30
0.0
  0
SPLINE
  5
4B
330
1F
100
AcDbEntity
  8
ROUND
 62
   250
100
AcDbSpline
210
0.0
220
0.0
230
1.0
 70
     8
 71
     3
 72
    16
 73
    12
 74
     0
 42
0.0000000001
 43
0.0000000001
 40
0.0
 40
0.0
 40
0.0
 40
0.0
 40
0.25
 40
0.25
 40
0.25
 40
0.25
 40
0.5
 40
0.5
 40
0.5
 40
0.5
 40
1.0
 40
1.0
 40
1.0
 40
1.0
 10
14.532
 20
-5.489
 30
0.0
 10
14.532
 20
-5.489
 30
0.0
 10
14.3489
 20
-5.491
 30
0.0
 10
14.3489
 20
-5.491
 30
0.0
 10
14.3489
 20
-5.491
 30
0.0
 10
14.3489
 20
-5.491
 30
0.0
 10
14.3489
 20
-21.1796
 30
0.0
 10
14.3489
 20
-21.1796
 30
0.0
 10
14.3489
 20
-21.1796
 30
0.0
 10
14.3489
 20
-21.1796
 30
0.0
 10
14.529
 20
-21.1775
 30
0.0
 10
14.529
 20
-21.1775
 30
0.0
  0
SPLINE
  5
4C
330
1F
100
AcDbEntity
  8
ROUND
 62
   250
100
AcDbSpline
210
0.0
220
0.0
230
1.0
 70
     8
 71
     3
 72
    72
 73
    68
 74
     0
 42
0.0000000001
 43
0.0000000001
 40
0.0
 40
0.0
 40
0.0
 40
0.0
 40
0.0555555555555556
 40
0.0555555555555556
 40
0.0555555555555556
 40
0.0555555555555556
 40
0.1111111111111111
 40
0.1111111111111111
 40
0.1111111111111111
 40
0.1111111111111111
 40
0.1666666666666667
 40
0.1666666666666667
 40
0.1666666666666667
 40
0.1666666666666667
 40
0.2222222222222222
 40
0.2222222222222222
 40
0.2222222222222222
 40
0.2222222222222222
 40
0.2777777777777778
 40
0.2777777777777778
 40
0.2777777777777778
 40
0.2777777777777778
 40
0.3333333333333333
 40
0.3333333333333333
 40
0.3333333333333333
 40
0.3333333333333333
 40
0.3888888888888889
 40
0.3888888888888889
 40
0.3888888888888889
 40
0.3888888888888889
 40
0.4444444444444444
 40
0.4444444444444444
 40
0.4444444444444444
 40
0.4444444444444444
 40
0.5
 40
0.5
 40
0.5
 40
0.5
 40
0.5555555555555556
 40
0.5555555555555556
 40
0.5555555555555556
 40
0.5555555555555556
 40
0.6111111111111112
 40
0.6111111111111112
 40
0.6111111111111112
 40
0.6111111111111112
 40
0.6666666666666666
 40
0.6666666666666666
 40
0.6666666666666666
 40
0.6666666666666666
 40
0.7222222222222222
 40
0.7222222222222222
 40
0.7222222222222222
 40
0.7222222222222222
 40
0.7777777777777778
 40
0.7777777777777778
 40
0.7777777777777778
 40
0.7777777777777778
 40
0.8333333333333334
 40
0.8333333333333334
 40
0.8333333333333334
 40
0.8333333333333334
 40
0.8888888888888888
 40
0.8888888888888888
 40
0.8888888888888888
 40
0.8888888888888888
 40
1.0
 40
1.0
 40
1.0
 40
1.0
 10
-18.3391
 20
-5.2491
 30
0.0
 10
-18.3391
 20
-5.2491
 30
0.0
 10
-18.3362
 20
-14.0797
 30
0.0
 10
-18.3362
 20
-14.5552
 30
0.0
 10
-18.3362
 20
-14.5552
 30
0.0
 10
-18.3362
 20
-15.0307
 30
0.0
 10
-17.9947
 20
-15.4376
 30
0.0
 10
-17.5255
 20
-15.5211
 30
0.0
 10
-17.5255
 20
-15.5211
 30
0.0
 10
-17.0563
 20
-15.6046
 30
0.0
 10
11.6077
 20
-20.7098
 30
0.0
 10
11.6077
 20
-20.7098
 30
0.0
 10
11.6077
 20
-20.7098
 30
0.0
 10
11.6077
 20
-20.7098
 30
0.0
 10
12.0064
 20
-20.6655
 30
0.0
 10
12.0064
 20
-20.6655
 30
0.0
 10
12.0064
 20
-20.6655
 30
0.0
 10
12.0064
 20
-20.6655
 30
0.0
 10
12.1227
 20
-20.526
 30
0.0
 10
12.1227
 20
-20.526
 30
0.0
 10
12.1227
 20
-20.526
 30
0.0
 10
12.1227
 20
-20.526
 30
0.0
 10
12.2279
 20
-20.3997
 30
0.0
 10
12.2279
 20
-20.3997
 30
0.0
 10
12.2279
 20
-20.3997
 30
0.0
 10
12.2279
 20
-20.3997
 30
0.0
 10
12.2722
 20
-20.001
 30
0.0
 10
12.2722
 20
-20.001
 30
0.0
 10
12.2722
 20
-20.001
 30
0.0
 10
12.2722
 20
-20.001
 30
0.0
 10
12.0507
 20
-19.1593
 30
0.0
 10
12.0507
 20
-19.1593
 30
0.0
 10
12.0507
 20
-19.1593
 30
0.0
 10
12.0507
 20
-19.1593
 30
0.0
 10
11.4305
 20
-17.6974
 30
0.0
 10
11.4305
 20
-17.6974
 30
0.0
 10
11.4305
 20
-17.6974
 30
0.0
 10
11.4305
 20
-17.6974
 30
0.0
 10
11.1647
 20
-16.2798
 30
0.0
 10
11.1647
 20
-16.2798
 30
0.0
 10
11.1647
 20
-16.2798
 30
0.0
 10
11.1647
 20
-16.2798
 30
0.0
 10
10.8989
 20
-14.5964
 30
0.0
 10
10.8989
 20
-14.5964
 30
0.0
 10
10.8989
 20
-14.5964
 30
0.0
 10
10.8989
 20
-14.5964
 30
0.0
 10
10.8546
 20
-12.5143
 30
0.0
 10
10.8546
 20
-12.5143
 30
0.0
 10
10.8546
 20
-12.5143
 30
0.0
 10
10.8546
 20
-12.5143
 30
0.0
 10
11.0761
 20
-10.8752
 30
0.0
 10
11.0761
 20
-10.8752
 30
0.0
 10
11.0761
 20
-10.8752
 30
0.0
 10
11.0761
 20
-10.8752
 30
0.0
 10
11.4305
 20
-9.1032
 30
0.0
 10
11.4305
 20
-9.1032
 30
0.0
 10
11.4305
 20
-9.1032
 30
0.0
 10
11.4305
 20
-9.1032
 30
0.0
 10
12.095
 20
-7.1983
 30
0.0
 10
12.095
 20
-7.1983
 30
0.0
 10
12.095
 20
-7.1983
 30
0.0
 10
12.095
 20
-7.1983
 30
0.0
 10
12.7595
 20
-5.9136
 30
0.0
 10
12.7595
 20
-5.9136
 30
0.0
 10
12.7595
 20
-5.9136
 30
0.0
 10
12.7595
 20
-5.9136
 30
0.0
 10
12.7152
 20
-5.2048
 30
0.0
 10
12.7152
 20
-5.2048
 30
0.0
  0
SPLINE
  5
4D
330
1F
100
AcDbEntity
  8
ROUND
 62
   250
100
AcDbSpline
210
0.0
220
0.0
230
1.0
 70
    27
 71
     3
 72
    16
 73
    12
 74
     0
 42
0.0000000001
 43
0.0000000001
 40
0.0
 40
0.0
 40
0.0
 40
0.0
 40
0.25
 40
0.25
 40
0.25
 40
0.25
 40
0.5
 40
0.5
 40
0.5
 40
0.5
 40
1.0
 40
1.0
 40
1.0
 40
1.0
 10
12.1006
 20
-20.526
 30
0.0
 10
12.1006
 20
-20.526
 30
0.0
 10
12.1227
 20
-20.526
 30
0.0
 10
12.1227
 20
-20.526
 30
0.0
 10
12.1227
 20
-20.526
 30
0.0
 10
12.1227
 20
-20.526
 30
0.0
 10
14.3496
 20
-20.526
 30
0.0
 10
14.3496
 20
-20.526
 30
0.0
 10
14.3496
 20
-20.526
 30
0.0
 10
14.3496
 20
-20.526
 30
0.0
 10
12.1006
 20
-20.526
 30
0.0
 10
12.1006
 20
-20.526
 30
0.0
  0
SPLINE
  5
4E
330
1F
100
AcDbEntity
  8
ROUND
 62
   250
100
AcDbSpline
210
0.0
220
0.0
230
1.0
 70
    27
 71
     3
 72
    12
 73
     8
 74
     0
 42
0.0000000001
 43
0.0000000001
 40
0.0
 40
0.0
 40
0.0
 40
0.0
 40
0.3333333333333333
 40
0.3333333333333333
 40
0.3333333333333333
 40
0.3333333333333333
 40
1.0
 40
1.0
 40
1.0
 40
1.0
 10
-19.2868
 20
-4.5607
 30
0.0
 10
-19.2868
 20
-4.5607
 30
0.0
 10
13.7245
 20
-4.5607
 30
0.0
 10
13.7245
 20
-4.5607
 30
0.0
 10
13.7245
 20
-4.5607
 30
0.0
 10
13.7245
 20
-4.5607
 30
0.0
 10
-19.2868
 20
-4.5607
 30
0.0
 10
-19.2868
 20
-4.5607
 30
0.0
  0
SPLINE
  5
4F
330
1F
100
AcDbEntity
  8
ROUND
 62
   250
100
AcDbSpline
210
0.0
220
0.0
230
1.0
 70
    27
 71
     3
 72
    12
 73
     8
 74
     0
 42
0.0000000001
 43
0.0000000001
 40
0.0
 40
0.0
 40
0.0
 40
0.0
 40
0.3333333333333333
 40
0.3333333333333333
 40
0.3333333333333333
 40
0.3333333333333333
 40
1.0
 40
1.0
 40
1.0
 40
1.0
 10
12.6416
 20
-6.1448
 30
0.0
 10
12.6416
 20
-6.1448
 30
0.0
 10
14.3496
 20
-6.1448
 30
0.0
 10
14.3496
 20
-6.1448
 30
0.0
 10
14.3496
 20
-6.1448
 30
0.0
 10
14.3496
 20
-6.1448
 30
0.0
 10
12.6416
 20
-6.1448
 30
0.0
 10
12.6416
 20
-6.1448
 30
0.0
  0
SPLINE
  5
50
330
1F
100
AcDbEntity
  8
ROUND
 62
   250
100
AcDbSpline
210
0.0
220
0.0
230
1.0
 70
    11
 71
     3
 72
    20
 73
    16
 74
     0
 42
0.0000000001
 43
0.0000000001
 40
0.0
 40
0.0
 40
0.0
 40
0.0
 40
0.2
 40
0.2
 40
0.2
 40
0.2
 40
0.4
 40
0.4
 40
0.4
 40
0.4
 40
0.6
 40
0.6
 40
0.6
 40
0.6
 40
1.0
 40
1.0
 40
1.0
 40
1.0
 10
-14.2855
 20
5.6321
 30
0.0
 10
-14.2855
 20
5.6321
 30
0.0
 10
8.6557
 20
5.6321
 30
0.0
 10
8.6557
 20
5.6321
 30
0.0
 10
8.6557
 20
5.6321
 30
0.0
 10
8.6557
 20
5.6321
 30
0.0
 10
8.6557
 20
4.9017
 30
0.0
 10
8.6557
 20
4.9017
 30
0.0
 10
8.6557
 20
4.9017
 30
0.0
 10
8.6557
 20
4.9017
 30
0.0
 10
-14.2855
 20
4.9017
 30
0.0
 10
-14.2855
 20
4.9017
 30
0.0
 10
-14.2855
 20
4.9017
 30
0.0
 10
-14.2855
 20
4.9017
 30
0.0
 10
-14.2855
 20
5.6321
 30
0.0
 10
-14.2855
 20
5.6321
 30
0.0
  0
SPLINE
  5
51
330
1F
100
AcDbEntity
  8
ROUND
 62
   250
100
AcDbSpline
210
0.0
220
0.0
230
1.0
 70
    11
 71
     3
 72
    28
 73
    24
 74
     0
 42
0.0000000001
 43
0.0000000001
 40
0.0
 40
0.0
 40
0.0
 40
0.0
 40
0.1428571428571428
 40
0.1428571428571428
 40
0.1428571428571428
 40
0.1428571428571428
 40
0.2857142857142857
 40
0.2857142857142857
 40
0.2857142857142857
 40
0.2857142857142857
 40
0.4285714285714285
 40
0.4285714285714285
 40
0.4285714285714285
 40
0.4285714285714285
 40
0.5714285714285714
 40
0.5714285714285714
 40
0.5714285714285714
 40
0.5714285714285714
 40
0.7142857142857143
 40
0.7142857142857143
 40
0.7142857142857143
 40
0.7142857142857143
 40
1.0
 40
1.0
 40
1.0
 40
1.0
 10
-10.9818
 20
5.7853
 30
0.0
 10
-10.9818
 20
5.7853
 30
0.0
 10
-14.2502
 20
6.5099
 30
0.0
 10
-14.2502
 20
6.5099
 30
0.0
 10
-14.2502
 20
6.5099
 30
0.0
 10
-14.2502
 20
6.5099
 30
0.0
 10
-14.2899
 20
6.7768
 30
0.0
 10
-14.2899
 20
6.7768
 30
0.0
 10
-14.2899
 20
6.7768
 30
0.0
 10
-14.2899
 20
6.7768
 30
0.0
 10
8.7216
 20
6.8049
 30
0.0
 10
8.7216
 20
6.8049
 30
0.0
 10
8.7216
 20
6.8049
 30
0.0
 10
8.7216
 20
6.8049
 30
0.0
 10
8.7216
 20
6.496
 30
0.0
 10
8.7216
 20
6.496
 30
0.0
 10
8.7216
 20
6.496
 30
0.0
 10
8.7216
 20
6.496
 30
0.0
 10
5.3021
 20
5.6815
 30
0.0
 10
5.3021
 20
5.6815
 30
0.0
 10
5.3021
 20
5.6815
 30
0.0
 10
5.3021
 20
5.6815
 30
0.0
 10
-10.9818
 20
5.7853
 30
0.0
 10
-10.9818
 20
5.7853
 30
0.0
  0
SPLINE
  5
52
330
1F
100
AcDbEntity
  8
ROUND
 62
   250
100
AcDbSpline
210
0.0
220
0.0
230
1.0
 70
    27
 71
     3
 72
    12
 73
     8
 74
     0
 42
0.0000000001
 43
0.0000000001
 40
0.0
 40
0.0
 40
0.0
 40
0.0
 40
0.3333333333333333
 40
0.3333333333333333
 40
0.3333333333333333
 40
0.3333333333333333
 40
1.0
 40
1.0
 40
1.0
 40
1.0
 10
-10.4916
 20
4.9678
 30
0.0
 10
-10.4916
 20
4.9678
 30
0.0
 10
-10.4916
 20
3.3343
 30
0.0
 10
-10.4916
 20
3.3343
 30
0.0
 10
-10.4916
 20
3.3343
 30
0.0
 10
-10.4916
 20
3.3343
 30
0.0
 10
-10.4916
 20
4.9678
 30
0.0
 10
-10.4916
 20
4.9678
 30
0.0
  0
SPLINE
  5
53
330
1F
100
AcDbEntity
  8
ROUND
 62
   250
100
AcDbSpline
210
0.0
220
0.0
230
1.0
 70
    27
 71
     3
 72
    12
 73
     8
 74
     0
 42
0.0000000001
 43
0.0000000001
 40
0.0
 40
0.0
 40
0.0
 40
0.0
 40
0.3333333333333333
 40
0.3333333333333333
 40
0.3333333333333333
 40
0.3333333333333333
 40
1.0
 40
1.0
 40
1.0
 40
1.0
 10
4.8705
 20
4.9678
 30
0.0
 10
4.8705
 20
4.9678
 30
0.0
 10
4.8705
 20
3.3343
 30
0.0
 10
4.8705
 20
3.3343
 30
0.0
 10
4.8705
 20
3.3343
 30
0.0
 10
4.8705
 20
3.3343
 30
0.0
 10
4.8705
 20
4.9678
 30
0.0
 10
4.8705
 20
4.9678
 30
0.0
  0
SPLINE
  5
54
330
1F
100
AcDbEntity
  8
ROUND
 62
   250
100
AcDbSpline
210
0.0
220
0.0
230
1.0
 70
    11
 71
     3
 72
    88
 73
    84
 74
     0
 42
0.0000000001
 43
0.0000000001
 40
0.0
 40
0.0
 40
0.0
 40
0.0
 40
0.0454545454545455
 40
0.0454545454545455
 40
0.0454545454545455
 40
0.0454545454545455
 40
0.0909090909090909
 40
0.0909090909090909
 40
0.0909090909090909
 40
0.0909090909090909
 40
0.1363636363636364
 40
0.1363636363636364
 40
0.1363636363636364
 40
0.1363636363636364
 40
0.1818181818181818
 40
0.1818181818181818
 40
0.1818181818181818
 40
0.1818181818181818
 40
0.2272727272727273
 40
0.2272727272727273
 40
0.2272727272727273
 40
0.2272727272727273
 40
0.2727272727272727
 40
0.2727272727272727
 40
0.2727272727272727
 40
0.2727272727272727
 40
0.3181818181818182
 40
0.3181818181818182
 40
0.3181818181818182
 40
0.3181818181818182
 40
0.3636363636363636
 40
0.3636363636363636
 40
0.3636363636363636
 40
0.3636363636363636
 40
0.4090909090909091
 40
0.4090909090909091
 40
0.4090909090909091
 40
0.4090909090909091
 40
0.4545454545454545
 40
0.4545454545454545
 40
0.4545454545454545
 40
0.4545454545454545
 40
0.5
 40
0.5
 40
0.5
 40
0.5
 40
0.5454545454545454
 40
0.5454545454545454
 40
0.5454545454545454
 40
0.5454545454545454
 40
0.5909090909090909
 40
0.5909090909090909
 40
0.5909090909090909
 40
0.5909090909090909
 40
0.6363636363636364
 40
0.6363636363636364
 40
0.6363636363636364
 40
0.6363636363636364
 40
0.6818181818181818
 40
0.6818181818181818
 40
0.6818181818181818
 40
0.6818181818181818
 40
0.7272727272727273
 40
0.7272727272727273
 40
0.7272727272727273
 40
0.7272727272727273
 40
0.7727272727272727
 40
0.7727272727272727
 40
0.7727272727272727
 40
0.7727272727272727
 40
0.8181818181818182
 40
0.8181818181818182
 40
0.8181818181818182
 40
0.8181818181818182
 40
0.8636363636363636
 40
0.8636363636363636
 40
0.8636363636363636
 40
0.8636363636363636
 40
0.9090909090909091
 40
0.9090909090909091
 40
0.9090909090909091
 40
0.9090909090909091
 40
1.0
 40
1.0
 40
1.0
 40
1.0
 10
8.5719
 20
8.2606
 30
0.0
 10
8.5719
 20
8.2606
 30
0.0
 10
-4.8618
 20
8.2606
 30
0.0
 10
-4.8618
 20
8.2606
 30
0.0
 10
-4.8618
 20
8.2606
 30
0.0
 10
-4.8618
 20
8.2606
 30
0.0
 10
-14.1931
 20
8.2606
 30
0.0
 10
-14.1931
 20
8.2606
 30
0.0
 10
-14.1931
 20
8.2606
 30
0.0
 10
-14.1931
 20
8.2606
 30
0.0
 10
-14.3352
 20
8.3249
 30
0.0
 10
-14.3352
 20
8.3249
 30
0.0
 10
-14.3352
 20
8.3249
 30
0.0
 10
-14.3352
 20
8.3249
 30
0.0
 10
-14.3942
 20
8.5314
 30
0.0
 10
-14.3942
 20
8.5314
 30
0.0
 10
-14.3942
 20
8.5314
 30
0.0
 10
-14.3942
 20
8.5314
 30
0.0
 10
-14.3057
 20
9.3869
 30
0.0
 10
-14.3057
 20
9.3869
 30
0.0
 10
-14.3057
 20
9.3869
 30
0.0
 10
-14.3057
 20
9.3869
 30
0.0
 10
-14.0697
 20
9.5344
 30
0.0
 10
-14.0697
 20
9.5344
 30
0.0
 10
-14.0697
 20
9.5344
 30
0.0
 10
-14.0697
 20
9.5344
 30
0.0
 10
-13.6781
 20
9.6051
 30
0.0
 10
-13.6781
 20
9.6051
 30
0.0
 10
-13.6781
 20
9.6051
 30
0.0
 10
-13.6781
 20
9.6051
 30
0.0
 10
-11.9457
 20
9.9179
 30
0.0
 10
-11.9457
 20
9.9179
 30
0.0
 10
-11.9457
 20
9.9179
 30
0.0
 10
-11.9457
 20
9.9179
 30
0.0
 10
-10.3232
 20
10.2129
 30
0.0
 10
-10.3232
 20
10.2129
 30
0.0
 10
-10.3232
 20
10.2129
 30
0.0
 10
-10.3232
 20
10.2129
 30
0.0
 10
-8.6122
 20
10.4489
 30
0.0
 10
-8.6122
 20
10.4489
 30
0.0
 10
-8.6122
 20
10.4489
 30
0.0
 10
-8.6122
 20
10.4489
 30
0.0
 10
-6.3997
 20
10.6259
 30
0.0
 10
-6.3997
 20
10.6259
 30
0.0
 10
-6.3997
 20
10.6259
 30
0.0
 10
-6.3997
 20
10.6259
 30
0.0
 10
-4.3937
 20
10.6849
 30
0.0
 10
-4.3937
 20
10.6849
 30
0.0
 10
-4.3937
 20
10.6849
 30
0.0
 10
-4.3937
 20
10.6849
 30
0.0
 10
-2.3877
 20
10.6849
 30
0.0
 10
-2.3877
 20
10.6849
 30
0.0
 10
-2.3877
 20
10.6849
 30
0.0
 10
-2.3877
 20
10.6849
 30
0.0
 10
-0.5587
 20
10.6259
 30
0.0
 10
-0.5587
 20
10.6259
 30
0.0
 10
-0.5587
 20
10.6259
 30
0.0
 10
-0.5587
 20
10.6259
 30
0.0
 10
2.0078
 20
10.4489
 30
0.0
 10
2.0078
 20
10.4489
 30
0.0
 10
2.0078
 20
10.4489
 30
0.0
 10
2.0078
 20
10.4489
 30
0.0
 10
4.8103
 20
10.2129
 30
0.0
 10
4.8103
 20
10.2129
 30
0.0
 10
4.8103
 20
10.2129
 30
0.0
 10
4.8103
 20
10.2129
 30
0.0
 10
7.0228
 20
9.9474
 30
0.0
 10
7.0228
 20
9.9474
 30
0.0
 10
7.0228
 20
9.9474
 30
0.0
 10
7.0228
 20
9.9474
 30
0.0
 10
8.4683
 20
9.6229
 30
0.0
 10
8.4683
 20
9.6229
 30
0.0
 10
8.4683
 20
9.6229
 30
0.0
 10
8.4683
 20
9.6229
 30
0.0
 10
8.7633
 20
9.3279
 30
0.0
 10
8.7633
 20
9.3279
 30
0.0
 10
8.7633
 20
9.3279
 30
0.0
 10
8.7633
 20
9.3279
 30
0.0
 10
8.8223
 20
8.4724
 30
0.0
 10
8.8223
 20
8.4724
 30
0.0
 10
8.8223
 20
8.4724
 30
0.0
 10
8.8223
 20
8.4724
 30
0.0
 10
8.5719
 20
8.2606
 30
0.0
 10
8.5719
 20
8.2606
 30
0.0
  0
SPLINE
  5
55
330
1F
100
AcDbEntity
  8
ROUND
 62
   250
100
AcDbSpline
210
0.0
220
0.0
230
1.0
 70
    27
 71
     3
 72
    16
 73
    12
 74
     0
 42
0.0000000001
 43
0.0000000001
 40
0.0
 40
0.0
 40
0.0
 40
0.0
 40
0.25
 40
0.25
 40
0.25
 40
0.25
 40
0.5
 40
0.5
 40
0.5
 40
0.5
 40
1.0
 40
1.0
 40
1.0
 40
1.0
 10
-14.0456
 20
9.6051
 30
0.0
 10
-14.0456
 20
9.6051
 30
0.0
 10
-13.6781
 20
9.6051
 30
0.0
 10
-13.6781
 20
9.6051
 30
0.0
 10
-13.6781
 20
9.6051
 30
0.0
 10
-13.6781
 20
9.6051
 30
0.0
 10
8.4244
 20
9.6051
 30
0.0
 10
8.4244
 20
9.6051
 30
0.0
 10
8.4244
 20
9.6051
 30
0.0
 10
8.4244
 20
9.6051
 30
0.0
 10
-14.0456
 20
9.6051
 30
0.0
 10
-14.0456
 20
9.6051
 30
0.0
  0
SPLINE
  5
56
330
1F
100
AcDbEntity
  8
ROUND
 62
   250
100
AcDbSpline
210
0.0
220
0.0
230
1.0
 70
    27
 71
     3
 72
    12
 73
     8
 74
     0
 42
0.0000000001
 43
0.0000000001
 40
0.0
 40
0.0
 40
0.0
 40
0.0
 40
0.3333333333333333
 40
0.3333333333333333
 40
0.3333333333333333
 40
0.3333333333333333
 40
1.0
 40
1.0
 40
1.0
 40
1.0
 10
7.2841
 20
8.2605
 30
0.0
 10
7.2841
 20
8.2605
 30
0.0
 10
7.1527
 20
6.7654
 30
0.0
 10
7.1527
 20
6.7654
 30
0.0
 10
7.1527
 20
6.7654
 30
0.0
 10
7.1527
 20
6.7654
 30
0.0
 10
7.2841
 20
8.2605
 30
0.0
 10
7.2841
 20
8.2605
 30
0.0
  0
SPLINE
  5
57
330
1F
100
AcDbEntity
  8
ROUND
 62
   250
100
AcDbSpline
210
0.0
220
0.0
230
1.0
 70
    27
 71
     3
 72
    12
 73
     8
 74
     0
 42
0.0000000001
 43
0.0000000001
 40
0.0
 40
0.0
 40
0.0
 40
0.0
 40
0.3333333333333333
 40
0.3333333333333333
 40
0.3333333333333333
 40
0.3333333333333333
 40
1.0
 40
1.0
 40
1.0
 40
1.0
 10
-11.3893
 20
8.2605
 30
0.0
 10
-11.3893
 20
8.2605
 30
0.0
 10
-11.2762
 20
6.7654
 30
0.0
 10
-11.2762
 20
6.7654
 30
0.0
 10
-11.2762
 20
6.7654
 30
0.0
 10
-11.2762
 20
6.7654
 30
0.0
 10
-11.3893
 20
8.2605
 30
0.0
 10
-11.3893
 20
8.2605
 30
0.0
  0
SPLINE
  5
58
330
1F
100
AcDbEntity
  8
ROUND
 62
   250
100
AcDbSpline
210
0.0
220
0.0
230
1.0
 70
    27
 71
     3
 72
    12
 73
     8
 74
     0
 42
0.0000000001
 43
0.0000000001
 40
0.0
 40
0.0
 40
0.0
 40
0.0
 40
0.3333333333333333
 40
0.3333333333333333
 40
0.3333333333333333
 40
0.3333333333333333
 40
1.0
 40
1.0
 40
1.0
 40
1.0
 10
-8.1409
 20
8.2605
 30
0.0
 10
-8.1409
 20
8.2605
 30
0.0
 10
-8.0759
 20
6.7654
 30
0.0
 10
-8.0759
 20
6.7654
 30
0.0
 10
-8.0759
 20
6.7654
 30
0.0
 10
-8.0759
 20
6.7654
 30
0.0
 10
-8.1409
 20
8.2605
 30
0.0
 10
-8.1409
 20
8.2605
 30
0.0
  0
SPLINE
  5
59
330
1F
100
AcDbEntity
  8
ROUND
 62
   250
100
AcDbSpline
210
0.0
220
0.0
230
1.0
 70
    27
 71
     3
 72
    12
 73
     8
 74
     0
 42
0.0000000001
 43
0.0000000001
 40
0.0
 40
0.0
 40
0.0
 40
0.0
 40
0.3333333333333333
 40
0.3333333333333333
 40
0.3333333333333333
 40
0.3333333333333333
 40
1.0
 40
1.0
 40
1.0
 40
1.0
 10
-7.5739
 20
8.2605
 30
0.0
 10
-7.5739
 20
8.2605
 30
0.0
 10
-7.5089
 20
6.7654
 30
0.0
 10
-7.5089
 20
6.7654
 30
0.0
 10
-7.5089
 20
6.7654
 30
0.0
 10
-7.5089
 20
6.7654
 30
0.0
 10
-7.5739
 20
8.2605
 30
0.0
 10
-7.5739
 20
8.2605
 30
0.0
  0
SPLINE
  5
5A
330
1F
100
AcDbEntity
  8
ROUND
 62
   250
100
AcDbSpline
210
0.0
220
0.0
230
1.0
 70
    27
 71
     3
 72
    12
 73
     8
 74
     0
 42
0.0000000001
 43
0.0000000001
 40
0.0
 40
0.0
 40
0.0
 40
0.0
 40
0.3333333333333333
 40
0.3333333333333333
 40
0.3333333333333333
 40
0.3333333333333333
 40
1.0
 40
1.0
 40
1.0
 40
1.0
 10
-6.1625
 20
8.2605
 30
0.0
 10
-6.1625
 20
8.2605
 30
0.0
 10
-6.2278
 20
6.7654
 30
0.0
 10
-6.2278
 20
6.7654
 30
0.0
 10
-6.2278
 20
6.7654
 30
0.0
 10
-6.2278
 20
6.7654
 30
0.0
 10
-6.1625
 20
8.2605
 30
0.0
 10
-6.1625
 20
8.2605
 30
0.0
  0
SPLINE
  5
5B
330
1F
100
AcDbEntity
  8
ROUND
 62
   250
100
AcDbSpline
210
0.0
220
0.0
230
1.0
 70
    11
 71
     3
 72
    20
 73
    16
 74
     0
 42
0.0000000001
 43
0.0000000001
 40
0.0
 40
0.0
 40
0.0
 40
0.0
 40
0.2
 40
0.2
 40
0.2
 40
0.2
 40
0.4
 40
0.4
 40
0.4
 40
0.4
 40
0.6
 40
0.6
 40
0.6
 40
0.6
 40
1.0
 40
1.0
 40
1.0
 40
1.0
 10
-4.9023
 20
6.7654
 30
0.0
 10
-4.9023
 20
6.7654
 30
0.0
 10
-4.8618
 20
8.2606
 30
0.0
 10
-4.8618
 20
8.2606
 30
0.0
 10
-4.8618
 20
8.2606
 30
0.0
 10
-4.8618
 20
8.2606
 30
0.0
 10
-4.8617
 20
8.2654
 30
0.0
 10
-4.8617
 20
8.2654
 30
0.0
 10
-4.8617
 20
8.2654
 30
0.0
 10
-4.8617
 20
8.2654
 30
0.0
 10
-4.8618
 20
8.2606
 30
0.0
 10
-4.8618
 20
8.2606
 30
0.0
 10
-4.8618
 20
8.2606
 30
0.0
 10
-4.8618
 20
8.2606
 30
0.0
 10
-4.9023
 20
6.7654
 30
0.0
 10
-4.9023
 20
6.7654
 30
0.0
  0
SPLINE
  5
5C
330
1F
100
AcDbEntity
  8
ROUND
 62
   250
100
AcDbSpline
210
0.0
220
0.0
230
1.0
 70
    27
 71
     3
 72
    12
 73
     8
 74
     0
 42
0.0000000001
 43
0.0000000001
 40
0.0
 40
0.0
 40
0.0
 40
0.0
 40
0.3333333333333333
 40
0.3333333333333333
 40
0.3333333333333333
 40
0.3333333333333333
 40
1.0
 40
1.0
 40
1.0
 40
1.0
 10
-3.1372
 20
8.2605
 30
0.0
 10
-3.1372
 20
8.2605
 30
0.0
 10
-3.1372
 20
6.7654
 30
0.0
 10
-3.1372
 20
6.7654
 30
0.0
 10
-3.1372
 20
6.7654
 30
0.0
 10
-3.1372
 20
6.7654
 30
0.0
 10
-3.1372
 20
8.2605
 30
0.0
 10
-3.1372
 20
8.2605
 30
0.0
  0
SPLINE
  5
5D
330
1F
100
AcDbEntity
  8
ROUND
 62
   250
100
AcDbSpline
210
0.0
220
0.0
230
1.0
 70
    27
 71
     3
 72
    12
 73
     8
 74
     0
 42
0.0000000001
 43
0.0000000001
 40
0.0
 40
0.0
 40
0.0
 40
0.0
 40
0.3333333333333333
 40
0.3333333333333333
 40
0.3333333333333333
 40
0.3333333333333333
 40
1.0
 40
1.0
 40
1.0
 40
1.0
 10
-2.4837
 20
8.2605
 30
0.0
 10
-2.4837
 20
8.2605
 30
0.0
 10
-2.4837
 20
6.7654
 30
0.0
 10
-2.4837
 20
6.7654
 30
0.0
 10
-2.4837
 20
6.7654
 30
0.0
 10
-2.4837
 20
6.7654
 30
0.0
 10
-2.4837
 20
8.2605
 30
0.0
 10
-2.4837
 20
8.2605
 30
0.0
  0
SPLINE
  5
5E
330
1F
100
AcDbEntity
  8
ROUND
 62
   250
100
AcDbSpline
210
0.0
220
0.0
230
1.0
 70
    27
 71
     3
 72
    12
 73
     8
 74
     0
 42
0.0000000001
 43
0.0000000001
 40
0.0
 40
0.0
 40
0.0
 40
0.0
 40
0.3333333333333333
 40
0.3333333333333333
 40
0.3333333333333333
 40
0.3333333333333333
 40
1.0
 40
1.0
 40
1.0
 40
1.0
 10
-0.5536
 20
8.2605
 30
0.0
 10
-0.5536
 20
8.2605
 30
0.0
 10
-0.4876
 20
6.7654
 30
0.0
 10
-0.4876
 20
6.7654
 30
0.0
 10
-0.4876
 20
6.7654
 30
0.0
 10
-0.4876
 20
6.7654
 30
0.0
 10
-0.5536
 20
8.2605
 30
0.0
 10
-0.5536
 20
8.2605
 30
0.0
  0
SPLINE
  5
5F
330
1F
100
AcDbEntity
  8
ROUND
 62
   250
100
AcDbSpline
210
0.0
220
0.0
230
1.0
 70
    27
 71
     3
 72
    12
 73
     8
 74
     0
 42
0.0000000001
 43
0.0000000001
 40
0.0
 40
0.0
 40
0.0
 40
0.0
 40
0.3333333333333333
 40
0.3333333333333333
 40
0.3333333333333333
 40
0.3333333333333333
 40
1.0
 40
1.0
 40
1.0
 40
1.0
 10
1.9531
 20
8.2605
 30
0.0
 10
1.9531
 20
8.2605
 30
0.0
 10
1.8879
 20
6.7654
 30
0.0
 10
1.8879
 20
6.7654
 30
0.0
 10
1.8879
 20
6.7654
 30
0.0
 10
1.8879
 20
6.7654
 30
0.0
 10
1.9531
 20
8.2605
 30
0.0
 10
1.9531
 20
8.2605
 30
0.0
  0
SPLINE
  5
60
330
1F
100
AcDbEntity
  8
ROUND
 62
   250
100
AcDbSpline
210
0.0
220
0.0
230
1.0
 70
    27
 71
     3
 72
    12
 73
     8
 74
     0
 42
0.0000000001
 43
0.0000000001
 40
0.0
 40
0.0
 40
0.0
 40
0.0
 40
0.3333333333333333
 40
0.3333333333333333
 40
0.3333333333333333
 40
0.3333333333333333
 40
1.0
 40
1.0
 40
1.0
 40
1.0
 10
2.5196
 20
8.2605
 30
0.0
 10
2.5196
 20
8.2605
 30
0.0
 10
2.4545
 20
6.7654
 30
0.0
 10
2.4545
 20
6.7654
 30
0.0
 10
2.4545
 20
6.7654
 30
0.0
 10
2.4545
 20
6.7654
 30
0.0
 10
2.5196
 20
8.2605
 30
0.0
 10
2.5196
 20
8.2605
 30
0.0
  0
SPLINE
  5
61
330
1F
100
AcDbEntity
  8
ROUND
 62
   250
100
AcDbSpline
210
0.0
220
0.0
230
1.0
 70
    27
 71
     3
 72
    12
 73
     8
 74
     0
 42
0.0000000001
 43
0.0000000001
 40
0.0
 40
0.0
 40
0.0
 40
0.0
 40
0.3333333333333333
 40
0.3333333333333333
 40
0.3333333333333333
 40
0.3333333333333333
 40
1.0
 40
1.0
 40
1.0
 40
1.0
 10
6.095
 20
8.2605
 30
0.0
 10
6.095
 20
8.2605
 30
0.0
 10
5.982
 20
6.7654
 30
0.0
 10
5.982
 20
6.7654
 30
0.0
 10
5.982
 20
6.7654
 30
0.0
 10
5.982
 20
6.7654
 30
0.0
 10
6.095
 20
8.2605
 30
0.0
 10
6.095
 20
8.2605
 30
0.0
  0
SPLINE
  5
62
330
1F
100
AcDbEntity
  8
ROUND
 62
   250
100
AcDbSpline
210
0.0
220
0.0
230
1.0
 70
    27
 71
     3
 72
    12
 73
     8
 74
     0
 42
0.0000000001
 43
0.0000000001
 40
0.0
 40
0.0
 40
0.0
 40
0.0
 40
0.3333333333333333
 40
0.3333333333333333
 40
0.3333333333333333
 40
0.3333333333333333
 40
1.0
 40
1.0
 40
1.0
 40
1.0
 10
-12.905
 20
8.2605
 30
0.0
 10
-12.905
 20
8.2605
 30
0.0
 10
-12.7738
 20
6.7654
 30
0.0
 10
-12.7738
 20
6.7654
 30
0.0
 10
-12.7738
 20
6.7654
 30
0.0
 10
-12.7738
 20
6.7654
 30
0.0
 10
-12.905
 20
8.2605
 30
0.0
 10
-12.905
 20
8.2605
 30
0.0
  0
SPLINE
  5
63
330
1F
100
AcDbEntity
  8
ROUND
 62
   250
100
AcDbSpline
210
0.0
220
0.0
230
1.0
 70
    11
 71
     3
 72
    84
 73
    80
 74
     0
 42
0.0000000001
 43
0.0000000001
 40
0.0
 40
0.0
 40
0.0
 40
0.0
 40
0.0476190476190476
 40
0.0476190476190476
 40
0.0476190476190476
 40
0.0476190476190476
 40
0.0952380952380952
 40
0.0952380952380952
 40
0.0952380952380952
 40
0.0952380952380952
 40
0.1428571428571428
 40
0.1428571428571428
 40
0.1428571428571428
 40
0.1428571428571428
 40
0.1904761904761905
 40
0.1904761904761905
 40
0.1904761904761905
 40
0.1904761904761905
 40
0.2380952380952381
 40
0.2380952380952381
 40
0.2380952380952381
 40
0.2380952380952381
 40
0.2857142857142857
 40
0.2857142857142857
 40
0.2857142857142857
 40
0.2857142857142857
 40
0.3333333333333333
 40
0.3333333333333333
 40
0.3333333333333333
 40
0.3333333333333333
 40
0.3809523809523809
 40
0.3809523809523809
 40
0.3809523809523809
 40
0.3809523809523809
 40
0.4285714285714285
 40
0.4285714285714285
 40
0.4285714285714285
 40
0.4285714285714285
 40
0.4761904761904762
 40
0.4761904761904762
 40
0.4761904761904762
 40
0.4761904761904762
 40
0.5238095238095238
 40
0.5238095238095238
 40
0.5238095238095238
 40
0.5238095238095238
 40
0.5714285714285714
 40
0.5714285714285714
 40
0.5714285714285714
 40
0.5714285714285714
 40
0.6190476190476191
 40
0.6190476190476191
 40
0.6190476190476191
 40
0.6190476190476191
 40
0.6666666666666666
 40
0.6666666666666666
 40
0.6666666666666666
 40
0.6666666666666666
 40
0.7142857142857143
 40
0.7142857142857143
 40
0.7142857142857143
 40
0.7142857142857143
 40
0.7619047619047619
 40
0.7619047619047619
 40
0.7619047619047619
 40
0.7619047619047619
 40
0.8095238095238095
 40
0.8095238095238095
 40
0.8095238095238095
 40
0.8095238095238095
 40
0.8571428571428571
 40
0.8571428571428571
 40
0.8571428571428571
 40
0.8571428571428571
 40
0.9047619047619048
 40
0.9047619047619048
 40
0.9047619047619048
 40
0.9047619047619048
 40
1.0
 40
1.0
 40
1.0
 40
1.0
 10
-3.6567
 20
23.4571
 30
0.0
 10
-3.6567
 20
23.4571
 30
0.0
 10
-3.4253
 20
23.7162
 30
0.0
 10
-3.4253
 20
23.7162
 30
0.0
 10
-3.4253
 20
23.7162
 30
0.0
 10
-3.4253
 20
23.7162
 30
0.0
 10
-3.2889
 20
23.6005
 30
0.0
 10
-3.2889
 20
23.6005
 30
0.0
 10
-3.2889
 20
23.6005
 30
0.0
 10
-3.2889
 20
23.6005
 30
0.0
 10
-3.5311
 20
23.3277
 30
0.0
 10
-3.5311
 20
23.3277
 30
0.0
 10
-3.5311
 20
23.3277
 30
0.0
 10
-3.4521
 20
23.2101
 30
0.0
 10
-3.399
 20
23.1071
 30
0.0
 10
-3.3712
 20
23.0192
 30
0.0
 10
-3.3712
 20
23.0192
 30
0.0
 10
-3.3345
 20
22.9034
 30
0.0
 10
-3.3162
 20
22.7736
 30
0.0
 10
-3.3162
 20
22.6306
 30
0.0
 10
-3.3162
 20
22.6306
 30
0.0
 10
-3.3162
 20
22.4237
 30
0.0
 10
-3.358
 20
22.2393
 30
0.0
 10
-3.4418
 20
22.078
 30
0.0
 10
-3.4418
 20
22.078
 30
0.0
 10
-3.5255
 20
21.9161
 30
0.0
 10
-3.6426
 20
21.7939
 30
0.0
 10
-3.7936
 20
21.7111
 30
0.0
 10
-3.7936
 20
21.7111
 30
0.0
 10
-3.9451
 20
21.6288
 30
0.0
 10
-4.1054
 20
21.5874
 30
0.0
 10
-4.2752
 20
21.5874
 30
0.0
 10
-4.2752
 20
21.5874
 30
0.0
 10
-4.4022
 20
21.5874
 30
0.0
 10
-4.517
 20
21.6052
 30
0.0
 10
-4.62
 20
21.641
 30
0.0
 10
-4.62
 20
21.641
 30
0.0
 10
-4.699
 20
21.6687
 30
0.0
 10
-4.7912
 20
21.7214
 30
0.0
 10
-4.8971
 20
21.7995
 30
0.0
 10
-4.8971
 20
21.7995
 30
0.0
 10
-4.8971
 20
21.7995
 30
0.0
 10
-5.1285
 20
21.5403
 30
0.0
 10
-5.1285
 20
21.5403
 30
0.0
 10
-5.1285
 20
21.5403
 30
0.0
 10
-5.1285
 20
21.5403
 30
0.0
 10
-5.2649
 20
21.656
 30
0.0
 10
-5.2649
 20
21.656
 30
0.0
 10
-5.2649
 20
21.656
 30
0.0
 10
-5.2649
 20
21.656
 30
0.0
 10
-5.0222
 20
21.9274
 30
0.0
 10
-5.0222
 20
21.9274
 30
0.0
 10
-5.0222
 20
21.9274
 30
0.0
 10
-5.1125
 20
22.0643
 30
0.0
 10
-5.1727
 20
22.1814
 30
0.0
 10
-5.2028
 20
22.2783
 30
0.0
 10
-5.2028
 20
22.2783
 30
0.0
 10
-5.2329
 20
22.3752
 30
0.0
 10
-5.2484
 20
22.4919
 30
0.0
 10
-5.2484
 20
22.6278
 30
0.0
 10
-5.2484
 20
22.6278
 30
0.0
 10
-5.2484
 20
22.8352
 30
0.0
 10
-5.207
 20
23.0201
 30
0.0
 10
-5.1243
 20
23.1824
 30
0.0
 10
-5.1243
 20
23.1824
 30
0.0
 10
-5.0415
 20
23.3447
 30
0.0
 10
-4.9258
 20
23.4674
 30
0.0
 10
-4.7762
 20
23.5511
 30
0.0
 10
-4.7762
 20
23.5511
 30
0.0
 10
-4.6271
 20
23.6344
 30
0.0
 10
-4.461
 20
23.6763
 30
0.0
 10
-4.2781
 20
23.6763
 30
0.0
 10
-4.2781
 20
23.6763
 30
0.0
 10
-4.1548
 20
23.6763
 30
0.0
 10
-4.0471
 20
23.6603
 30
0.0
 10
-3.9549
 20
23.6273
 30
0.0
 10
-3.9549
 20
23.6273
 30
0.0
 10
-3.8627
 20
23.5949
 30
0.0
 10
-3.763
 20
23.538
 30
0.0
 10
-3.6567
 20
23.4571
 30
0.0
  0
SPLINE
  5
64
330
1F
100
AcDbEntity
  8
ROUND
 62
   250
100
AcDbSpline
210
0.0
220
0.0
230
1.0
 70
    11
 71
     3
 72
    32
 73
    28
 74
     0
 42
0.0000000001
 43
0.0000000001
 40
0.0
 40
0.0
 40
0.0
 40
0.0
 40
0.125
 40
0.125
 40
0.125
 40
0.125
 40
0.25
 40
0.25
 40
0.25
 40
0.25
 40
0.375
 40
0.375
 40
0.375
 40
0.375
 40
0.5
 40
0.5
 40
0.5
 40
0.5
 40
0.625
 40
0.625
 40
0.625
 40
0.625
 40
0.75
 40
0.75
 40
0.75
 40
0.75
 40
1.0
 40
1.0
 40
1.0
 40
1.0
 10
-3.8218
 20
23.2713
 30
0.0
 10
-3.9084
 20
23.339
 30
0.0
 10
-3.9841
 20
23.3856
 30
0.0
 10
-4.0485
 20
23.4105
 30
0.0
 10
-4.0485
 20
23.4105
 30
0.0
 10
-4.1134
 20
23.435
 30
0.0
 10
-4.1896
 20
23.4477
 30
0.0
 10
-4.2767
 20
23.4477
 30
0.0
 10
-4.2767
 20
23.4477
 30
0.0
 10
-4.478
 20
23.4477
 30
0.0
 10
-4.644
 20
23.3795
 30
0.0
 10
-4.7757
 20
23.2431
 30
0.0
 10
-4.7757
 20
23.2431
 30
0.0
 10
-4.907
 20
23.1066
 30
0.0
 10
-4.9728
 20
22.903
 30
0.0
 10
-4.9728
 20
22.6316
 30
0.0
 10
-4.9728
 20
22.6316
 30
0.0
 10
-4.9728
 20
22.5253
 30
0.0
 10
-4.9625
 20
22.4307
 30
0.0
 10
-4.9422
 20
22.3479
 30
0.0
 10
-4.9422
 20
22.3479
 30
0.0
 10
-4.9276
 20
22.2863
 30
0.0
 10
-4.8971
 20
22.2106
 30
0.0
 10
-4.85
 20
22.1208
 30
0.0
 10
-4.85
 20
22.1208
 30
0.0
 10
-4.85
 20
22.1208
 30
0.0
 10
-3.8218
 20
23.2713
 30
0.0
 10
-3.8218
 20
23.2713
 30
0.0
  0
SPLINE
  5
65
330
1F
100
AcDbEntity
  8
ROUND
 62
   250
100
AcDbSpline
210
0.0
220
0.0
230
1.0
 70
    11
 71
     3
 72
    28
 73
    24
 74
     0
 42
0.0000000001
 43
0.0000000001
 40
0.0
 40
0.0
 40
0.0
 40
0.0
 40
0.1428571428571428
 40
0.1428571428571428
 40
0.1428571428571428
 40
0.1428571428571428
 40
0.2857142857142857
 40
0.2857142857142857
 40
0.2857142857142857
 40
0.2857142857142857
 40
0.4285714285714285
 40
0.4285714285714285
 40
0.4285714285714285
 40
0.4285714285714285
 40
0.5714285714285714
 40
0.5714285714285714
 40
0.5714285714285714
 40
0.5714285714285714
 40
0.7142857142857143
 40
0.7142857142857143
 40
0.7142857142857143
 40
0.7142857142857143
 40
1.0
 40
1.0
 40
1.0
 40
1.0
 10
-3.7089
 20
23.1292
 30
0.0
 10
-3.7089
 20
23.1292
 30
0.0
 10
-4.7329
 20
21.9829
 30
0.0
 10
-4.7329
 20
21.9829
 30
0.0
 10
-4.7329
 20
21.9829
 30
0.0
 10
-4.6624
 20
21.9251
 30
0.0
 10
-4.597
 20
21.8846
 30
0.0
 10
-4.5372
 20
21.8616
 30
0.0
 10
-4.5372
 20
21.8616
 30
0.0
 10
-4.4592
 20
21.831
 30
0.0
 10
-4.3745
 20
21.816
 30
0.0
 10
-4.2837
 20
21.816
 30
0.0
 10
-4.2837
 20
21.816
 30
0.0
 10
-4.0833
 20
21.816
 30
0.0
 10
-3.9182
 20
21.8865
 30
0.0
 10
-3.7875
 20
22.0281
 30
0.0
 10
-3.7875
 20
22.0281
 30
0.0
 10
-3.6572
 20
22.1697
 30
0.0
 10
-3.5918
 20
22.3682
 30
0.0
 10
-3.5918
 20
22.6236
 30
0.0
 10
-3.5918
 20
22.6236
 30
0.0
 10
-3.5918
 20
22.8145
 30
0.0
 10
-3.6308
 20
22.9834
 30
0.0
 10
-3.7089
 20
23.1292
 30
0.0
  0
SPLINE
  5
66
330
1F
100
AcDbEntity
  8
ROUND
 62
   250
100
AcDbSpline
210
0.0
220
0.0
230
1.0
 70
    11
 71
     3
 72
    48
 73
    44
 74
     0
 42
0.0000000001
 43
0.0000000001
 40
0.0
 40
0.0
 40
0.0
 40
0.0
 40
0.0833333333333333
 40
0.0833333333333333
 40
0.0833333333333333
 40
0.0833333333333333
 40
0.1666666666666667
 40
0.1666666666666667
 40
0.1666666666666667
 40
0.1666666666666667
 40
0.25
 40
0.25
 40
0.25
 40
0.25
 40
0.3333333333333333
 40
0.3333333333333333
 40
0.3333333333333333
 40
0.3333333333333333
 40
0.4166666666666667
 40
0.4166666666666667
 40
0.4166666666666667
 40
0.4166666666666667
 40
0.5
 40
0.5
 40
0.5
 40
0.5
 40
0.5833333333333334
 40
0.5833333333333334
 40
0.5833333333333334
 40
0.5833333333333334
 40
0.6666666666666666
 40
0.6666666666666666
 40
0.6666666666666666
 40
0.6666666666666666
 40
0.75
 40
0.75
 40
0.75
 40
0.75
 40
0.8333333333333334
 40
0.8333333333333334
 40
0.8333333333333334
 40
0.8333333333333334
 40
1.0
 40
1.0
 40
1.0
 40
1.0
 10
-3.0504
 20
23.3771
 30
0.0
 10
-3.0504
 20
23.3771
 30
0.0
 10
-3.0504
 20
23.6156
 30
0.0
 10
-3.0504
 20
23.6156
 30
0.0
 10
-3.0504
 20
23.6156
 30
0.0
 10
-3.0504
 20
23.6156
 30
0.0
 10
-1.7428
 20
23.6156
 30
0.0
 10
-1.7428
 20
23.6156
 30
0.0
 10
-1.7428
 20
23.6156
 30
0.0
 10
-1.7428
 20
23.6156
 30
0.0
 10
-1.7428
 20
23.4227
 30
0.0
 10
-1.7428
 20
23.4227
 30
0.0
 10
-1.7428
 20
23.4227
 30
0.0
 10
-1.8712
 20
23.2859
 30
0.0
 10
-1.9987
 20
23.1038
 30
0.0
 10
-2.1252
 20
22.8771
 30
0.0
 10
-2.1252
 20
22.8771
 30
0.0
 10
-2.2513
 20
22.6504
 30
0.0
 10
-2.3491
 20
22.4166
 30
0.0
 10
-2.4178
 20
22.1772
 30
0.0
 10
-2.4178
 20
22.1772
 30
0.0
 10
-2.4676
 20
22.0079
 30
0.0
 10
-2.4991
 20
21.823
 30
0.0
 10
-2.5128
 20
21.6217
 30
0.0
 10
-2.5128
 20
21.6217
 30
0.0
 10
-2.5128
 20
21.6217
 30
0.0
 10
-2.7677
 20
21.6217
 30
0.0
 10
-2.7677
 20
21.6217
 30
0.0
 10
-2.7677
 20
21.6217
 30
0.0
 10
-2.7649
 20
21.7807
 30
0.0
 10
-2.7339
 20
21.9726
 30
0.0
 10
-2.6741
 20
22.1979
 30
0.0
 10
-2.6741
 20
22.1979
 30
0.0
 10
-2.6144
 20
22.4227
 30
0.0
 10
-2.5288
 20
22.64
 30
0.0
 10
-2.4173
 20
22.8489
 30
0.0
 10
-2.4173
 20
22.8489
 30
0.0
 10
-2.3054
 20
23.0577
 30
0.0
 10
-2.1868
 20
23.2341
 30
0.0
 10
-2.0608
 20
23.3771
 30
0.0
 10
-2.0608
 20
23.3771
 30
0.0
 10
-2.0608
 20
23.3771
 30
0.0
 10
-3.0504
 20
23.3771
 30
0.0
 10
-3.0504
 20
23.3771
 30
0.0
  0
SPLINE
  5
67
330
1F
100
AcDbEntity
  8
ROUND
 62
   250
100
AcDbSpline
210
0.0
220
0.0
230
1.0
 70
    11
 71
     3
 72
    40
 73
    36
 74
     0
 42
0.0000000001
 43
0.0000000001
 40
0.0
 40
0.0
 40
0.0
 40
0.0
 40
0.1
 40
0.1
 40
0.1
 40
0.1
 40
0.2
 40
0.2
 40
0.2
 40
0.2
 40
0.3
 40
0.3
 40
0.3
 40
0.3
 40
0.4
 40
0.4
 40
0.4
 40
0.4
 40
0.5
 40
0.5
 40
0.5
 40
0.5
 40
0.6
 40
0.6
 40
0.6
 40
0.6
 40
0.7
 40
0.7
 40
0.7
 40
0.7
 40
0.8
 40
0.8
 40
0.8
 40
0.8
 40
1.0
 40
1.0
 40
1.0
 40
1.0
 10
-0.5631
 20
21.6217
 30
0.0
 10
-0.5631
 20
21.6217
 30
0.0
 10
-0.811
 20
21.6217
 30
0.0
 10
-0.811
 20
21.6217
 30
0.0
 10
-0.811
 20
21.6217
 30
0.0
 10
-0.811
 20
21.6217
 30
0.0
 10
-0.811
 20
23.2021
 30
0.0
 10
-0.811
 20
23.2021
 30
0.0
 10
-0.811
 20
23.2021
 30
0.0
 10
-0.8708
 20
23.1452
 30
0.0
 10
-0.9488
 20
23.0883
 30
0.0
 10
-1.0457
 20
23.0314
 30
0.0
 10
-1.0457
 20
23.0314
 30
0.0
 10
-1.1431
 20
22.9745
 30
0.0
 10
-1.2301
 20
22.9317
 30
0.0
 10
-1.3073
 20
22.9034
 30
0.0
 10
-1.3073
 20
22.9034
 30
0.0
 10
-1.3073
 20
22.9034
 30
0.0
 10
-1.3073
 20
23.1429
 30
0.0
 10
-1.3073
 20
23.1429
 30
0.0
 10
-1.3073
 20
23.1429
 30
0.0
 10
-1.1685
 20
23.2082
 30
0.0
 10
-1.0471
 20
23.2873
 30
0.0
 10
-0.9432
 20
23.3799
 30
0.0
 10
-0.9432
 20
23.3799
 30
0.0
 10
-0.8397
 20
23.4731
 30
0.0
 10
-0.7659
 20
23.5629
 30
0.0
 10
-0.7226
 20
23.6504
 30
0.0
 10
-0.7226
 20
23.6504
 30
0.0
 10
-0.7226
 20
23.6504
 30
0.0
 10
-0.5631
 20
23.6504
 30
0.0
 10
-0.5631
 20
23.6504
 30
0.0
 10
-0.5631
 20
23.6504
 30
0.0
 10
-0.5631
 20
23.6504
 30
0.0
 10
-0.5631
 20
21.6217
 30
0.0
 10
-0.5631
 20
21.6217
 30
0.0
  0
SPLINE
  5
68
330
1F
100
AcDbEntity
  8
ROUND
 62
   250
100
AcDbSpline
210
0.0
220
0.0
230
1.0
 70
    11
 71
     3
 72
    20
 73
    16
 74
     0
 42
0.0000000001
 43
0.0000000001
 40
0.0
 40
0.0
 40
0.0
 40
0.0
 40
0.2
 40
0.2
 40
0.2
 40
0.2
 40
0.4
 40
0.4
 40
0.4
 40
0.4
 40
0.6
 40
0.6
 40
0.6
 40
0.6
 40
1.0
 40
1.0
 40
1.0
 40
1.0
 10
5.5866
 20
21.3394
 30
0.0
 10
5.5866
 20
21.3394
 30
0.0
 10
8.7117
 20
20.8984
 30
0.0
 10
8.7117
 20
20.8984
 30
0.0
 10
8.7117
 20
20.8984
 30
0.0
 10
8.7117
 20
20.8984
 30
0.0
 10
8.7117
 20
20.8005
 30
0.0
 10
8.7117
 20
20.8005
 30
0.0
 10
8.7117
 20
20.8005
 30
0.0
 10
8.7117
 20
20.8005
 30
0.0
 10
5.5866
 20
20.3301
 30
0.0
 10
5.5866
 20
20.3301
 30
0.0
 10
5.5866
 20
20.3301
 30
0.0
 10
5.5866
 20
20.3301
 30
0.0
 10
5.5866
 20
21.3394
 30
0.0
 10
5.5866
 20
21.3394
 30
0.0
  0
SPLINE
  5
69
330
1F
100
AcDbEntity
  8
ROUND
 62
   250
100
AcDbSpline
210
0.0
220
0.0
230
1.0
 70
    11
 71
     3
 72
    20
 73
    16
 74
     0
 42
0.0000000001
 43
0.0000000001
 40
0.0
 40
0.0
 40
0.0
 40
0.0
 40
0.2
 40
0.2
 40
0.2
 40
0.2
 40
0.4
 40
0.4
 40
0.4
 40
0.4
 40
0.6
 40
0.6
 40
0.6
 40
0.6
 40
1.0
 40
1.0
 40
1.0
 40
1.0
 10
-11.1651
 20
20.3302
 30
0.0
 10
-11.1651
 20
20.3302
 30
0.0
 10
-14.2901
 20
20.7712
 30
0.0
 10
-14.2901
 20
20.7712
 30
0.0
 10
-14.2901
 20
20.7712
 30
0.0
 10
-14.2901
 20
20.7712
 30
0.0
 10
-14.2901
 20
20.8691
 30
0.0
 10
-14.2901
 20
20.8691
 30
0.0
 10
-14.2901
 20
20.8691
 30
0.0
 10
-14.2901
 20
20.8691
 30
0.0
 10
-11.1651
 20
21.3395
 30
0.0
 10
-11.1651
 20
21.3395
 30
0.0
 10
-11.1651
 20
21.3395
 30
0.0
 10
-11.1651
 20
21.3395
 30
0.0
 10
-11.1651
 20
20.3302
 30
0.0
 10
-11.1651
 20
20.3302
 30
0.0
  0
SPLINE
  5
6A
330
1F
100
AcDbEntity
  8
ROUND
 62
   250
100
AcDbSpline
210
0.0
220
0.0
230
1.0
 70
    24
 71
     3
 72
     8
 73
     4
 74
     0
 42
0.0000000001
 43
0.0000000001
 40
0.0
 40
0.0
 40
0.0
 40
0.0
 40
1.0
 40
1.0
 40
1.0
 40
1.0
 10
-10.5591
 20
3.3285
 30
0.0
 10
-10.5591
 20
3.3285
 30
0.0
 10
4.9289
 20
3.8125
 30
0.0
 10
4.9289
 20
3.8125
 30
0.0
  0
SPLINE
  5
6B
330
1F
100
AcDbEntity
  8
ROUND
 62
   250
100
AcDbSpline
210
0.0
220
0.0
230
1.0
 70
    24
 71
     3
 72
     8
 73
     4
 74
     0
 42
0.0000000001
 43
0.0000000001
 40
0.0
 40
0.0
 40
0.0
 40
0.0
 40
1.0
 40
1.0
 40
1.0
 40
1.0
 10
-10.6097
 20
4.0369
 30
0.0
 10
-10.6097
 20
4.0369
 30
0.0
 10
4.8783
 20
4.5209
 30
0.0
 10
4.8783
 20
4.5209
 30
0.0
  0
SPLINE
  5
6C
330
1F
100
AcDbEntity
  8
ROUND
 62
   250
100
AcDbSpline
210
0.0
220
0.0
230
1.0
 70
    24
 71
     3
 72
     8
 73
     4
 74
     0
 42
0.0000000001
 43
0.0000000001
 40
0.0
 40
0.0
 40
0.0
 40
0.0
 40
1.0
 40
1.0
 40
1.0
 40
1.0
 10
-10.1687
 20
15.7548
 30
0.0
 10
-10.1687
 20
15.7548
 30
0.0
 10
4.6014
 20
15.7548
 30
0.0
 10
4.6014
 20
15.7548
 30
0.0
  0
SPLINE
  5
6D
330
1F
100
AcDbEntity
  8
ROUND
 62
   250
100
AcDbSpline
210
0.0
220
0.0
230
1.0
 70
    11
 71
     3
 72
   120
 73
   116
 74
     0
 42
0.0000000001
 43
0.0000000001
 40
0.0
 40
0.0
 40
0.0
 40
0.0
 40
0.0333333333333333
 40
0.0333333333333333
 40
0.0333333333333333
 40
0.0333333333333333
 40
0.0666666666666667
 40
0.0666666666666667
 40
0.0666666666666667
 40
0.0666666666666667
 40
0.1
 40
0.1
 40
0.1
 40
0.1
 40
0.1333333333333333
 40
0.1333333333333333
 40
0.1333333333333333
 40
0.1333333333333333
 40
0.1666666666666667
 40
0.1666666666666667
 40
0.1666666666666667
 40
0.1666666666666667
 40
0.2
 40
0.2
 40
0.2
 40
0.2
 40
0.2333333333333333
 40
0.2333333333333333
 40
0.2333333333333333
 40
0.2333333333333333
 40
0.2666666666666667
 40
0.2666666666666667
 40
0.2666666666666667
 40
0.2666666666666667
 40
0.3
 40
0.3
 40
0.3
 40
0.3
 40
0.3333333333333333
 40
0.3333333333333333
 40
0.3333333333333333
 40
0.3333333333333333
 40
0.3666666666666666
 40
0.3666666666666666
 40
0.3666666666666666
 40
0.3666666666666666
 40
0.4
 40
0.4
 40
0.4
 40
0.4
 40
0.4333333333333333
 40
0.4333333333333333
 40
0.4333333333333333
 40
0.4333333333333333
 40
0.4666666666666667
 40
0.4666666666666667
 40
0.4666666666666667
 40
0.4666666666666667
 40
0.5
 40
0.5
 40
0.5
 40
0.5
 40
0.5333333333333333
 40
0.5333333333333333
 40
0.5333333333333333
 40
0.5333333333333333
 40
0.5666666666666667
 40
0.5666666666666667
 40
0.5666666666666667
 40
0.5666666666666667
 40
0.6
 40
0.6
 40
0.6
 40
0.6
 40
0.6333333333333333
 40
0.6333333333333333
 40
0.6333333333333333
 40
0.6333333333333333
 40
0.6666666666666666
 40
0.6666666666666666
 40
0.6666666666666666
 40
0.6666666666666666
 40
0.7
 40
0.7
 40
0.7
 40
0.7
 40
0.7333333333333333
 40
0.7333333333333333
 40
0.7333333333333333
 40
0.7333333333333333
 40
0.7666666666666667
 40
0.7666666666666667
 40
0.7666666666666667
 40
0.7666666666666667
 40
0.8
 40
0.8
 40
0.8
 40
0.8
 40
0.8333333333333334
 40
0.8333333333333334
 40
0.8333333333333334
 40
0.8333333333333334
 40
0.8666666666666667
 40
0.8666666666666667
 40
0.8666666666666667
 40
0.8666666666666667
 40
0.9
 40
0.9
 40
0.9
 40
0.9
 40
0.9333333333333333
 40
0.9333333333333333
 40
0.9333333333333333
 40
0.9333333333333333
 40
1.0
 40
1.0
 40
1.0
 40
1.0
 10
-9.0837
 20
17.8752
 30
0.0
 10
-9.0837
 20
17.8752
 30
0.0
 10
-9.0837
 20
18.1118
 30
0.0
 10
-9.0837
 20
18.1118
 30
0.0
 10
-9.0837
 20
18.1118
 30
0.0
 10
-9.0837
 20
18.1118
 30
0.0
 10
-8.2281
 20
18.1132
 30
0.0
 10
-8.2281
 20
18.1132
 30
0.0
 10
-8.2281
 20
18.1132
 30
0.0
 10
-8.2281
 20
18.1132
 30
0.0
 10
-8.2281
 20
17.3639
 30
0.0
 10
-8.2281
 20
17.3639
 30
0.0
 10
-8.2281
 20
17.3639
 30
0.0
 10
-8.3593
 20
17.259
 30
0.0
 10
-8.4948
 20
17.1804
 30
0.0
 10
-8.6345
 20
17.1273
 30
0.0
 10
-8.6345
 20
17.1273
 30
0.0
 10
-8.7742
 20
17.0746
 30
0.0
 10
-8.9176
 20
17.0483
 30
0.0
 10
-9.0644
 20
17.0483
 30
0.0
 10
-9.0644
 20
17.0483
 30
0.0
 10
-9.2629
 20
17.0483
 30
0.0
 10
-9.4435
 20
17.0906
 30
0.0
 10
-9.6053
 20
17.1757
 30
0.0
 10
-9.6053
 20
17.1757
 30
0.0
 10
-9.7676
 20
17.2604
 30
0.0
 10
-9.8899
 20
17.3836
 30
0.0
 10
-9.9727
 20
17.544
 30
0.0
 10
-9.9727
 20
17.544
 30
0.0
 10
-10.0555
 20
17.7049
 30
0.0
 10
-10.0969
 20
17.8846
 30
0.0
 10
-10.0969
 20
18.0831
 30
0.0
 10
-10.0969
 20
18.0831
 30
0.0
 10
-10.0969
 20
18.2797
 30
0.0
 10
-10.0555
 20
18.4631
 30
0.0
 10
-9.9731
 20
18.6334
 30
0.0
 10
-9.9731
 20
18.6334
 30
0.0
 10
-9.8913
 20
18.8041
 30
0.0
 10
-9.7728
 20
18.9307
 30
0.0
 10
-9.6185
 20
19.0135
 30
0.0
 10
-9.6185
 20
19.0135
 30
0.0
 10
-9.4642
 20
19.0958
 30
0.0
 10
-9.2864
 20
19.1372
 30
0.0
 10
-9.0851
 20
19.1372
 30
0.0
 10
-9.0851
 20
19.1372
 30
0.0
 10
-8.9393
 20
19.1372
 30
0.0
 10
-8.8071
 20
19.1136
 30
0.0
 10
-8.689
 20
19.0661
 30
0.0
 10
-8.689
 20
19.0661
 30
0.0
 10
-8.571
 20
19.0191
 30
0.0
 10
-8.4783
 20
18.9532
 30
0.0
 10
-8.4115
 20
18.8686
 30
0.0
 10
-8.4115
 20
18.8686
 30
0.0
 10
-8.3443
 20
18.7839
 30
0.0
 10
-8.2935
 20
18.6739
 30
0.0
 10
-8.2582
 20
18.5379
 30
0.0
 10
-8.2582
 20
18.5379
 30
0.0
 10
-8.2582
 20
18.5379
 30
0.0
 10
-8.4995
 20
18.4716
 30
0.0
 10
-8.4995
 20
18.4716
 30
0.0
 10
-8.4995
 20
18.4716
 30
0.0
 10
-8.5301
 20
18.5746
 30
0.0
 10
-8.5677
 20
18.6555
 30
0.0
 10
-8.6124
 20
18.7143
 30
0.0
 10
-8.6124
 20
18.7143
 30
0.0
 10
-8.6575
 20
18.7731
 30
0.0
 10
-8.722
 20
18.8201
 30
0.0
 10
-8.8057
 20
18.8554
 30
0.0
 10
-8.8057
 20
18.8554
 30
0.0
 10
-8.889
 20
18.8907
 30
0.0
 10
-8.9821
 20
18.9086
 30
0.0
 10
-9.0837
 20
18.9086
 30
0.0
 10
-9.0837
 20
18.9086
 30
0.0
 10
-9.206
 20
18.9086
 30
0.0
 10
-9.3118
 20
18.8897
 30
0.0
 10
-9.4007
 20
18.8526
 30
0.0
 10
-9.4007
 20
18.8526
 30
0.0
 10
-9.4901
 20
18.8154
 30
0.0
 10
-9.5616
 20
18.7665
 30
0.0
 10
-9.6166
 20
18.7058
 30
0.0
 10
-9.6166
 20
18.7058
 30
0.0
 10
-9.6712
 20
18.6452
 30
0.0
 10
-9.7135
 20
18.5788
 30
0.0
 10
-9.7441
 20
18.5059
 30
0.0
 10
-9.7441
 20
18.5059
 30
0.0
 10
-9.7953
 20
18.3813
 30
0.0
 10
-9.8212
 20
18.2458
 30
0.0
 10
-9.8212
 20
18.0995
 30
0.0
 10
-9.8212
 20
18.0995
 30
0.0
 10
-9.8212
 20
17.9194
 30
0.0
 10
-9.7902
 20
17.7689
 30
0.0
 10
-9.7281
 20
17.6475
 30
0.0
 10
-9.7281
 20
17.6475
 30
0.0
 10
-9.666
 20
17.5262
 30
0.0
 10
-9.5757
 20
17.4363
 30
0.0
 10
-9.4572
 20
17.3775
 30
0.0
 10
-9.4572
 20
17.3775
 30
0.0
 10
-9.3386
 20
17.3187
 30
0.0
 10
-9.213
 20
17.2891
 30
0.0
 10
-9.0799
 20
17.2891
 30
0.0
 10
-9.0799
 20
17.2891
 30
0.0
 10
-8.9637
 20
17.2891
 30
0.0
 10
-8.8509
 20
17.3117
 30
0.0
 10
-8.7408
 20
17.3564
 30
0.0
 10
-8.7408
 20
17.3564
 30
0.0
 10
-8.6302
 20
17.4006
 30
0.0
 10
-8.547
 20
17.4481
 30
0.0
 10
-8.4901
 20
17.4989
 30
0.0
 10
-8.4901
 20
17.4989
 30
0.0
 10
-8.4901
 20
17.4989
 30
0.0
 10
-8.4901
 20
17.8752
 30
0.0
 10
-8.4901
 20
17.8752
 30
0.0
 10
-8.4901
 20
17.8752
 30
0.0
 10
-8.4901
 20
17.8752
 30
0.0
 10
-9.0837
 20
17.8752
 30
0.0
 10
-9.0837
 20
17.8752
 30
0.0
  0
SPLINE
  5
6E
330
1F
100
AcDbEntity
  8
ROUND
 62
   250
100
AcDbSpline
210
0.0
220
0.0
230
1.0
 70
    11
 71
     3
 72
    80
 73
    76
 74
     0
 42
0.0000000001
 43
0.0000000001
 40
0.0
 40
0.0
 40
0.0
 40
0.0
 40
0.05
 40
0.05
 40
0.05
 40
0.05
 40
0.1
 40
0.1
 40
0.1
 40
0.1
 40
0.15
 40
0.15
 40
0.15
 40
0.15
 40
0.2
 40
0.2
 40
0.2
 40
0.2
 40
0.25
 40
0.25
 40
0.25
 40
0.25
 40
0.3
 40
0.3
 40
0.3
 40
0.3
 40
0.35
 40
0.35
 40
0.35
 40
0.35
 40
0.4
 40
0.4
 40
0.4
 40
0.4
 40
0.45
 40
0.45
 40
0.45
 40
0.45
 40
0.5
 40
0.5
 40
0.5
 40
0.5
 40
0.55
 40
0.55
 40
0.55
 40
0.55
 40
0.6
 40
0.6
 40
0.6
 40
0.6
 40
0.65
 40
0.65
 40
0.65
 40
0.65
 40
0.7
 40
0.7
 40
0.7
 40
0.7
 40
0.75
 40
0.75
 40
0.75
 40
0.75
 40
0.8
 40
0.8
 40
0.8
 40
0.8
 40
0.85
 40
0.85
 40
0.85
 40
0.85
 40
0.9
 40
0.9
 40
0.9
 40
0.9
 40
1.0
 40
1.0
 40
1.0
 40
1.0
 10
-5.8636
 20
18.608
 30
0.0
 10
-5.8636
 20
18.608
 30
0.0
 10
-6.11
 20
18.5887
 30
0.0
 10
-6.11
 20
18.5887
 30
0.0
 10
-6.11
 20
18.5887
 30
0.0
 10
-6.1321
 20
18.6861
 30
0.0
 10
-6.1632
 20
18.7571
 30
0.0
 10
-6.2036
 20
18.8008
 30
0.0
 10
-6.2036
 20
18.8008
 30
0.0
 10
-6.2709
 20
18.8719
 30
0.0
 10
-6.3537
 20
18.9072
 30
0.0
 10
-6.452
 20
18.9072
 30
0.0
 10
-6.452
 20
18.9072
 30
0.0
 10
-6.531
 20
18.9072
 30
0.0
 10
-6.6001
 20
18.885
 30
0.0
 10
-6.6599
 20
18.8408
 30
0.0
 10
-6.6599
 20
18.8408
 30
0.0
 10
-6.738
 20
18.7839
 30
0.0
 10
-6.7996
 20
18.7007
 30
0.0
 10
-6.8447
 20
18.5915
 30
0.0
 10
-6.8447
 20
18.5915
 30
0.0
 10
-6.8894
 20
18.4824
 30
0.0
 10
-6.9129
 20
18.3267
 30
0.0
 10
-6.9148
 20
18.1245
 30
0.0
 10
-6.9148
 20
18.1245
 30
0.0
 10
-6.8551
 20
18.2152
 30
0.0
 10
-6.7822
 20
18.283
 30
0.0
 10
-6.6956
 20
18.3272
 30
0.0
 10
-6.6956
 20
18.3272
 30
0.0
 10
-6.6096
 20
18.3709
 30
0.0
 10
-6.5188
 20
18.393
 30
0.0
 10
-6.4242
 20
18.393
 30
0.0
 10
-6.4242
 20
18.393
 30
0.0
 10
-6.2587
 20
18.393
 30
0.0
 10
-6.118
 20
18.3324
 30
0.0
 10
-6.0018
 20
18.2105
 30
0.0
 10
-6.0018
 20
18.2105
 30
0.0
 10
-5.8857
 20
18.0887
 30
0.0
 10
-5.8273
 20
17.9316
 30
0.0
 10
-5.8273
 20
17.7388
 30
0.0
 10
-5.8273
 20
17.7388
 30
0.0
 10
-5.8273
 20
17.6118
 30
0.0
 10
-5.8551
 20
17.4942
 30
0.0
 10
-5.9097
 20
17.385
 30
0.0
 10
-5.9097
 20
17.385
 30
0.0
 10
-5.9642
 20
17.2764
 30
0.0
 10
-6.0395
 20
17.1927
 30
0.0
 10
-6.135
 20
17.1348
 30
0.0
 10
-6.135
 20
17.1348
 30
0.0
 10
-6.2304
 20
17.077
 30
0.0
 10
-6.3386
 20
17.0483
 30
0.0
 10
-6.46
 20
17.0483
 30
0.0
 10
-6.46
 20
17.0483
 30
0.0
 10
-6.6669
 20
17.0483
 30
0.0
 10
-6.8353
 20
17.124
 30
0.0
 10
-6.9656
 20
17.2764
 30
0.0
 10
-6.9656
 20
17.2764
 30
0.0
 10
-7.0964
 20
17.4283
 30
0.0
 10
-7.1613
 20
17.679
 30
0.0
 10
-7.1613
 20
18.028
 30
0.0
 10
-7.1613
 20
18.028
 30
0.0
 10
-7.1613
 20
18.4184
 30
0.0
 10
-7.0893
 20
18.7021
 30
0.0
 10
-6.9449
 20
18.8794
 30
0.0
 10
-6.9449
 20
18.8794
 30
0.0
 10
-6.8193
 20
19.0337
 30
0.0
 10
-6.65
 20
19.1113
 30
0.0
 10
-6.4365
 20
19.1113
 30
0.0
 10
-6.4365
 20
19.1113
 30
0.0
 10
-6.2779
 20
19.1113
 30
0.0
 10
-6.1477
 20
19.0666
 30
0.0
 10
-6.0461
 20
18.9772
 30
0.0
 10
-6.0461
 20
18.9772
 30
0.0
 10
-5.9445
 20
18.8883
 30
0.0
 10
-5.8838
 20
18.7651
 30
0.0
 10
-5.8636
 20
18.608
 30
0.0
  0
SPLINE
  5
6F
330
1F
100
AcDbEntity
  8
ROUND
 62
   250
100
AcDbSpline
210
0.0
220
0.0
230
1.0
 70
    11
 71
     3
 72
    40
 73
    36
 74
     0
 42
0.0000000001
 43
0.0000000001
 40
0.0
 40
0.0
 40
0.0
 40
0.0
 40
0.1
 40
0.1
 40
0.1
 40
0.1
 40
0.2
 40
0.2
 40
0.2
 40
0.2
 40
0.3
 40
0.3
 40
0.3
 40
0.3
 40
0.4
 40
0.4
 40
0.4
 40
0.4
 40
0.5
 40
0.5
 40
0.5
 40
0.5
 40
0.6
 40
0.6
 40
0.6
 40
0.6
 40
0.7
 40
0.7
 40
0.7
 40
0.7
 40
0.8
 40
0.8
 40
0.8
 40
0.8
 40
1.0
 40
1.0
 40
1.0
 40
1.0
 10
-6.8763
 20
17.7374
 30
0.0
 10
-6.8763
 20
17.6517
 30
0.0
 10
-6.8579
 20
17.5699
 30
0.0
 10
-6.8217
 20
17.4918
 30
0.0
 10
-6.8217
 20
17.4918
 30
0.0
 10
-6.7855
 20
17.4137
 30
0.0
 10
-6.7347
 20
17.3545
 30
0.0
 10
-6.6698
 20
17.3136
 30
0.0
 10
-6.6698
 20
17.3136
 30
0.0
 10
-6.6044
 20
17.2726
 30
0.0
 10
-6.5357
 20
17.2519
 30
0.0
 10
-6.4642
 20
17.2519
 30
0.0
 10
-6.4642
 20
17.2519
 30
0.0
 10
-6.3593
 20
17.2519
 30
0.0
 10
-6.2695
 20
17.2943
 30
0.0
 10
-6.1942
 20
17.3789
 30
0.0
 10
-6.1942
 20
17.3789
 30
0.0
 10
-6.119
 20
17.4636
 30
0.0
 10
-6.0813
 20
17.5784
 30
0.0
 10
-6.0813
 20
17.7232
 30
0.0
 10
-6.0813
 20
17.7232
 30
0.0
 10
-6.0813
 20
17.8629
 30
0.0
 10
-6.1185
 20
17.973
 30
0.0
 10
-6.1928
 20
18.0534
 30
0.0
 10
-6.1928
 20
18.0534
 30
0.0
 10
-6.2671
 20
18.1339
 30
0.0
 10
-6.3607
 20
18.1739
 30
0.0
 10
-6.4736
 20
18.1739
 30
0.0
 10
-6.4736
 20
18.1739
 30
0.0
 10
-6.586
 20
18.1739
 30
0.0
 10
-6.6811
 20
18.1339
 30
0.0
 10
-6.7591
 20
18.0534
 30
0.0
 10
-6.7591
 20
18.0534
 30
0.0
 10
-6.8372
 20
17.973
 30
0.0
 10
-6.8763
 20
17.8676
 30
0.0
 10
-6.8763
 20
17.7374
 30
0.0
  0
SPLINE
  5
70
330
1F
100
AcDbEntity
  8
ROUND
 62
   250
100
AcDbSpline
210
0.0
220
0.0
230
1.0
 70
    11
 71
     3
 72
    20
 73
    16
 74
     0
 42
0.0000000001
 43
0.0000000001
 40
0.0
 40
0.0
 40
0.0
 40
0.0
 40
0.2
 40
0.2
 40
0.2
 40
0.2
 40
0.4
 40
0.4
 40
0.4
 40
0.4
 40
0.6
 40
0.6
 40
0.6
 40
0.6
 40
1.0
 40
1.0
 40
1.0
 40
1.0
 10
-5.698
 20
17.0483
 30
0.0
 10
-5.698
 20
17.0483
 30
0.0
 10
-5.1124
 20
19.1372
 30
0.0
 10
-5.1124
 20
19.1372
 30
0.0
 10
-5.1124
 20
19.1372
 30
0.0
 10
-5.1124
 20
19.1372
 30
0.0
 10
-4.9139
 20
19.1372
 30
0.0
 10
-4.9139
 20
19.1372
 30
0.0
 10
-4.9139
 20
19.1372
 30
0.0
 10
-4.9139
 20
19.1372
 30
0.0
 10
-5.4981
 20
17.0483
 30
0.0
 10
-5.4981
 20
17.0483
 30
0.0
 10
-5.4981
 20
17.0483
 30
0.0
 10
-5.4981
 20
17.0483
 30
0.0
 10
-5.698
 20
17.0483
 30
0.0
 10
-5.698
 20
17.0483
 30
0.0
  0
SPLINE
  5
71
330
1F
100
AcDbEntity
  8
ROUND
 62
   250
100
AcDbSpline
210
0.0
220
0.0
230
1.0
 70
    11
 71
     3
 72
    48
 73
    44
 74
     0
 42
0.0000000001
 43
0.0000000001
 40
0.0
 40
0.0
 40
0.0
 40
0.0
 40
0.0833333333333333
 40
0.0833333333333333
 40
0.0833333333333333
 40
0.0833333333333333
 40
0.1666666666666667
 40
0.1666666666666667
 40
0.1666666666666667
 40
0.1666666666666667
 40
0.25
 40
0.25
 40
0.25
 40
0.25
 40
0.3333333333333333
 40
0.3333333333333333
 40
0.3333333333333333
 40
0.3333333333333333
 40
0.4166666666666667
 40
0.4166666666666667
 40
0.4166666666666667
 40
0.4166666666666667
 40
0.5
 40
0.5
 40
0.5
 40
0.5
 40
0.5833333333333334
 40
0.5833333333333334
 40
0.5833333333333334
 40
0.5833333333333334
 40
0.6666666666666666
 40
0.6666666666666666
 40
0.6666666666666666
 40
0.6666666666666666
 40
0.75
 40
0.75
 40
0.75
 40
0.75
 40
0.8333333333333334
 40
0.8333333333333334
 40
0.8333333333333334
 40
0.8333333333333334
 40
1.0
 40
1.0
 40
1.0
 40
1.0
 10
-4.0019
 20
17.0826
 30
0.0
 10
-4.0019
 20
17.0826
 30
0.0
 10
-4.0019
 20
17.5661
 30
0.0
 10
-4.0019
 20
17.5661
 30
0.0
 10
-4.0019
 20
17.5661
 30
0.0
 10
-4.0019
 20
17.5661
 30
0.0
 10
-4.8782
 20
17.5661
 30
0.0
 10
-4.8782
 20
17.5661
 30
0.0
 10
-4.8782
 20
17.5661
 30
0.0
 10
-4.8782
 20
17.5661
 30
0.0
 10
-4.8782
 20
17.7938
 30
0.0
 10
-4.8782
 20
17.7938
 30
0.0
 10
-4.8782
 20
17.7938
 30
0.0
 10
-4.8782
 20
17.7938
 30
0.0
 10
-3.9562
 20
19.1028
 30
0.0
 10
-3.9562
 20
19.1028
 30
0.0
 10
-3.9562
 20
19.1028
 30
0.0
 10
-3.9562
 20
19.1028
 30
0.0
 10
-3.7535
 20
19.1028
 30
0.0
 10
-3.7535
 20
19.1028
 30
0.0
 10
-3.7535
 20
19.1028
 30
0.0
 10
-3.7535
 20
19.1028
 30
0.0
 10
-3.7535
 20
17.7938
 30
0.0
 10
-3.7535
 20
17.7938
 30
0.0
 10
-3.7535
 20
17.7938
 30
0.0
 10
-3.7535
 20
17.7938
 30
0.0
 10
-3.4807
 20
17.7938
 30
0.0
 10
-3.4807
 20
17.7938
 30
0.0
 10
-3.4807
 20
17.7938
 30
0.0
 10
-3.4807
 20
17.7938
 30
0.0
 10
-3.4807
 20
17.5661
 30
0.0
 10
-3.4807
 20
17.5661
 30
0.0
 10
-3.4807
 20
17.5661
 30
0.0
 10
-3.4807
 20
17.5661
 30
0.0
 10
-3.7535
 20
17.5661
 30
0.0
 10
-3.7535
 20
17.5661
 30
0.0
 10
-3.7535
 20
17.5661
 30
0.0
 10
-3.7535
 20
17.5661
 30
0.0
 10
-3.7535
 20
17.0826
 30
0.0
 10
-3.7535
 20
17.0826
 30
0.0
 10
-3.7535
 20
17.0826
 30
0.0
 10
-3.7535
 20
17.0826
 30
0.0
 10
-4.0019
 20
17.0826
 30
0.0
 10
-4.0019
 20
17.0826
 30
0.0
  0
SPLINE
  5
72
330
1F
100
AcDbEntity
  8
ROUND
 62
   250
100
AcDbSpline
210
0.0
220
0.0
230
1.0
 70
    11
 71
     3
 72
    16
 73
    12
 74
     0
 42
0.0000000001
 43
0.0000000001
 40
0.0
 40
0.0
 40
0.0
 40
0.0
 40
0.25
 40
0.25
 40
0.25
 40
0.25
 40
0.5
 40
0.5
 40
0.5
 40
0.5
 40
1.0
 40
1.0
 40
1.0
 40
1.0
 10
-4.0019
 20
17.7938
 30
0.0
 10
-4.0019
 20
17.7938
 30
0.0
 10
-4.0019
 20
18.7044
 30
0.0
 10
-4.0019
 20
18.7044
 30
0.0
 10
-4.0019
 20
18.7044
 30
0.0
 10
-4.0019
 20
18.7044
 30
0.0
 10
-4.634
 20
17.7938
 30
0.0
 10
-4.634
 20
17.7938
 30
0.0
 10
-4.634
 20
17.7938
 30
0.0
 10
-4.634
 20
17.7938
 30
0.0
 10
-4.0019
 20
17.7938
 30
0.0
 10
-4.0019
 20
17.7938
 30
0.0
  0
SPLINE
  5
73
330
1F
100
AcDbEntity
  8
ROUND
 62
   250
100
AcDbSpline
210
0.0
220
0.0
230
1.0
 70
    11
 71
     3
 72
    28
 73
    24
 74
     0
 42
0.0000000001
 43
0.0000000001
 40
0.0
 40
0.0
 40
0.0
 40
0.0
 40
0.1428571428571428
 40
0.1428571428571428
 40
0.1428571428571428
 40
0.1428571428571428
 40
0.2857142857142857
 40
0.2857142857142857
 40
0.2857142857142857
 40
0.2857142857142857
 40
0.4285714285714285
 40
0.4285714285714285
 40
0.4285714285714285
 40
0.4285714285714285
 40
0.5714285714285714
 40
0.5714285714285714
 40
0.5714285714285714
 40
0.5714285714285714
 40
0.7142857142857143
 40
0.7142857142857143
 40
0.7142857142857143
 40
0.7142857142857143
 40
1.0
 40
1.0
 40
1.0
 40
1.0
 10
-3.1458
 20
18.3874
 30
0.0
 10
-3.1458
 20
18.3874
 30
0.0
 10
-3.2149
 20
18.7722
 30
0.0
 10
-3.2149
 20
18.7722
 30
0.0
 10
-3.2149
 20
18.7722
 30
0.0
 10
-3.2149
 20
18.7722
 30
0.0
 10
-3.2149
 20
19.1028
 30
0.0
 10
-3.2149
 20
19.1028
 30
0.0
 10
-3.2149
 20
19.1028
 30
0.0
 10
-3.2149
 20
19.1028
 30
0.0
 10
-2.9323
 20
19.1028
 30
0.0
 10
-2.9323
 20
19.1028
 30
0.0
 10
-2.9323
 20
19.1028
 30
0.0
 10
-2.9323
 20
19.1028
 30
0.0
 10
-2.9323
 20
18.7722
 30
0.0
 10
-2.9323
 20
18.7722
 30
0.0
 10
-2.9323
 20
18.7722
 30
0.0
 10
-2.9323
 20
18.7722
 30
0.0
 10
-2.9943
 20
18.3874
 30
0.0
 10
-2.9943
 20
18.3874
 30
0.0
 10
-2.9943
 20
18.3874
 30
0.0
 10
-2.9943
 20
18.3874
 30
0.0
 10
-3.1458
 20
18.3874
 30
0.0
 10
-3.1458
 20
18.3874
 30
0.0
  0
SPLINE
  5
74
330
1F
100
AcDbEntity
  8
ROUND
 62
   250
100
AcDbSpline
210
0.0
220
0.0
230
1.0
 70
    11
 71
     3
 72
    28
 73
    24
 74
     0
 42
0.0000000001
 43
0.0000000001
 40
0.0
 40
0.0
 40
0.0
 40
0.0
 40
0.1428571428571428
 40
0.1428571428571428
 40
0.1428571428571428
 40
0.1428571428571428
 40
0.2857142857142857
 40
0.2857142857142857
 40
0.2857142857142857
 40
0.2857142857142857
 40
0.4285714285714285
 40
0.4285714285714285
 40
0.4285714285714285
 40
0.4285714285714285
 40
0.5714285714285714
 40
0.5714285714285714
 40
0.5714285714285714
 40
0.5714285714285714
 40
0.7142857142857143
 40
0.7142857142857143
 40
0.7142857142857143
 40
0.7142857142857143
 40
1.0
 40
1.0
 40
1.0
 40
1.0
 10
-2.6895
 20
18.3874
 30
0.0
 10
-2.6895
 20
18.3874
 30
0.0
 10
-2.7573
 20
18.7722
 30
0.0
 10
-2.7573
 20
18.7722
 30
0.0
 10
-2.7573
 20
18.7722
 30
0.0
 10
-2.7573
 20
18.7722
 30
0.0
 10
-2.7573
 20
19.1028
 30
0.0
 10
-2.7573
 20
19.1028
 30
0.0
 10
-2.7573
 20
19.1028
 30
0.0
 10
-2.7573
 20
19.1028
 30
0.0
 10
-2.4746
 20
19.1028
 30
0.0
 10
-2.4746
 20
19.1028
 30
0.0
 10
-2.4746
 20
19.1028
 30
0.0
 10
-2.4746
 20
19.1028
 30
0.0
 10
-2.4746
 20
18.7722
 30
0.0
 10
-2.4746
 20
18.7722
 30
0.0
 10
-2.4746
 20
18.7722
 30
0.0
 10
-2.4746
 20
18.7722
 30
0.0
 10
-2.5409
 20
18.3874
 30
0.0
 10
-2.5409
 20
18.3874
 30
0.0
 10
-2.5409
 20
18.3874
 30
0.0
 10
-2.5409
 20
18.3874
 30
0.0
 10
-2.6895
 20
18.3874
 30
0.0
 10
-2.6895
 20
18.3874
 30
0.0
  0
SPLINE
  5
75
330
1F
100
AcDbEntity
  8
ROUND
 62
   250
100
AcDbSpline
210
0.0
220
0.0
230
1.0
 70
    11
 71
     3
 72
    44
 73
    40
 74
     0
 42
0.0000000001
 43
0.0000000001
 40
0.0
 40
0.0
 40
0.0
 40
0.0
 40
0.0909090909090909
 40
0.0909090909090909
 40
0.0909090909090909
 40
0.0909090909090909
 40
0.1818181818181818
 40
0.1818181818181818
 40
0.1818181818181818
 40
0.1818181818181818
 40
0.2727272727272727
 40
0.2727272727272727
 40
0.2727272727272727
 40
0.2727272727272727
 40
0.3636363636363636
 40
0.3636363636363636
 40
0.3636363636363636
 40
0.3636363636363636
 40
0.4545454545454545
 40
0.4545454545454545
 40
0.4545454545454545
 40
0.4545454545454545
 40
0.5454545454545454
 40
0.5454545454545454
 40
0.5454545454545454
 40
0.5454545454545454
 40
0.6363636363636364
 40
0.6363636363636364
 40
0.6363636363636364
 40
0.6363636363636364
 40
0.7272727272727273
 40
0.7272727272727273
 40
0.7272727272727273
 40
0.7272727272727273
 40
0.8181818181818182
 40
0.8181818181818182
 40
0.8181818181818182
 40
0.8181818181818182
 40
1.0
 40
1.0
 40
1.0
 40
1.0
 10
-1.6825
 20
16.4885
 30
0.0
 10
-1.8194
 20
16.6612
 30
0.0
 10
-1.9351
 20
16.8634
 30
0.0
 10
-2.0296
 20
17.0948
 30
0.0
 10
-2.0296
 20
17.0948
 30
0.0
 10
-2.1241
 20
17.3267
 30
0.0
 10
-2.1717
 20
17.5661
 30
0.0
 10
-2.1717
 20
17.8145
 30
0.0
 10
-2.1717
 20
17.8145
 30
0.0
 10
-2.1717
 20
18.0332
 30
0.0
 10
-2.1364
 20
18.2425
 30
0.0
 10
-2.0654
 20
18.4429
 30
0.0
 10
-2.0654
 20
18.4429
 30
0.0
 10
-1.9826
 20
18.6753
 30
0.0
 10
-1.8551
 20
18.9067
 30
0.0
 10
-1.6825
 20
19.1372
 30
0.0
 10
-1.6825
 20
19.1372
 30
0.0
 10
-1.6825
 20
19.1372
 30
0.0
 10
-1.5047
 20
19.1372
 30
0.0
 10
-1.5047
 20
19.1372
 30
0.0
 10
-1.5047
 20
19.1372
 30
0.0
 10
-1.6157
 20
18.9462
 30
0.0
 10
-1.6891
 20
18.8098
 30
0.0
 10
-1.7248
 20
18.7279
 30
0.0
 10
-1.7248
 20
18.7279
 30
0.0
 10
-1.7813
 20
18.6014
 30
0.0
 10
-1.825
 20
18.4688
 30
0.0
 10
-1.8575
 20
18.331
 30
0.0
 10
-1.8575
 20
18.331
 30
0.0
 10
-1.897
 20
18.1593
 30
0.0
 10
-1.9167
 20
17.9866
 30
0.0
 10
-1.9167
 20
17.8131
 30
0.0
 10
-1.9167
 20
17.8131
 30
0.0
 10
-1.9167
 20
17.3709
 30
0.0
 10
-1.7794
 20
16.9297
 30
0.0
 10
-1.5047
 20
16.4885
 30
0.0
 10
-1.5047
 20
16.4885
 30
0.0
 10
-1.5047
 20
16.4885
 30
0.0
 10
-1.6825
 20
16.4885
 30
0.0
 10
-1.6825
 20
16.4885
 30
0.0
  0
SPLINE
  5
76
330
1F
100
AcDbEntity
  8
ROUND
 62
   250
100
AcDbSpline
210
0.0
220
0.0
230
1.0
 70
    11
 71
     3
 72
    84
 73
    80
 74
     0
 42
0.0000000001
 43
0.0000000001
 40
0.0
 40
0.0
 40
0.0
 40
0.0
 40
0.0476190476190476
 40
0.0476190476190476
 40
0.0476190476190476
 40
0.0476190476190476
 40
0.0952380952380952
 40
0.0952380952380952
 40
0.0952380952380952
 40
0.0952380952380952
 40
0.1428571428571428
 40
0.1428571428571428
 40
0.1428571428571428
 40
0.1428571428571428
 40
0.1904761904761905
 40
0.1904761904761905
 40
0.1904761904761905
 40
0.1904761904761905
 40
0.2380952380952381
 40
0.2380952380952381
 40
0.2380952380952381
 40
0.2380952380952381
 40
0.2857142857142857
 40
0.2857142857142857
 40
0.2857142857142857
 40
0.2857142857142857
 40
0.3333333333333333
 40
0.3333333333333333
 40
0.3333333333333333
 40
0.3333333333333333
 40
0.3809523809523809
 40
0.3809523809523809
 40
0.3809523809523809
 40
0.3809523809523809
 40
0.4285714285714285
 40
0.4285714285714285
 40
0.4285714285714285
 40
0.4285714285714285
 40
0.4761904761904762
 40
0.4761904761904762
 40
0.4761904761904762
 40
0.4761904761904762
 40
0.5238095238095238
 40
0.5238095238095238
 40
0.5238095238095238
 40
0.5238095238095238
 40
0.5714285714285714
 40
0.5714285714285714
 40
0.5714285714285714
 40
0.5714285714285714
 40
0.6190476190476191
 40
0.6190476190476191
 40
0.6190476190476191
 40
0.6190476190476191
 40
0.6666666666666666
 40
0.6666666666666666
 40
0.6666666666666666
 40
0.6666666666666666
 40
0.7142857142857143
 40
0.7142857142857143
 40
0.7142857142857143
 40
0.7142857142857143
 40
0.7619047619047619
 40
0.7619047619047619
 40
0.7619047619047619
 40
0.7619047619047619
 40
0.8095238095238095
 40
0.8095238095238095
 40
0.8095238095238095
 40
0.8095238095238095
 40
0.8571428571428571
 40
0.8571428571428571
 40
0.8571428571428571
 40
0.8571428571428571
 40
0.9047619047619048
 40
0.9047619047619048
 40
0.9047619047619048
 40
0.9047619047619048
 40
1.0
 40
1.0
 40
1.0
 40
1.0
 10
0.3199
 20
18.918
 30
0.0
 10
0.3199
 20
18.918
 30
0.0
 10
0.5513
 20
19.1771
 30
0.0
 10
0.5513
 20
19.1771
 30
0.0
 10
0.5513
 20
19.1771
 30
0.0
 10
0.5513
 20
19.1771
 30
0.0
 10
0.6877
 20
19.0614
 30
0.0
 10
0.6877
 20
19.0614
 30
0.0
 10
0.6877
 20
19.0614
 30
0.0
 10
0.6877
 20
19.0614
 30
0.0
 10
0.4455
 20
18.7886
 30
0.0
 10
0.4455
 20
18.7886
 30
0.0
 10
0.4455
 20
18.7886
 30
0.0
 10
0.5245
 20
18.671
 30
0.0
 10
0.5776
 20
18.568
 30
0.0
 10
0.6054
 20
18.4801
 30
0.0
 10
0.6054
 20
18.4801
 30
0.0
 10
0.6421
 20
18.3643
 30
0.0
 10
0.6604
 20
18.2345
 30
0.0
 10
0.6604
 20
18.0915
 30
0.0
 10
0.6604
 20
18.0915
 30
0.0
 10
0.6604
 20
17.8846
 30
0.0
 10
0.6186
 20
17.7002
 30
0.0
 10
0.5348
 20
17.5389
 30
0.0
 10
0.5348
 20
17.5389
 30
0.0
 10
0.4511
 20
17.377
 30
0.0
 10
0.334
 20
17.2548
 30
0.0
 10
0.183
 20
17.172
 30
0.0
 10
0.183
 20
17.172
 30
0.0
 10
0.0315
 20
17.0897
 30
0.0
 10
-0.1288
 20
17.0483
 30
0.0
 10
-0.2986
 20
17.0483
 30
0.0
 10
-0.2986
 20
17.0483
 30
0.0
 10
-0.4256
 20
17.0483
 30
0.0
 10
-0.5404
 20
17.0661
 30
0.0
 10
-0.6434
 20
17.1019
 30
0.0
 10
-0.6434
 20
17.1019
 30
0.0
 10
-0.7224
 20
17.1296
 30
0.0
 10
-0.8146
 20
17.1823
 30
0.0
 10
-0.9205
 20
17.2604
 30
0.0
 10
-0.9205
 20
17.2604
 30
0.0
 10
-0.9205
 20
17.2604
 30
0.0
 10
-1.1519
 20
17.0012
 30
0.0
 10
-1.1519
 20
17.0012
 30
0.0
 10
-1.1519
 20
17.0012
 30
0.0
 10
-1.1519
 20
17.0012
 30
0.0
 10
-1.2883
 20
17.1169
 30
0.0
 10
-1.2883
 20
17.1169
 30
0.0
 10
-1.2883
 20
17.1169
 30
0.0
 10
-1.2883
 20
17.1169
 30
0.0
 10
-1.0456
 20
17.3883
 30
0.0
 10
-1.0456
 20
17.3883
 30
0.0
 10
-1.0456
 20
17.3883
 30
0.0
 10
-1.1359
 20
17.5252
 30
0.0
 10
-1.1961
 20
17.6423
 30
0.0
 10
-1.2262
 20
17.7392
 30
0.0
 10
-1.2262
 20
17.7392
 30
0.0
 10
-1.2563
 20
17.8361
 30
0.0
 10
-1.2718
 20
17.9528
 30
0.0
 10
-1.2718
 20
18.0887
 30
0.0
 10
-1.2718
 20
18.0887
 30
0.0
 10
-1.2718
 20
18.2961
 30
0.0
 10
-1.2304
 20
18.481
 30
0.0
 10
-1.1477
 20
18.6433
 30
0.0
 10
-1.1477
 20
18.6433
 30
0.0
 10
-1.0649
 20
18.8056
 30
0.0
 10
-0.9492
 20
18.9283
 30
0.0
 10
-0.7996
 20
19.012
 30
0.0
 10
-0.7996
 20
19.012
 30
0.0
 10
-0.6505
 20
19.0953
 30
0.0
 10
-0.4844
 20
19.1372
 30
0.0
 10
-0.3015
 20
19.1372
 30
0.0
 10
-0.3015
 20
19.1372
 30
0.0
 10
-0.1782
 20
19.1372
 30
0.0
 10
-0.0705
 20
19.1212
 30
0.0
 10
0.0217
 20
19.0882
 30
0.0
 10
0.0217
 20
19.0882
 30
0.0
 10
0.1139
 20
19.0558
 30
0.0
 10
0.2136
 20
18.9989
 30
0.0
 10
0.3199
 20
18.918
 30
0.0
  0
SPLINE
  5
77
330
1F
100
AcDbEntity
  8
ROUND
 62
   250
100
AcDbSpline
210
0.0
220
0.0
230
1.0
 70
    11
 71
     3
 72
    32
 73
    28
 74
     0
 42
0.0000000001
 43
0.0000000001
 40
0.0
 40
0.0
 40
0.0
 40
0.0
 40
0.125
 40
0.125
 40
0.125
 40
0.125
 40
0.25
 40
0.25
 40
0.25
 40
0.25
 40
0.375
 40
0.375
 40
0.375
 40
0.375
 40
0.5
 40
0.5
 40
0.5
 40
0.5
 40
0.625
 40
0.625
 40
0.625
 40
0.625
 40
0.75
 40
0.75
 40
0.75
 40
0.75
 40
1.0
 40
1.0
 40
1.0
 40
1.0
 10
0.1548
 20
18.7322
 30
0.0
 10
0.0682
 20
18.7999
 30
0.0
 10
-0.0075
 20
18.8465
 30
0.0
 10
-0.0719
 20
18.8714
 30
0.0
 10
-0.0719
 20
18.8714
 30
0.0
 10
-0.1368
 20
18.8959
 30
0.0
 10
-0.213
 20
18.9086
 30
0.0
 10
-0.3001
 20
18.9086
 30
0.0
 10
-0.3001
 20
18.9086
 30
0.0
 10
-0.5014
 20
18.9086
 30
0.0
 10
-0.6674
 20
18.8404
 30
0.0
 10
-0.7991
 20
18.704
 30
0.0
 10
-0.7991
 20
18.704
 30
0.0
 10
-0.9304
 20
18.5675
 30
0.0
 10
-0.9962
 20
18.3639
 30
0.0
 10
-0.9962
 20
18.0925
 30
0.0
 10
-0.9962
 20
18.0925
 30
0.0
 10
-0.9962
 20
17.9862
 30
0.0
 10
-0.9859
 20
17.8916
 30
0.0
 10
-0.9656
 20
17.8088
 30
0.0
 10
-0.9656
 20
17.8088
 30
0.0
 10
-0.951
 20
17.7472
 30
0.0
 10
-0.9205
 20
17.6715
 30
0.0
 10
-0.8734
 20
17.5817
 30
0.0
 10
-0.8734
 20
17.5817
 30
0.0
 10
-0.8734
 20
17.5817
 30
0.0
 10
0.1548
 20
18.7322
 30
0.0
 10
0.1548
 20
18.7322
 30
0.0
  0
SPLINE
  5
78
330
1F
100
AcDbEntity
  8
ROUND
 62
   250
100
AcDbSpline
210
0.0
220
0.0
230
1.0
 70
    11
 71
     3
 72
    28
 73
    24
 74
     0
 42
0.0000000001
 43
0.0000000001
 40
0.0
 40
0.0
 40
0.0
 40
0.0
 40
0.1428571428571428
 40
0.1428571428571428
 40
0.1428571428571428
 40
0.1428571428571428
 40
0.2857142857142857
 40
0.2857142857142857
 40
0.2857142857142857
 40
0.2857142857142857
 40
0.4285714285714285
 40
0.4285714285714285
 40
0.4285714285714285
 40
0.4285714285714285
 40
0.5714285714285714
 40
0.5714285714285714
 40
0.5714285714285714
 40
0.5714285714285714
 40
0.7142857142857143
 40
0.7142857142857143
 40
0.7142857142857143
 40
0.7142857142857143
 40
1.0
 40
1.0
 40
1.0
 40
1.0
 10
0.2677
 20
18.5901
 30
0.0
 10
0.2677
 20
18.5901
 30
0.0
 10
-0.7563
 20
17.4438
 30
0.0
 10
-0.7563
 20
17.4438
 30
0.0
 10
-0.7563
 20
17.4438
 30
0.0
 10
-0.6858
 20
17.386
 30
0.0
 10
-0.6204
 20
17.3455
 30
0.0
 10
-0.5606
 20
17.3225
 30
0.0
 10
-0.5606
 20
17.3225
 30
0.0
 10
-0.4826
 20
17.2919
 30
0.0
 10
-0.3979
 20
17.2769
 30
0.0
 10
-0.3071
 20
17.2769
 30
0.0
 10
-0.3071
 20
17.2769
 30
0.0
 10
-0.1067
 20
17.2769
 30
0.0
 10
0.0584
 20
17.3474
 30
0.0
 10
0.1891
 20
17.489
 30
0.0
 10
0.1891
 20
17.489
 30
0.0
 10
0.3194
 20
17.6306
 30
0.0
 10
0.3848
 20
17.8291
 30
0.0
 10
0.3848
 20
18.0845
 30
0.0
 10
0.3848
 20
18.0845
 30
0.0
 10
0.3848
 20
18.2754
 30
0.0
 10
0.3458
 20
18.4443
 30
0.0
 10
0.2677
 20
18.5901
 30
0.0
  0
SPLINE
  5
79
330
1F
100
AcDbEntity
  8
ROUND
 62
   250
100
AcDbSpline
210
0.0
220
0.0
230
1.0
 70
    11
 71
     3
 72
    48
 73
    44
 74
     0
 42
0.0000000001
 43
0.0000000001
 40
0.0
 40
0.0
 40
0.0
 40
0.0
 40
0.0833333333333333
 40
0.0833333333333333
 40
0.0833333333333333
 40
0.0833333333333333
 40
0.1666666666666667
 40
0.1666666666666667
 40
0.1666666666666667
 40
0.1666666666666667
 40
0.25
 40
0.25
 40
0.25
 40
0.25
 40
0.3333333333333333
 40
0.3333333333333333
 40
0.3333333333333333
 40
0.3333333333333333
 40
0.4166666666666667
 40
0.4166666666666667
 40
0.4166666666666667
 40
0.4166666666666667
 40
0.5
 40
0.5
 40
0.5
 40
0.5
 40
0.5833333333333334
 40
0.5833333333333334
 40
0.5833333333333334
 40
0.5833333333333334
 40
0.6666666666666666
 40
0.6666666666666666
 40
0.6666666666666666
 40
0.6666666666666666
 40
0.75
 40
0.75
 40
0.75
 40
0.75
 40
0.8333333333333334
 40
0.8333333333333334
 40
0.8333333333333334
 40
0.8333333333333334
 40
1.0
 40
1.0
 40
1.0
 40
1.0
 10
1.7046
 20
17.0826
 30
0.0
 10
1.7046
 20
17.0826
 30
0.0
 10
1.7046
 20
17.5661
 30
0.0
 10
1.7046
 20
17.5661
 30
0.0
 10
1.7046
 20
17.5661
 30
0.0
 10
1.7046
 20
17.5661
 30
0.0
 10
0.8283
 20
17.5661
 30
0.0
 10
0.8283
 20
17.5661
 30
0.0
 10
0.8283
 20
17.5661
 30
0.0
 10
0.8283
 20
17.5661
 30
0.0
 10
0.8283
 20
17.7938
 30
0.0
 10
0.8283
 20
17.7938
 30
0.0
 10
0.8283
 20
17.7938
 30
0.0
 10
0.8283
 20
17.7938
 30
0.0
 10
1.7503
 20
19.1028
 30
0.0
 10
1.7503
 20
19.1028
 30
0.0
 10
1.7503
 20
19.1028
 30
0.0
 10
1.7503
 20
19.1028
 30
0.0
 10
1.953
 20
19.1028
 30
0.0
 10
1.953
 20
19.1028
 30
0.0
 10
1.953
 20
19.1028
 30
0.0
 10
1.953
 20
19.1028
 30
0.0
 10
1.953
 20
17.7938
 30
0.0
 10
1.953
 20
17.7938
 30
0.0
 10
1.953
 20
17.7938
 30
0.0
 10
1.953
 20
17.7938
 30
0.0
 10
2.2258
 20
17.7938
 30
0.0
 10
2.2258
 20
17.7938
 30
0.0
 10
2.2258
 20
17.7938
 30
0.0
 10
2.2258
 20
17.7938
 30
0.0
 10
2.2258
 20
17.5661
 30
0.0
 10
2.2258
 20
17.5661
 30
0.0
 10
2.2258
 20
17.5661
 30
0.0
 10
2.2258
 20
17.5661
 30
0.0
 10
1.953
 20
17.5661
 30
0.0
 10
1.953
 20
17.5661
 30
0.0
 10
1.953
 20
17.5661
 30
0.0
 10
1.953
 20
17.5661
 30
0.0
 10
1.953
 20
17.0826
 30
0.0
 10
1.953
 20
17.0826
 30
0.0
 10
1.953
 20
17.0826
 30
0.0
 10
1.953
 20
17.0826
 30
0.0
 10
1.7046
 20
17.0826
 30
0.0
 10
1.7046
 20
17.0826
 30
0.0
  0
SPLINE
  5
7A
330
1F
100
AcDbEntity
  8
ROUND
 62
   250
100
AcDbSpline
210
0.0
220
0.0
230
1.0
 70
    11
 71
     3
 72
    16
 73
    12
 74
     0
 42
0.0000000001
 43
0.0000000001
 40
0.0
 40
0.0
 40
0.0
 40
0.0
 40
0.25
 40
0.25
 40
0.25
 40
0.25
 40
0.5
 40
0.5
 40
0.5
 40
0.5
 40
1.0
 40
1.0
 40
1.0
 40
1.0
 10
1.7046
 20
17.7938
 30
0.0
 10
1.7046
 20
17.7938
 30
0.0
 10
1.7046
 20
18.7044
 30
0.0
 10
1.7046
 20
18.7044
 30
0.0
 10
1.7046
 20
18.7044
 30
0.0
 10
1.7046
 20
18.7044
 30
0.0
 10
1.0725
 20
17.7938
 30
0.0
 10
1.0725
 20
17.7938
 30
0.0
 10
1.0725
 20
17.7938
 30
0.0
 10
1.0725
 20
17.7938
 30
0.0
 10
1.7046
 20
17.7938
 30
0.0
 10
1.7046
 20
17.7938
 30
0.0
  0
SPLINE
  5
7B
330
1F
100
AcDbEntity
  8
ROUND
 62
   250
100
AcDbSpline
210
0.0
220
0.0
230
1.0
 70
    11
 71
     3
 72
    68
 73
    64
 74
     0
 42
0.0000000001
 43
0.0000000001
 40
0.0
 40
0.0
 40
0.0
 40
0.0
 40
0.0588235294117647
 40
0.0588235294117647
 40
0.0588235294117647
 40
0.0588235294117647
 40
0.1176470588235294
 40
0.1176470588235294
 40
0.1176470588235294
 40
0.1176470588235294
 40
0.1764705882352941
 40
0.1764705882352941
 40
0.1764705882352941
 40
0.1764705882352941
 40
0.2352941176470588
 40
0.2352941176470588
 40
0.2352941176470588
 40
0.2352941176470588
 40
0.2941176470588235
 40
0.2941176470588235
 40
0.2941176470588235
 40
0.2941176470588235
 40
0.3529411764705883
 40
0.3529411764705883
 40
0.3529411764705883
 40
0.3529411764705883
 40
0.4117647058823529
 40
0.4117647058823529
 40
0.4117647058823529
 40
0.4117647058823529
 40
0.4705882352941176
 40
0.4705882352941176
 40
0.4705882352941176
 40
0.4705882352941176
 40
0.5294117647058824
 40
0.5294117647058824
 40
0.5294117647058824
 40
0.5294117647058824
 40
0.5882352941176471
 40
0.5882352941176471
 40
0.5882352941176471
 40
0.5882352941176471
 40
0.6470588235294118
 40
0.6470588235294118
 40
0.6470588235294118
 40
0.6470588235294118
 40
0.7058823529411765
 40
0.7058823529411765
 40
0.7058823529411765
 40
0.7058823529411765
 40
0.7647058823529411
 40
0.7647058823529411
 40
0.7647058823529411
 40
0.7647058823529411
 40
0.8235294117647058
 40
0.8235294117647058
 40
0.8235294117647058
 40
0.8235294117647058
 40
0.8823529411764706
 40
0.8823529411764706
 40
0.8823529411764706
 40
0.8823529411764706
 40
1.0
 40
1.0
 40
1.0
 40
1.0
 10
2.8613
 20
18.1781
 30
0.0
 10
2.7582
 20
18.2157
 30
0.0
 10
2.682
 20
18.2693
 30
0.0
 10
2.6322
 20
18.3394
 30
0.0
 10
2.6322
 20
18.3394
 30
0.0
 10
2.5828
 20
18.409
 30
0.0
 10
2.5579
 20
18.4928
 30
0.0
 10
2.5579
 20
18.5901
 30
0.0
 10
2.5579
 20
18.5901
 30
0.0
 10
2.5579
 20
18.7373
 30
0.0
 10
2.6106
 20
18.8606
 30
0.0
 10
2.7164
 20
18.9608
 30
0.0
 10
2.7164
 20
18.9608
 30
0.0
 10
2.8222
 20
19.061
 30
0.0
 10
2.9624
 20
19.1113
 30
0.0
 10
3.1378
 20
19.1113
 30
0.0
 10
3.1378
 20
19.1113
 30
0.0
 10
3.3142
 20
19.1113
 30
0.0
 10
3.4563
 20
19.06
 30
0.0
 10
3.564
 20
18.9575
 30
0.0
 10
3.564
 20
18.9575
 30
0.0
 10
3.6712
 20
18.8549
 30
0.0
 10
3.7249
 20
18.7303
 30
0.0
 10
3.7249
 20
18.5831
 30
0.0
 10
3.7249
 20
18.5831
 30
0.0
 10
3.7249
 20
18.4895
 30
0.0
 10
3.7004
 20
18.4081
 30
0.0
 10
3.6515
 20
18.3385
 30
0.0
 10
3.6515
 20
18.3385
 30
0.0
 10
3.6021
 20
18.2693
 30
0.0
 10
3.5278
 20
18.2157
 30
0.0
 10
3.4276
 20
18.1781
 30
0.0
 10
3.4276
 20
18.1781
 30
0.0
 10
3.5513
 20
18.1376
 30
0.0
 10
3.6458
 20
18.0727
 30
0.0
 10
3.7107
 20
17.9824
 30
0.0
 10
3.7107
 20
17.9824
 30
0.0
 10
3.7752
 20
17.8926
 30
0.0
 10
3.8076
 20
17.7849
 30
0.0
 10
3.8076
 20
17.6602
 30
0.0
 10
3.8076
 20
17.6602
 30
0.0
 10
3.8076
 20
17.4871
 30
0.0
 10
3.7465
 20
17.3422
 30
0.0
 10
3.6247
 20
17.2247
 30
0.0
 10
3.6247
 20
17.2247
 30
0.0
 10
3.5024
 20
17.1071
 30
0.0
 10
3.3415
 20
17.0483
 30
0.0
 10
3.1421
 20
17.0483
 30
0.0
 10
3.1421
 20
17.0483
 30
0.0
 10
2.9426
 20
17.0483
 30
0.0
 10
2.7822
 20
17.1071
 30
0.0
 10
2.6599
 20
17.2251
 30
0.0
 10
2.6599
 20
17.2251
 30
0.0
 10
2.5376
 20
17.3432
 30
0.0
 10
2.4765
 20
17.4904
 30
0.0
 10
2.4765
 20
17.6668
 30
0.0
 10
2.4765
 20
17.6668
 30
0.0
 10
2.4765
 20
17.798
 30
0.0
 10
2.5099
 20
17.9081
 30
0.0
 10
2.5767
 20
17.997
 30
0.0
 10
2.5767
 20
17.997
 30
0.0
 10
2.643
 20
18.0854
 30
0.0
 10
2.738
 20
18.1461
 30
0.0
 10
2.8613
 20
18.1781
 30
0.0
  0
SPLINE
  5
7C
330
1F
100
AcDbEntity
  8
ROUND
 62
   250
100
AcDbSpline
210
0.0
220
0.0
230
1.0
 70
    11
 71
     3
 72
    36
 73
    32
 74
     0
 42
0.0000000001
 43
0.0000000001
 40
0.0
 40
0.0
 40
0.0
 40
0.0
 40
0.1111111111111111
 40
0.1111111111111111
 40
0.1111111111111111
 40
0.1111111111111111
 40
0.2222222222222222
 40
0.2222222222222222
 40
0.2222222222222222
 40
0.2222222222222222
 40
0.3333333333333333
 40
0.3333333333333333
 40
0.3333333333333333
 40
0.3333333333333333
 40
0.4444444444444444
 40
0.4444444444444444
 40
0.4444444444444444
 40
0.4444444444444444
 40
0.5555555555555556
 40
0.5555555555555556
 40
0.5555555555555556
 40
0.5555555555555556
 40
0.6666666666666666
 40
0.6666666666666666
 40
0.6666666666666666
 40
0.6666666666666666
 40
0.7777777777777778
 40
0.7777777777777778
 40
0.7777777777777778
 40
0.7777777777777778
 40
1.0
 40
1.0
 40
1.0
 40
1.0
 10
2.8114
 20
18.5986
 30
0.0
 10
2.8114
 20
18.5031
 30
0.0
 10
2.8424
 20
18.425
 30
0.0
 10
2.9036
 20
18.3643
 30
0.0
 10
2.9036
 20
18.3643
 30
0.0
 10
2.9652
 20
18.3037
 30
0.0
 10
3.0452
 20
18.2731
 30
0.0
 10
3.1435
 20
18.2731
 30
0.0
 10
3.1435
 20
18.2731
 30
0.0
 10
3.239
 20
18.2731
 30
0.0
 10
3.3175
 20
18.3032
 30
0.0
 10
3.3787
 20
18.3634
 30
0.0
 10
3.3787
 20
18.3634
 30
0.0
 10
3.4398
 20
18.4236
 30
0.0
 10
3.4699
 20
18.4975
 30
0.0
 10
3.4699
 20
18.5845
 30
0.0
 10
3.4699
 20
18.5845
 30
0.0
 10
3.4699
 20
18.6757
 30
0.0
 10
3.4389
 20
18.7519
 30
0.0
 10
3.3758
 20
18.814
 30
0.0
 10
3.3758
 20
18.814
 30
0.0
 10
3.3128
 20
18.8761
 30
0.0
 10
3.2347
 20
18.9072
 30
0.0
 10
3.1407
 20
18.9072
 30
0.0
 10
3.1407
 20
18.9072
 30
0.0
 10
3.0461
 20
18.9072
 30
0.0
 10
2.9676
 20
18.8766
 30
0.0
 10
2.905
 20
18.8164
 30
0.0
 10
2.905
 20
18.8164
 30
0.0
 10
2.8424
 20
18.7557
 30
0.0
 10
2.8114
 20
18.6828
 30
0.0
 10
2.8114
 20
18.5986
 30
0.0
  0
SPLINE
  5
7D
330
1F
100
AcDbEntity
  8
ROUND
 62
   250
100
AcDbSpline
210
0.0
220
0.0
230
1.0
 70
    11
 71
     3
 72
    40
 73
    36
 74
     0
 42
0.0000000001
 43
0.0000000001
 40
0.0
 40
0.0
 40
0.0
 40
0.0
 40
0.1
 40
0.1
 40
0.1
 40
0.1
 40
0.2
 40
0.2
 40
0.2
 40
0.2
 40
0.3
 40
0.3
 40
0.3
 40
0.3
 40
0.4
 40
0.4
 40
0.4
 40
0.4
 40
0.5
 40
0.5
 40
0.5
 40
0.5
 40
0.6
 40
0.6
 40
0.6
 40
0.6
 40
0.7
 40
0.7
 40
0.7
 40
0.7
 40
0.8
 40
0.8
 40
0.8
 40
0.8
 40
1.0
 40
1.0
 40
1.0
 40
1.0
 10
2.7314
 20
17.6654
 30
0.0
 10
2.7314
 20
17.5948
 30
0.0
 10
2.7484
 20
17.5262
 30
0.0
 10
2.7818
 20
17.4603
 30
0.0
 10
2.7818
 20
17.4603
 30
0.0
 10
2.8152
 20
17.394
 30
0.0
 10
2.865
 20
17.3427
 30
0.0
 10
2.9313
 20
17.3065
 30
0.0
 10
2.9313
 20
17.3065
 30
0.0
 10
2.9977
 20
17.2703
 30
0.0
 10
3.0687
 20
17.2519
 30
0.0
 10
3.1449
 20
17.2519
 30
0.0
 10
3.1449
 20
17.2519
 30
0.0
 10
3.2634
 20
17.2519
 30
0.0
 10
3.3613
 20
17.29
 30
0.0
 10
3.4384
 20
17.3667
 30
0.0
 10
3.4384
 20
17.3667
 30
0.0
 10
3.5155
 20
17.4429
 30
0.0
 10
3.5541
 20
17.5398
 30
0.0
 10
3.5541
 20
17.6574
 30
0.0
 10
3.5541
 20
17.6574
 30
0.0
 10
3.5541
 20
17.7769
 30
0.0
 10
3.5146
 20
17.8756
 30
0.0
 10
3.4351
 20
17.9537
 30
0.0
 10
3.4351
 20
17.9537
 30
0.0
 10
3.3556
 20
18.0318
 30
0.0
 10
3.2559
 20
18.0708
 30
0.0
 10
3.1364
 20
18.0708
 30
0.0
 10
3.1364
 20
18.0708
 30
0.0
 10
3.0198
 20
18.0708
 30
0.0
 10
2.9233
 20
18.0323
 30
0.0
 10
2.8467
 20
17.9551
 30
0.0
 10
2.8467
 20
17.9551
 30
0.0
 10
2.77
 20
17.8775
 30
0.0
 10
2.7314
 20
17.7811
 30
0.0
 10
2.7314
 20
17.6654
 30
0.0
  0
SPLINE
  5
7E
330
1F
100
AcDbEntity
  8
ROUND
 62
   250
100
AcDbSpline
210
0.0
220
0.0
230
1.0
 70
    11
 71
     3
 72
    44
 73
    40
 74
     0
 42
0.0000000001
 43
0.0000000001
 40
0.0
 40
0.0
 40
0.0
 40
0.0
 40
0.0909090909090909
 40
0.0909090909090909
 40
0.0909090909090909
 40
0.0909090909090909
 40
0.1818181818181818
 40
0.1818181818181818
 40
0.1818181818181818
 40
0.1818181818181818
 40
0.2727272727272727
 40
0.2727272727272727
 40
0.2727272727272727
 40
0.2727272727272727
 40
0.3636363636363636
 40
0.3636363636363636
 40
0.3636363636363636
 40
0.3636363636363636
 40
0.4545454545454545
 40
0.4545454545454545
 40
0.4545454545454545
 40
0.4545454545454545
 40
0.5454545454545454
 40
0.5454545454545454
 40
0.5454545454545454
 40
0.5454545454545454
 40
0.6363636363636364
 40
0.6363636363636364
 40
0.6363636363636364
 40
0.6363636363636364
 40
0.7272727272727273
 40
0.7272727272727273
 40
0.7272727272727273
 40
0.7272727272727273
 40
0.8181818181818182
 40
0.8181818181818182
 40
0.8181818181818182
 40
0.8181818181818182
 40
1.0
 40
1.0
 40
1.0
 40
1.0
 10
4.2803
 20
16.4885
 30
0.0
 10
4.2803
 20
16.4885
 30
0.0
 10
4.1025
 20
16.4885
 30
0.0
 10
4.1025
 20
16.4885
 30
0.0
 10
4.1025
 20
16.4885
 30
0.0
 10
4.3772
 20
16.9297
 30
0.0
 10
4.5146
 20
17.3709
 30
0.0
 10
4.5146
 20
17.8131
 30
0.0
 10
4.5146
 20
17.8131
 30
0.0
 10
4.5146
 20
17.9857
 30
0.0
 10
4.4948
 20
18.1569
 30
0.0
 10
4.4553
 20
18.3272
 30
0.0
 10
4.4553
 20
18.3272
 30
0.0
 10
4.4243
 20
18.4645
 30
0.0
 10
4.3805
 20
18.5972
 30
0.0
 10
4.3246
 20
18.7237
 30
0.0
 10
4.3246
 20
18.7237
 30
0.0
 10
4.2888
 20
18.8065
 30
0.0
 10
4.215
 20
18.9443
 30
0.0
 10
4.1025
 20
19.1372
 30
0.0
 10
4.1025
 20
19.1372
 30
0.0
 10
4.1025
 20
19.1372
 30
0.0
 10
4.2803
 20
19.1372
 30
0.0
 10
4.2803
 20
19.1372
 30
0.0
 10
4.2803
 20
19.1372
 30
0.0
 10
4.453
 20
18.9067
 30
0.0
 10
4.5809
 20
18.6753
 30
0.0
 10
4.6637
 20
18.4429
 30
0.0
 10
4.6637
 20
18.4429
 30
0.0
 10
4.7342
 20
18.2425
 30
0.0
 10
4.7695
 20
18.0332
 30
0.0
 10
4.7695
 20
17.8145
 30
0.0
 10
4.7695
 20
17.8145
 30
0.0
 10
4.7695
 20
17.5661
 30
0.0
 10
4.722
 20
17.3267
 30
0.0
 10
4.627
 20
17.0948
 30
0.0
 10
4.627
 20
17.0948
 30
0.0
 10
4.532
 20
16.8634
 30
0.0
 10
4.4163
 20
16.6612
 30
0.0
 10
4.2803
 20
16.4885
 30
0.0
  0
SPLINE
  5
7F
330
1F
100
AcDbEntity
  8
ROUND
 62
   250
100
AcDbSpline
210
0.0
220
0.0
230
1.0
 70
    11
 71
     3
 72
    20
 73
    16
 74
     0
 42
0.0000000001
 43
0.0000000001
 40
0.0
 40
0.0
 40
0.0
 40
0.0
 40
0.2
 40
0.2
 40
0.2
 40
0.2
 40
0.4
 40
0.4
 40
0.4
 40
0.4
 40
0.6
 40
0.6
 40
0.6
 40
0.6
 40
1.0
 40
1.0
 40
1.0
 40
1.0
 10
1.6179
 20
16.2595
 30
0.0
 10
1.6179
 20
16.2595
 30
0.0
 10
4.7429
 20
15.8184
 30
0.0
 10
4.7429
 20
15.8184
 30
0.0
 10
4.7429
 20
15.8184
 30
0.0
 10
4.7429
 20
15.8184
 30
0.0
 10
4.7429
 20
15.7205
 30
0.0
 10
4.7429
 20
15.7205
 30
0.0
 10
4.7429
 20
15.7205
 30
0.0
 10
4.7429
 20
15.7205
 30
0.0
 10
1.6179
 20
15.2501
 30
0.0
 10
1.6179
 20
15.2501
 30
0.0
 10
1.6179
 20
15.2501
 30
0.0
 10
1.6179
 20
15.2501
 30
0.0
 10
1.6179
 20
16.2595
 30
0.0
 10
1.6179
 20
16.2595
 30
0.0
  0
SPLINE
  5
80
330
1F
100
AcDbEntity
  8
ROUND
 62
   250
100
AcDbSpline
210
0.0
220
0.0
230
1.0
 70
    11
 71
     3
 72
    20
 73
    16
 74
     0
 42
0.0000000001
 43
0.0000000001
 40
0.0
 40
0.0
 40
0.0
 40
0.0
 40
0.2
 40
0.2
 40
0.2
 40
0.2
 40
0.4
 40
0.4
 40
0.4
 40
0.4
 40
0.6
 40
0.6
 40
0.6
 40
0.6
 40
1.0
 40
1.0
 40
1.0
 40
1.0
 10
-7.3121
 20
15.2502
 30
0.0
 10
-7.3121
 20
15.2502
 30
0.0
 10
-10.4371
 20
15.6912
 30
0.0
 10
-10.4371
 20
15.6912
 30
0.0
 10
-10.4371
 20
15.6912
 30
0.0
 10
-10.4371
 20
15.6912
 30
0.0
 10
-10.4371
 20
15.7891
 30
0.0
 10
-10.4371
 20
15.7891
 30
0.0
 10
-10.4371
 20
15.7891
 30
0.0
 10
-10.4371
 20
15.7891
 30
0.0
 10
-7.3121
 20
16.2595
 30
0.0
 10
-7.3121
 20
16.2595
 30
0.0
 10
-7.3121
 20
16.2595
 30
0.0
 10
-7.3121
 20
16.2595
 30
0.0
 10
-7.3121
 20
15.2502
 30
0.0
 10
-7.3121
 20
15.2502
 30
0.0
  0
SPLINE
  5
81
330
1F
100
AcDbEntity
  8
ROUND
 62
   250
100
AcDbSpline
210
0.0
220
0.0
230
1.0
 70
    24
 71
     3
 72
     8
 73
     4
 74
     0
 42
0.0000000001
 43
0.0000000001
 40
0.0
 40
0.0
 40
0.0
 40
0.0
 40
1.0
 40
1.0
 40
1.0
 40
1.0
 10
-10.5139
 20
11.1959
 30
0.0
 10
-10.5139
 20
11.1959
 30
0.0
 10
-10.5139
 20
16.6674
 30
0.0
 10
-10.5139
 20
16.6674
 30
0.0
  0
SPLINE
  5
82
330
1F
100
AcDbEntity
  8
ROUND
 62
   250
100
AcDbSpline
210
0.0
220
0.0
230
1.0
 70
    24
 71
     3
 72
     8
 73
     4
 74
     0
 42
0.0000000001
 43
0.0000000001
 40
0.0
 40
0.0
 40
0.0
 40
0.0
 40
1.0
 40
1.0
 40
1.0
 40
1.0
 10
4.8564
 20
11.0014
 30
0.0
 10
4.8564
 20
11.0014
 30
0.0
 10
4.8564
 20
16.5692
 30
0.0
 10
4.8564
 20
16.5692
 30
0.0
  0
SPLINE
  5
83
330
1F
100
AcDbEntity
  8
ROUND
 62
   250
100
AcDbSpline
210
0.0
220
0.0
230
1.0
 70
    24
 71
     3
 72
     8
 73
     4
 74
     0
 42
0.0000000001
 43
0.0000000001
 40
0.0
 40
0.0
 40
0.0
 40
0.0
 40
1.0
 40
1.0
 40
1.0
 40
1.0
 10
28.1103
 20
-20.2568
 30
0.0
 10
28.1103
 20
-20.2568
 30
0.0
 10
21.2629
 20
-20.2568
 30
0.0
 10
21.2629
 20
-20.2568
 30
0.0
  0
SPLINE
  5
84
330
1F
100
AcDbEntity
  8
ROUND
 62
   250
100
AcDbSpline
210
0.0
220
0.0
230
1.0
 70
    24
 71
     3
 72
     8
 73
     4
 74
     0
 42
0.0000000001
 43
0.0000000001
 40
0.0
 40
0.0
 40
0.0
 40
0.0
 40
1.0
 40
1.0
 40
1.0
 40
1.0
 10
28.0718
 20
-6.3133
 30
0.0
 10
28.0718
 20
-6.3133
 30
0.0
 10
21.3161
 20
-6.3133
 30
0.0
 10
21.3161
 20
-6.3133
 30
0.0
  0
SPLINE
  5
85
330
1F
100
AcDbEntity
  8
ROUND
 62
   250
100
AcDbSpline
210
0.0
220
0.0
230
1.0
 70
    24
 71
     3
 72
     8
 73
     4
 74
     0
 42
0.0000000001
 43
0.0000000001
 40
0.0
 40
0.0
 40
0.0
 40
0.0
 40
1.0
 40
1.0
 40
1.0
 40
1.0
 10
27.1114
 20
-19.6538
 30
0.0
 10
27.1114
 20
-19.6538
 30
0.0
 10
27.1114
 20
-6.581
 30
0.0
 10
27.1114
 20
-6.581
 30
0.0
  0
SPLINE
  5
86
330
1F
100
AcDbEntity
  8
ROUND
 62
   250
100
AcDbSpline
210
0.0
220
0.0
230
1.0
 70
    11
 71
     3
 72
    84
 73
    80
 74
     0
 42
0.0000000001
 43
0.0000000001
 40
0.0
 40
0.0
 40
0.0
 40
0.0
 40
0.0476190476190476
 40
0.0476190476190476
 40
0.0476190476190476
 40
0.0476190476190476
 40
0.0952380952380952
 40
0.0952380952380952
 40
0.0952380952380952
 40
0.0952380952380952
 40
0.1428571428571428
 40
0.1428571428571428
 40
0.1428571428571428
 40
0.1428571428571428
 40
0.1904761904761905
 40
0.1904761904761905
 40
0.1904761904761905
 40
0.1904761904761905
 40
0.2380952380952381
 40
0.2380952380952381
 40
0.2380952380952381
 40
0.2380952380952381
 40
0.2857142857142857
 40
0.2857142857142857
 40
0.2857142857142857
 40
0.2857142857142857
 40
0.3333333333333333
 40
0.3333333333333333
 40
0.3333333333333333
 40
0.3333333333333333
 40
0.3809523809523809
 40
0.3809523809523809
 40
0.3809523809523809
 40
0.3809523809523809
 40
0.4285714285714285
 40
0.4285714285714285
 40
0.4285714285714285
 40
0.4285714285714285
 40
0.4761904761904762
 40
0.4761904761904762
 40
0.4761904761904762
 40
0.4761904761904762
 40
0.5238095238095238
 40
0.5238095238095238
 40
0.5238095238095238
 40
0.5238095238095238
 40
0.5714285714285714
 40
0.5714285714285714
 40
0.5714285714285714
 40
0.5714285714285714
 40
0.6190476190476191
 40
0.6190476190476191
 40
0.6190476190476191
 40
0.6190476190476191
 40
0.6666666666666666
 40
0.6666666666666666
 40
0.6666666666666666
 40
0.6666666666666666
 40
0.7142857142857143
 40
0.7142857142857143
 40
0.7142857142857143
 40
0.7142857142857143
 40
0.7619047619047619
 40
0.7619047619047619
 40
0.7619047619047619
 40
0.7619047619047619
 40
0.8095238095238095
 40
0.8095238095238095
 40
0.8095238095238095
 40
0.8095238095238095
 40
0.8571428571428571
 40
0.8571428571428571
 40
0.8571428571428571
 40
0.8571428571428571
 40
0.9047619047619048
 40
0.9047619047619048
 40
0.9047619047619048
 40
0.9047619047619048
 40
1.0
 40
1.0
 40
1.0
 40
1.0
 10
24.5175
 20
-14.0025
 30
0.0
 10
24.5175
 20
-14.0025
 30
0.0
 10
24.2584
 20
-13.7711
 30
0.0
 10
24.2584
 20
-13.7711
 30
0.0
 10
24.2584
 20
-13.7711
 30
0.0
 10
24.2584
 20
-13.7711
 30
0.0
 10
24.3741
 20
-13.6347
 30
0.0
 10
24.3741
 20
-13.6347
 30
0.0
 10
24.3741
 20
-13.6347
 30
0.0
 10
24.3741
 20
-13.6347
 30
0.0
 10
24.6469
 20
-13.8769
 30
0.0
 10
24.6469
 20
-13.8769
 30
0.0
 10
24.6469
 20
-13.8769
 30
0.0
 10
24.7645
 20
-13.7979
 30
0.0
 10
24.8675
 20
-13.7448
 30
0.0
 10
24.9554
 20
-13.717
 30
0.0
 10
24.9554
 20
-13.717
 30
0.0
 10
25.0712
 20
-13.6803
 30
0.0
 10
25.201
 20
-13.662
 30
0.0
 10
25.344
 20
-13.662
 30
0.0
 10
25.344
 20
-13.662
 30
0.0
 10
25.5509
 20
-13.662
 30
0.0
 10
25.7353
 20
-13.7038
 30
0.0
 10
25.8966
 20
-13.7876
 30
0.0
 10
25.8966
 20
-13.7876
 30
0.0
 10
26.0585
 20
-13.8713
 30
0.0
 10
26.1807
 20
-13.9884
 30
0.0
 10
26.2635
 20
-14.1394
 30
0.0
 10
26.2635
 20
-14.1394
 30
0.0
 10
26.3458
 20
-14.2909
 30
0.0
 10
26.3872
 20
-14.4512
 30
0.0
 10
26.3872
 20
-14.621
 30
0.0
 10
26.3872
 20
-14.621
 30
0.0
 10
26.3872
 20
-14.748
 30
0.0
 10
26.3694
 20
-14.8628
 30
0.0
 10
26.3336
 20
-14.9658
 30
0.0
 10
26.3336
 20
-14.9658
 30
0.0
 10
26.3059
 20
-15.0448
 30
0.0
 10
26.2532
 20
-15.137
 30
0.0
 10
26.1751
 20
-15.2429
 30
0.0
 10
26.1751
 20
-15.2429
 30
0.0
 10
26.1751
 20
-15.2429
 30
0.0
 10
26.4343
 20
-15.4743
 30
0.0
 10
26.4343
 20
-15.4743
 30
0.0
 10
26.4343
 20
-15.4743
 30
0.0
 10
26.4343
 20
-15.4743
 30
0.0
 10
26.3186
 20
-15.6107
 30
0.0
 10
26.3186
 20
-15.6107
 30
0.0
 10
26.3186
 20
-15.6107
 30
0.0
 10
26.3186
 20
-15.6107
 30
0.0
 10
26.0472
 20
-15.368
 30
0.0
 10
26.0472
 20
-15.368
 30
0.0
 10
26.0472
 20
-15.368
 30
0.0
 10
25.9103
 20
-15.4583
 30
0.0
 10
25.7932
 20
-15.5185
 30
0.0
 10
25.6963
 20
-15.5486
 30
0.0
 10
25.6963
 20
-15.5486
 30
0.0
 10
25.5994
 20
-15.5787
 30
0.0
 10
25.4827
 20
-15.5942
 30
0.0
 10
25.3468
 20
-15.5942
 30
0.0
 10
25.3468
 20
-15.5942
 30
0.0
 10
25.1394
 20
-15.5942
 30
0.0
 10
24.9545
 20
-15.5528
 30
0.0
 10
24.7922
 20
-15.4701
 30
0.0
 10
24.7922
 20
-15.4701
 30
0.0
 10
24.6299
 20
-15.3873
 30
0.0
 10
24.5072
 20
-15.2716
 30
0.0
 10
24.4235
 20
-15.122
 30
0.0
 10
24.4235
 20
-15.122
 30
0.0
 10
24.3402
 20
-14.9729
 30
0.0
 10
24.2983
 20
-14.8068
 30
0.0
 10
24.2983
 20
-14.6239
 30
0.0
 10
24.2983
 20
-14.6239
 30
0.0
 10
24.2983
 20
-14.5006
 30
0.0
 10
24.3143
 20
-14.3929
 30
0.0
 10
24.3473
 20
-14.3007
 30
0.0
 10
24.3473
 20
-14.3007
 30
0.0
 10
24.3797
 20
-14.2085
 30
0.0
 10
24.4366
 20
-14.1088
 30
0.0
 10
24.5175
 20
-14.0025
 30
0.0
  0
SPLINE
  5
87
330
1F
100
AcDbEntity
  8
ROUND
 62
   250
100
AcDbSpline
210
0.0
220
0.0
230
1.0
 70
    11
 71
     3
 72
    32
 73
    28
 74
     0
 42
0.0000000001
 43
0.0000000001
 40
0.0
 40
0.0
 40
0.0
 40
0.0
 40
0.125
 40
0.125
 40
0.125
 40
0.125
 40
0.25
 40
0.25
 40
0.25
 40
0.25
 40
0.375
 40
0.375
 40
0.375
 40
0.375
 40
0.5
 40
0.5
 40
0.5
 40
0.5
 40
0.625
 40
0.625
 40
0.625
 40
0.625
 40
0.75
 40
0.75
 40
0.75
 40
0.75
 40
1.0
 40
1.0
 40
1.0
 40
1.0
 10
24.7033
 20
-14.1676
 30
0.0
 10
24.6356
 20
-14.2542
 30
0.0
 10
24.589
 20
-14.3299
 30
0.0
 10
24.5641
 20
-14.3943
 30
0.0
 10
24.5641
 20
-14.3943
 30
0.0
 10
24.5396
 20
-14.4592
 30
0.0
 10
24.5269
 20
-14.5354
 30
0.0
 10
24.5269
 20
-14.6225
 30
0.0
 10
24.5269
 20
-14.6225
 30
0.0
 10
24.5269
 20
-14.8238
 30
0.0
 10
24.5951
 20
-14.9898
 30
0.0
 10
24.7315
 20
-15.1215
 30
0.0
 10
24.7315
 20
-15.1215
 30
0.0
 10
24.868
 20
-15.2528
 30
0.0
 10
25.0716
 20
-15.3186
 30
0.0
 10
25.343
 20
-15.3186
 30
0.0
 10
25.343
 20
-15.3186
 30
0.0
 10
25.4493
 20
-15.3186
 30
0.0
 10
25.5439
 20
-15.3083
 30
0.0
 10
25.6267
 20
-15.288
 30
0.0
 10
25.6267
 20
-15.288
 30
0.0
 10
25.6883
 20
-15.2734
 30
0.0
 10
25.764
 20
-15.2429
 30
0.0
 10
25.8538
 20
-15.1958
 30
0.0
 10
25.8538
 20
-15.1958
 30
0.0
 10
25.8538
 20
-15.1958
 30
0.0
 10
24.7033
 20
-14.1676
 30
0.0
 10
24.7033
 20
-14.1676
 30
0.0
  0
SPLINE
  5
88
330
1F
100
AcDbEntity
  8
ROUND
 62
   250
100
AcDbSpline
210
0.0
220
0.0
230
1.0
 70
    11
 71
     3
 72
    28
 73
    24
 74
     0
 42
0.0000000001
 43
0.0000000001
 40
0.0
 40
0.0
 40
0.0
 40
0.0
 40
0.1428571428571428
 40
0.1428571428571428
 40
0.1428571428571428
 40
0.1428571428571428
 40
0.2857142857142857
 40
0.2857142857142857
 40
0.2857142857142857
 40
0.2857142857142857
 40
0.4285714285714285
 40
0.4285714285714285
 40
0.4285714285714285
 40
0.4285714285714285
 40
0.5714285714285714
 40
0.5714285714285714
 40
0.5714285714285714
 40
0.5714285714285714
 40
0.7142857142857143
 40
0.7142857142857143
 40
0.7142857142857143
 40
0.7142857142857143
 40
1.0
 40
1.0
 40
1.0
 40
1.0
 10
24.8454
 20
-14.0547
 30
0.0
 10
24.8454
 20
-14.0547
 30
0.0
 10
25.9917
 20
-15.0787
 30
0.0
 10
25.9917
 20
-15.0787
 30
0.0
 10
25.9917
 20
-15.0787
 30
0.0
 10
26.0495
 20
-15.0082
 30
0.0
 10
26.09
 20
-14.9428
 30
0.0
 10
26.113
 20
-14.883
 30
0.0
 10
26.113
 20
-14.883
 30
0.0
 10
26.1436
 20
-14.805
 30
0.0
 10
26.1586
 20
-14.7203
 30
0.0
 10
26.1586
 20
-14.6295
 30
0.0
 10
26.1586
 20
-14.6295
 30
0.0
 10
26.1586
 20
-14.4291
 30
0.0
 10
26.0881
 20
-14.264
 30
0.0
 10
25.9465
 20
-14.1333
 30
0.0
 10
25.9465
 20
-14.1333
 30
0.0
 10
25.8049
 20
-14.003
 30
0.0
 10
25.6064
 20
-13.9376
 30
0.0
 10
25.351
 20
-13.9376
 30
0.0
 10
25.351
 20
-13.9376
 30
0.0
 10
25.1601
 20
-13.9376
 30
0.0
 10
24.9912
 20
-13.9766
 30
0.0
 10
24.8454
 20
-14.0547
 30
0.0
  0
SPLINE
  5
89
330
1F
100
AcDbEntity
  8
ROUND
 62
   250
100
AcDbSpline
210
0.0
220
0.0
230
1.0
 70
    11
 71
     3
 72
    48
 73
    44
 74
     0
 42
0.0000000001
 43
0.0000000001
 40
0.0
 40
0.0
 40
0.0
 40
0.0
 40
0.0833333333333333
 40
0.0833333333333333
 40
0.0833333333333333
 40
0.0833333333333333
 40
0.1666666666666667
 40
0.1666666666666667
 40
0.1666666666666667
 40
0.1666666666666667
 40
0.25
 40
0.25
 40
0.25
 40
0.25
 40
0.3333333333333333
 40
0.3333333333333333
 40
0.3333333333333333
 40
0.3333333333333333
 40
0.4166666666666667
 40
0.4166666666666667
 40
0.4166666666666667
 40
0.4166666666666667
 40
0.5
 40
0.5
 40
0.5
 40
0.5
 40
0.5833333333333334
 40
0.5833333333333334
 40
0.5833333333333334
 40
0.5833333333333334
 40
0.6666666666666666
 40
0.6666666666666666
 40
0.6666666666666666
 40
0.6666666666666666
 40
0.75
 40
0.75
 40
0.75
 40
0.75
 40
0.8333333333333334
 40
0.8333333333333334
 40
0.8333333333333334
 40
0.8333333333333334
 40
1.0
 40
1.0
 40
1.0
 40
1.0
 10
26.3529
 20
-12.6178
 30
0.0
 10
26.3529
 20
-12.6178
 30
0.0
 10
25.8694
 20
-12.6178
 30
0.0
 10
25.8694
 20
-12.6178
 30
0.0
 10
25.8694
 20
-12.6178
 30
0.0
 10
25.8694
 20
-12.6178
 30
0.0
 10
25.8694
 20
-13.4941
 30
0.0
 10
25.8694
 20
-13.4941
 30
0.0
 10
25.8694
 20
-13.4941
 30
0.0
 10
25.8694
 20
-13.4941
 30
0.0
 10
25.6417
 20
-13.4941
 30
0.0
 10
25.6417
 20
-13.4941
 30
0.0
 10
25.6417
 20
-13.4941
 30
0.0
 10
25.6417
 20
-13.4941
 30
0.0
 10
24.3327
 20
-12.5721
 30
0.0
 10
24.3327
 20
-12.5721
 30
0.0
 10
24.3327
 20
-12.5721
 30
0.0
 10
24.3327
 20
-12.5721
 30
0.0
 10
24.3327
 20
-12.3694
 30
0.0
 10
24.3327
 20
-12.3694
 30
0.0
 10
24.3327
 20
-12.3694
 30
0.0
 10
24.3327
 20
-12.3694
 30
0.0
 10
25.6417
 20
-12.3694
 30
0.0
 10
25.6417
 20
-12.3694
 30
0.0
 10
25.6417
 20
-12.3694
 30
0.0
 10
25.6417
 20
-12.3694
 30
0.0
 10
25.6417
 20
-12.0966
 30
0.0
 10
25.6417
 20
-12.0966
 30
0.0
 10
25.6417
 20
-12.0966
 30
0.0
 10
25.6417
 20
-12.0966
 30
0.0
 10
25.8694
 20
-12.0966
 30
0.0
 10
25.8694
 20
-12.0966
 30
0.0
 10
25.8694
 20
-12.0966
 30
0.0
 10
25.8694
 20
-12.0966
 30
0.0
 10
25.8694
 20
-12.3694
 30
0.0
 10
25.8694
 20
-12.3694
 30
0.0
 10
25.8694
 20
-12.3694
 30
0.0
 10
25.8694
 20
-12.3694
 30
0.0
 10
26.3529
 20
-12.3694
 30
0.0
 10
26.3529
 20
-12.3694
 30
0.0
 10
26.3529
 20
-12.3694
 30
0.0
 10
26.3529
 20
-12.3694
 30
0.0
 10
26.3529
 20
-12.6178
 30
0.0
 10
26.3529
 20
-12.6178
 30
0.0
  0
SPLINE
  5
8A
330
1F
100
AcDbEntity
  8
ROUND
 62
   250
100
AcDbSpline
210
0.0
220
0.0
230
1.0
 70
    11
 71
     3
 72
    16
 73
    12
 74
     0
 42
0.0000000001
 43
0.0000000001
 40
0.0
 40
0.0
 40
0.0
 40
0.0
 40
0.25
 40
0.25
 40
0.25
 40
0.25
 40
0.5
 40
0.5
 40
0.5
 40
0.5
 40
1.0
 40
1.0
 40
1.0
 40
1.0
 10
25.6417
 20
-12.6178
 30
0.0
 10
25.6417
 20
-12.6178
 30
0.0
 10
24.7311
 20
-12.6178
 30
0.0
 10
24.7311
 20
-12.6178
 30
0.0
 10
24.7311
 20
-12.6178
 30
0.0
 10
24.7311
 20
-12.6178
 30
0.0
 10
25.6417
 20
-13.2499
 30
0.0
 10
25.6417
 20
-13.2499
 30
0.0
 10
25.6417
 20
-13.2499
 30
0.0
 10
25.6417
 20
-13.2499
 30
0.0
 10
25.6417
 20
-12.6178
 30
0.0
 10
25.6417
 20
-12.6178
 30
0.0
  0
SPLINE
  5
8B
330
1F
100
AcDbEntity
  8
ROUND
 62
   250
100
AcDbSpline
210
0.0
220
0.0
230
1.0
 70
    11
 71
     3
 72
    52
 73
    48
 74
     0
 42
0.0000000001
 43
0.0000000001
 40
0.0
 40
0.0
 40
0.0
 40
0.0
 40
0.0769230769230769
 40
0.0769230769230769
 40
0.0769230769230769
 40
0.0769230769230769
 40
0.1538461538461539
 40
0.1538461538461539
 40
0.1538461538461539
 40
0.1538461538461539
 40
0.2307692307692308
 40
0.2307692307692308
 40
0.2307692307692308
 40
0.2307692307692308
 40
0.3076923076923077
 40
0.3076923076923077
 40
0.3076923076923077
 40
0.3076923076923077
 40
0.3846153846153846
 40
0.3846153846153846
 40
0.3846153846153846
 40
0.3846153846153846
 40
0.4615384615384616
 40
0.4615384615384616
 40
0.4615384615384616
 40
0.4615384615384616
 40
0.5384615384615384
 40
0.5384615384615384
 40
0.5384615384615384
 40
0.5384615384615384
 40
0.6153846153846154
 40
0.6153846153846154
 40
0.6153846153846154
 40
0.6153846153846154
 40
0.6923076923076923
 40
0.6923076923076923
 40
0.6923076923076923
 40
0.6923076923076923
 40
0.7692307692307693
 40
0.7692307692307693
 40
0.7692307692307693
 40
0.7692307692307693
 40
0.8461538461538461
 40
0.8461538461538461
 40
0.8461538461538461
 40
0.8461538461538461
 40
1.0
 40
1.0
 40
1.0
 40
1.0
 10
25.3567
 20
-11.8431
 30
0.0
 10
25.1177
 20
-11.8431
 30
0.0
 10
24.9253
 20
-11.8186
 30
0.0
 10
24.78
 20
-11.7692
 30
0.0
 10
24.78
 20
-11.7692
 30
0.0
 10
24.6342
 20
-11.7203
 30
0.0
 10
24.5218
 20
-11.6469
 30
0.0
 10
24.4427
 20
-11.55
 30
0.0
 10
24.4427
 20
-11.55
 30
0.0
 10
24.3637
 20
-11.4531
 30
0.0
 10
24.3242
 20
-11.3313
 30
0.0
 10
24.3242
 20
-11.1846
 30
0.0
 10
24.3242
 20
-11.1846
 30
0.0
 10
24.3242
 20
-11.0759
 30
0.0
 10
24.3463
 20
-10.9809
 30
0.0
 10
24.3901
 20
-10.8991
 30
0.0
 10
24.3901
 20
-10.8991
 30
0.0
 10
24.4333
 20
-10.8172
 30
0.0
 10
24.4964
 20
-10.7499
 30
0.0
 10
24.5787
 20
-10.6963
 30
0.0
 10
24.5787
 20
-10.6963
 30
0.0
 10
24.661
 20
-10.6432
 30
0.0
 10
24.7612
 20
-10.6013
 30
0.0
 10
24.8792
 20
-10.5712
 30
0.0
 10
24.8792
 20
-10.5712
 30
0.0
 10
24.9973
 20
-10.5406
 30
0.0
 10
25.1563
 20
-10.5256
 30
0.0
 10
25.3567
 20
-10.5256
 30
0.0
 10
25.3567
 20
-10.5256
 30
0.0
 10
25.5937
 20
-10.5256
 30
0.0
 10
25.7847
 20
-10.55
 30
0.0
 10
25.9305
 20
-10.5985
 30
0.0
 10
25.9305
 20
-10.5985
 30
0.0
 10
26.0763
 20
-10.6474
 30
0.0
 10
26.1887
 20
-10.7203
 30
0.0
 10
26.2682
 20
-10.8172
 30
0.0
 10
26.2682
 20
-10.8172
 30
0.0
 10
26.3477
 20
-10.9141
 30
0.0
 10
26.3872
 20
-11.0364
 30
0.0
 10
26.3872
 20
-11.1846
 30
0.0
 10
26.3872
 20
-11.1846
 30
0.0
 10
26.3872
 20
-11.3793
 30
0.0
 10
26.3176
 20
-11.5322
 30
0.0
 10
26.1779
 20
-11.6432
 30
0.0
 10
26.1779
 20
-11.6432
 30
0.0
 10
26.01
 20
-11.7763
 30
0.0
 10
25.7358
 20
-11.8431
 30
0.0
 10
25.3567
 20
-11.8431
 30
0.0
  0
SPLINE
  5
8C
330
1F
100
AcDbEntity
  8
ROUND
 62
   250
100
AcDbSpline
210
0.0
220
0.0
230
1.0
 70
    11
 71
     3
 72
    36
 73
    32
 74
     0
 42
0.0000000001
 43
0.0000000001
 40
0.0
 40
0.0
 40
0.0
 40
0.0
 40
0.1111111111111111
 40
0.1111111111111111
 40
0.1111111111111111
 40
0.1111111111111111
 40
0.2222222222222222
 40
0.2222222222222222
 40
0.2222222222222222
 40
0.2222222222222222
 40
0.3333333333333333
 40
0.3333333333333333
 40
0.3333333333333333
 40
0.3333333333333333
 40
0.4444444444444444
 40
0.4444444444444444
 40
0.4444444444444444
 40
0.4444444444444444
 40
0.5555555555555556
 40
0.5555555555555556
 40
0.5555555555555556
 40
0.5555555555555556
 40
0.6666666666666666
 40
0.6666666666666666
 40
0.6666666666666666
 40
0.6666666666666666
 40
0.7777777777777778
 40
0.7777777777777778
 40
0.7777777777777778
 40
0.7777777777777778
 40
1.0
 40
1.0
 40
1.0
 40
1.0
 10
25.3567
 20
-11.5881
 30
0.0
 10
25.6883
 20
-11.5881
 30
0.0
 10
25.9089
 20
-11.5491
 30
0.0
 10
26.0189
 20
-11.4715
 30
0.0
 10
26.0189
 20
-11.4715
 30
0.0
 10
26.1285
 20
-11.3939
 30
0.0
 10
26.1836
 20
-11.2984
 30
0.0
 10
26.1836
 20
-11.1846
 30
0.0
 10
26.1836
 20
-11.1846
 30
0.0
 10
26.1836
 20
-11.0703
 30
0.0
 10
26.1281
 20
-10.9748
 30
0.0
 10
26.018
 20
-10.8972
 30
0.0
 10
26.018
 20
-10.8972
 30
0.0
 10
25.9079
 20
-10.8196
 30
0.0
 10
25.6873
 20
-10.7805
 30
0.0
 10
25.3567
 20
-10.7805
 30
0.0
 10
25.3567
 20
-10.7805
 30
0.0
 10
25.0241
 20
-10.7805
 30
0.0
 10
24.803
 20
-10.8196
 30
0.0
 10
24.6939
 20
-10.8972
 30
0.0
 10
24.6939
 20
-10.8972
 30
0.0
 10
24.5843
 20
-10.9748
 30
0.0
 10
24.5298
 20
-11.0712
 30
0.0
 10
24.5298
 20
-11.1869
 30
0.0
 10
24.5298
 20
-11.1869
 30
0.0
 10
24.5298
 20
-11.3012
 30
0.0
 10
24.5782
 20
-11.392
 30
0.0
 10
24.6746
 20
-11.4602
 30
0.0
 10
24.6746
 20
-11.4602
 30
0.0
 10
24.7974
 20
-11.5453
 30
0.0
 10
25.0251
 20
-11.5881
 30
0.0
 10
25.3567
 20
-11.5881
 30
0.0
  0
SPLINE
  5
8D
330
1F
100
AcDbEntity
  8
ROUND
 62
   250
100
AcDbSpline
210
0.0
220
0.0
230
1.0
 70
    11
 71
     3
 72
    20
 73
    16
 74
     0
 42
0.0000000001
 43
0.0000000001
 40
0.0
 40
0.0
 40
0.0
 40
0.0
 40
0.2
 40
0.2
 40
0.2
 40
0.2
 40
0.4
 40
0.4
 40
0.4
 40
0.4
 40
0.6
 40
0.6
 40
0.6
 40
0.6
 40
1.0
 40
1.0
 40
1.0
 40
1.0
 10
26.6146
 20
-9.5619
 30
0.0
 10
26.6146
 20
-9.5619
 30
0.0
 10
27.0557
 20
-6.4369
 30
0.0
 10
27.0557
 20
-6.4369
 30
0.0
 10
27.0557
 20
-6.4369
 30
0.0
 10
27.0557
 20
-6.4369
 30
0.0
 10
27.1536
 20
-6.4369
 30
0.0
 10
27.1536
 20
-6.4369
 30
0.0
 10
27.1536
 20
-6.4369
 30
0.0
 10
27.1536
 20
-6.4369
 30
0.0
 10
27.624
 20
-9.5619
 30
0.0
 10
27.624
 20
-9.5619
 30
0.0
 10
27.624
 20
-9.5619
 30
0.0
 10
27.624
 20
-9.5619
 30
0.0
 10
26.6146
 20
-9.5619
 30
0.0
 10
26.6146
 20
-9.5619
 30
0.0
  0
SPLINE
  5
8E
330
1F
100
AcDbEntity
  8
ROUND
 62
   250
100
AcDbSpline
210
0.0
220
0.0
230
1.0
 70
    11
 71
     3
 72
    20
 73
    16
 74
     0
 42
0.0000000001
 43
0.0000000001
 40
0.0
 40
0.0
 40
0.0
 40
0.0
 40
0.2
 40
0.2
 40
0.2
 40
0.2
 40
0.4
 40
0.4
 40
0.4
 40
0.4
 40
0.6
 40
0.6
 40
0.6
 40
0.6
 40
1.0
 40
1.0
 40
1.0
 40
1.0
 10
27.616
 20
-17.0067
 30
0.0
 10
27.616
 20
-17.0067
 30
0.0
 10
27.175
 20
-20.1317
 30
0.0
 10
27.175
 20
-20.1317
 30
0.0
 10
27.175
 20
-20.1317
 30
0.0
 10
27.175
 20
-20.1317
 30
0.0
 10
27.077
 20
-20.1317
 30
0.0
 10
27.077
 20
-20.1317
 30
0.0
 10
27.077
 20
-20.1317
 30
0.0
 10
27.077
 20
-20.1317
 30
0.0
 10
26.6067
 20
-17.0067
 30
0.0
 10
26.6067
 20
-17.0067
 30
0.0
 10
26.6067
 20
-17.0067
 30
0.0
 10
26.6067
 20
-17.0067
 30
0.0
 10
27.616
 20
-17.0067
 30
0.0
 10
27.616
 20
-17.0067
 30
0.0
  0
SPLINE
  5
8F
330
1F
100
AcDbEntity
  8
ROUND
 62
   250
100
AcDbSpline
210
0.0
220
0.0
230
1.0
 70
    24
 71
     3
 72
     8
 73
     4
 74
     0
 42
0.0000000001
 43
0.0000000001
 40
0.0
 40
0.0
 40
0.0
 40
0.0
 40
1.0
 40
1.0
 40
1.0
 40
1.0
 10
-25.4629
 20
-22.4831
 30
0.0
 10
-25.4629
 20
-22.4831
 30
0.0
 10
-25.4629
 20
3.0229
 30
0.0
 10
-25.4629
 20
3.0229
 30
0.0
  0
SPLINE
  5
90
330
1F
100
AcDbEntity
  8
ROUND
 62
   250
100
AcDbSpline
210
0.0
220
0.0
230
1.0
 70
    11
 71
     3
 72
    48
 73
    44
 74
     0
 42
0.0000000001
 43
0.0000000001
 40
0.0
 40
0.0
 40
0.0
 40
0.0
 40
0.0833333333333333
 40
0.0833333333333333
 40
0.0833333333333333
 40
0.0833333333333333
 40
0.1666666666666667
 40
0.1666666666666667
 40
0.1666666666666667
 40
0.1666666666666667
 40
0.25
 40
0.25
 40
0.25
 40
0.25
 40
0.3333333333333333
 40
0.3333333333333333
 40
0.3333333333333333
 40
0.3333333333333333
 40
0.4166666666666667
 40
0.4166666666666667
 40
0.4166666666666667
 40
0.4166666666666667
 40
0.5
 40
0.5
 40
0.5
 40
0.5
 40
0.5833333333333334
 40
0.5833333333333334
 40
0.5833333333333334
 40
0.5833333333333334
 40
0.6666666666666666
 40
0.6666666666666666
 40
0.6666666666666666
 40
0.6666666666666666
 40
0.75
 40
0.75
 40
0.75
 40
0.75
 40
0.8333333333333334
 40
0.8333333333333334
 40
0.8333333333333334
 40
0.8333333333333334
 40
1.0
 40
1.0
 40
1.0
 40
1.0
 10
-27.837
 20
-11.9079
 30
0.0
 10
-27.837
 20
-11.9079
 30
0.0
 10
-28.0755
 20
-11.9079
 30
0.0
 10
-28.0755
 20
-11.9079
 30
0.0
 10
-28.0755
 20
-11.9079
 30
0.0
 10
-28.0755
 20
-11.9079
 30
0.0
 10
-28.0755
 20
-10.6003
 30
0.0
 10
-28.0755
 20
-10.6003
 30
0.0
 10
-28.0755
 20
-10.6003
 30
0.0
 10
-28.0755
 20
-10.6003
 30
0.0
 10
-27.8826
 20
-10.6003
 30
0.0
 10
-27.8826
 20
-10.6003
 30
0.0
 10
-27.8826
 20
-10.6003
 30
0.0
 10
-27.7458
 20
-10.7287
 30
0.0
 10
-27.5637
 20
-10.8562
 30
0.0
 10
-27.337
 20
-10.9827
 30
0.0
 10
-27.337
 20
-10.9827
 30
0.0
 10
-27.1103
 20
-11.1088
 30
0.0
 10
-26.8765
 20
-11.2066
 30
0.0
 10
-26.6371
 20
-11.2753
 30
0.0
 10
-26.6371
 20
-11.2753
 30
0.0
 10
-26.4678
 20
-11.3251
 30
0.0
 10
-26.2829
 20
-11.3566
 30
0.0
 10
-26.0816
 20
-11.3703
 30
0.0
 10
-26.0816
 20
-11.3703
 30
0.0
 10
-26.0816
 20
-11.3703
 30
0.0
 10
-26.0816
 20
-11.6252
 30
0.0
 10
-26.0816
 20
-11.6252
 30
0.0
 10
-26.0816
 20
-11.6252
 30
0.0
 10
-26.2406
 20
-11.6224
 30
0.0
 10
-26.4325
 20
-11.5914
 30
0.0
 10
-26.6578
 20
-11.5316
 30
0.0
 10
-26.6578
 20
-11.5316
 30
0.0
 10
-26.8826
 20
-11.4719
 30
0.0
 10
-27.0999
 20
-11.3863
 30
0.0
 10
-27.3088
 20
-11.2748
 30
0.0
 10
-27.3088
 20
-11.2748
 30
0.0
 10
-27.5176
 20
-11.1629
 30
0.0
 10
-27.694
 20
-11.0443
 30
0.0
 10
-27.837
 20
-10.9183
 30
0.0
 10
-27.837
 20
-10.9183
 30
0.0
 10
-27.837
 20
-10.9183
 30
0.0
 10
-27.837
 20
-11.9079
 30
0.0
 10
-27.837
 20
-11.9079
 30
0.0
  0
SPLINE
  5
91
330
1F
100
AcDbEntity
  8
ROUND
 62
   250
100
AcDbSpline
210
0.0
220
0.0
230
1.0
 70
    11
 71
     3
 72
    92
 73
    88
 74
     0
 42
0.0000000001
 43
0.0000000001
 40
0.0
 40
0.0
 40
0.0
 40
0.0
 40
0.0434782608695652
 40
0.0434782608695652
 40
0.0434782608695652
 40
0.0434782608695652
 40
0.0869565217391304
 40
0.0869565217391304
 40
0.0869565217391304
 40
0.0869565217391304
 40
0.1304347826086956
 40
0.1304347826086956
 40
0.1304347826086956
 40
0.1304347826086956
 40
0.1739130434782609
 40
0.1739130434782609
 40
0.1739130434782609
 40
0.1739130434782609
 40
0.2173913043478261
 40
0.2173913043478261
 40
0.2173913043478261
 40
0.2173913043478261
 40
0.2608695652173913
 40
0.2608695652173913
 40
0.2608695652173913
 40
0.2608695652173913
 40
0.3043478260869565
 40
0.3043478260869565
 40
0.3043478260869565
 40
0.3043478260869565
 40
0.3478260869565217
 40
0.3478260869565217
 40
0.3478260869565217
 40
0.3478260869565217
 40
0.391304347826087
 40
0.391304347826087
 40
0.391304347826087
 40
0.391304347826087
 40
0.4347826086956522
 40
0.4347826086956522
 40
0.4347826086956522
 40
0.4347826086956522
 40
0.4782608695652174
 40
0.4782608695652174
 40
0.4782608695652174
 40
0.4782608695652174
 40
0.5217391304347826
 40
0.5217391304347826
 40
0.5217391304347826
 40
0.5217391304347826
 40
0.5652173913043478
 40
0.5652173913043478
 40
0.5652173913043478
 40
0.5652173913043478
 40
0.6086956521739131
 40
0.6086956521739131
 40
0.6086956521739131
 40
0.6086956521739131
 40
0.6521739130434783
 40
0.6521739130434783
 40
0.6521739130434783
 40
0.6521739130434783
 40
0.6956521739130435
 40
0.6956521739130435
 40
0.6956521739130435
 40
0.6956521739130435
 40
0.7391304347826086
 40
0.7391304347826086
 40
0.7391304347826086
 40
0.7391304347826086
 40
0.782608695652174
 40
0.782608695652174
 40
0.782608695652174
 40
0.782608695652174
 40
0.8260869565217391
 40
0.8260869565217391
 40
0.8260869565217391
 40
0.8260869565217391
 40
0.8695652173913043
 40
0.8695652173913043
 40
0.8695652173913043
 40
0.8695652173913043
 40
0.9130434782608695
 40
0.9130434782608695
 40
0.9130434782608695
 40
0.9130434782608695
 40
1.0
 40
1.0
 40
1.0
 40
1.0
 10
-26.3201
 20
-9.0509
 30
0.0
 10
-26.3201
 20
-9.0509
 30
0.0
 10
-26.0816
 20
-9.0509
 30
0.0
 10
-26.0816
 20
-9.0509
 30
0.0
 10
-26.0816
 20
-9.0509
 30
0.0
 10
-26.0816
 20
-9.0509
 30
0.0
 10
-26.0816
 20
-10.3863
 30
0.0
 10
-26.0816
 20
-10.3863
 30
0.0
 10
-26.0816
 20
-10.3863
 30
0.0
 10
-26.1413
 20
-10.3882
 30
0.0
 10
-26.1987
 20
-10.3788
 30
0.0
 10
-26.2538
 20
-10.3576
 30
0.0
 10
-26.2538
 20
-10.3576
 30
0.0
 10
-26.345
 20
-10.3237
 30
0.0
 10
-26.4344
 20
-10.2692
 30
0.0
 10
-26.5228
 20
-10.1944
 30
0.0
 10
-26.5228
 20
-10.1944
 30
0.0
 10
-26.6108
 20
-10.1191
 30
0.0
 10
-26.7128
 20
-10.0109
 30
0.0
 10
-26.8285
 20
-9.8698
 30
0.0
 10
-26.8285
 20
-9.8698
 30
0.0
 10
-27.0087
 20
-9.6502
 30
0.0
 10
-27.1512
 20
-9.5015
 30
0.0
 10
-27.2566
 20
-9.4244
 30
0.0
 10
-27.2566
 20
-9.4244
 30
0.0
 10
-27.3615
 20
-9.3473
 30
0.0
 10
-27.4612
 20
-9.3087
 30
0.0
 10
-27.5548
 20
-9.3087
 30
0.0
 10
-27.5548
 20
-9.3087
 30
0.0
 10
-27.6531
 20
-9.3087
 30
0.0
 10
-27.7359
 20
-9.344
 30
0.0
 10
-27.8036
 20
-9.414
 30
0.0
 10
-27.8036
 20
-9.414
 30
0.0
 10
-27.8709
 20
-9.4846
 30
0.0
 10
-27.9047
 20
-9.5763
 30
0.0
 10
-27.9047
 20
-9.6892
 30
0.0
 10
-27.9047
 20
-9.6892
 30
0.0
 10
-27.9047
 20
-9.8087
 30
0.0
 10
-27.869
 20
-9.9042
 30
0.0
 10
-27.797
 20
-9.9757
 30
0.0
 10
-27.797
 20
-9.9757
 30
0.0
 10
-27.7255
 20
-10.0476
 30
0.0
 10
-27.6263
 20
-10.0838
 30
0.0
 10
-27.4998
 20
-10.0848
 30
0.0
 10
-27.4998
 20
-10.0848
 30
0.0
 10
-27.4998
 20
-10.0848
 30
0.0
 10
-27.5256
 20
-10.3397
 30
0.0
 10
-27.5256
 20
-10.3397
 30
0.0
 10
-27.5256
 20
-10.3397
 30
0.0
 10
-27.7161
 20
-10.3223
 30
0.0
 10
-27.861
 20
-10.2565
 30
0.0
 10
-27.9607
 20
-10.1426
 30
0.0
 10
-27.9607
 20
-10.1426
 30
0.0
 10
-28.0604
 20
-10.0288
 30
0.0
 10
-28.1103
 20
-9.8755
 30
0.0
 10
-28.1103
 20
-9.6836
 30
0.0
 10
-28.1103
 20
-9.6836
 30
0.0
 10
-28.1103
 20
-9.4898
 30
0.0
 10
-28.0562
 20
-9.3364
 30
0.0
 10
-27.949
 20
-9.2235
 30
0.0
 10
-27.949
 20
-9.2235
 30
0.0
 10
-27.8412
 20
-9.1102
 30
0.0
 10
-27.7081
 20
-9.0537
 30
0.0
 10
-27.5491
 20
-9.0537
 30
0.0
 10
-27.5491
 20
-9.0537
 30
0.0
 10
-27.4682
 20
-9.0537
 30
0.0
 10
-27.3887
 20
-9.0702
 30
0.0
 10
-27.3107
 20
-9.1036
 30
0.0
 10
-27.3107
 20
-9.1036
 30
0.0
 10
-27.2326
 20
-9.1365
 30
0.0
 10
-27.1503
 20
-9.1916
 30
0.0
 10
-27.0642
 20
-9.2682
 30
0.0
 10
-27.0642
 20
-9.2682
 30
0.0
 10
-26.9776
 20
-9.3449
 30
0.0
 10
-26.8591
 20
-9.4724
 30
0.0
 10
-26.7086
 20
-9.6506
 30
0.0
 10
-26.7086
 20
-9.6506
 30
0.0
 10
-26.5835
 20
-9.7993
 30
0.0
 10
-26.4988
 20
-9.8948
 30
0.0
 10
-26.4541
 20
-9.9371
 30
0.0
 10
-26.4541
 20
-9.9371
 30
0.0
 10
-26.4099
 20
-9.9794
 30
0.0
 10
-26.3652
 20
-10.0142
 30
0.0
 10
-26.3201
 20
-10.042
 30
0.0
 10
-26.3201
 20
-10.042
 30
0.0
 10
-26.3201
 20
-10.042
 30
0.0
 10
-26.3201
 20
-9.0509
 30
0.0
 10
-26.3201
 20
-9.0509
 30
0.0
  0
SPLINE
  5
92
330
1F
100
AcDbEntity
  8
ROUND
 62
   250
100
AcDbSpline
210
0.0
220
0.0
230
1.0
 70
    11
 71
     3
 72
    20
 73
    16
 74
     0
 42
0.0000000001
 43
0.0000000001
 40
0.0
 40
0.0
 40
0.0
 40
0.0
 40
0.2
 40
0.2
 40
0.2
 40
0.2
 40
0.4
 40
0.4
 40
0.4
 40
0.4
 40
0.6
 40
0.6
 40
0.6
 40
0.6
 40
1.0
 40
1.0
 40
1.0
 40
1.0
 10
-25.9676
 20
-0.0318
 30
0.0
 10
-25.9676
 20
-0.0318
 30
0.0
 10
-25.5266
 20
3.0933
 30
0.0
 10
-25.5266
 20
3.0933
 30
0.0
 10
-25.5266
 20
3.0933
 30
0.0
 10
-25.5266
 20
3.0933
 30
0.0
 10
-25.4286
 20
3.0933
 30
0.0
 10
-25.4286
 20
3.0933
 30
0.0
 10
-25.4286
 20
3.0933
 30
0.0
 10
-25.4286
 20
3.0933
 30
0.0
 10
-24.9583
 20
-0.0318
 30
0.0
 10
-24.9583
 20
-0.0318
 30
0.0
 10
-24.9583
 20
-0.0318
 30
0.0
 10
-24.9583
 20
-0.0318
 30
0.0
 10
-25.9676
 20
-0.0318
 30
0.0
 10
-25.9676
 20
-0.0318
 30
0.0
  0
SPLINE
  5
93
330
1F
100
AcDbEntity
  8
ROUND
 62
   250
100
AcDbSpline
210
0.0
220
0.0
230
1.0
 70
    11
 71
     3
 72
    20
 73
    16
 74
     0
 42
0.0000000001
 43
0.0000000001
 40
0.0
 40
0.0
 40
0.0
 40
0.0
 40
0.2
 40
0.2
 40
0.2
 40
0.2
 40
0.4
 40
0.4
 40
0.4
 40
0.4
 40
0.6
 40
0.6
 40
0.6
 40
0.6
 40
1.0
 40
1.0
 40
1.0
 40
1.0
 10
-24.951
 20
-19.6034
 30
0.0
 10
-24.951
 20
-19.6034
 30
0.0
 10
-25.392
 20
-22.7284
 30
0.0
 10
-25.392
 20
-22.7284
 30
0.0
 10
-25.392
 20
-22.7284
 30
0.0
 10
-25.392
 20
-22.7284
 30
0.0
 10
-25.49
 20
-22.7284
 30
0.0
 10
-25.49
 20
-22.7284
 30
0.0
 10
-25.49
 20
-22.7284
 30
0.0
 10
-25.49
 20
-22.7284
 30
0.0
 10
-25.9603
 20
-19.6034
 30
0.0
 10
-25.9603
 20
-19.6034
 30
0.0
 10
-25.9603
 20
-19.6034
 30
0.0
 10
-25.9603
 20
-19.6034
 30
0.0
 10
-24.951
 20
-19.6034
 30
0.0
 10
-24.951
 20
-19.6034
 30
0.0
  0
SPLINE
  5
94
330
1F
100
AcDbEntity
  8
ROUND
 62
   250
100
AcDbSpline
210
0.0
220
0.0
230
1.0
 70
    24
 71
     3
 72
     8
 73
     4
 74
     0
 42
0.0000000001
 43
0.0000000001
 40
0.0
 40
0.0
 40
0.0
 40
0.0
 40
1.0
 40
1.0
 40
1.0
 40
1.0
 10
-16.4586
 20
-22.8283
 30
0.0
 10
-16.4586
 20
-22.8283
 30
0.0
 10
-26.3756
 20
-22.8283
 30
0.0
 10
-26.3756
 20
-22.8283
 30
0.0
  0
SPLINE
  5
95
330
1F
100
AcDbEntity
  8
ROUND
 62
   250
100
AcDbSpline
210
0.0
220
0.0
230
1.0
 70
    24
 71
     3
 72
     8
 73
     4
 74
     0
 42
0.0000000001
 43
0.0000000001
 40
0.0
 40
0.0
 40
0.0
 40
0.0
 40
1.0
 40
1.0
 40
1.0
 40
1.0
 10
-20.4903
 20
3.2985
 30
0.0
 10
-20.4903
 20
3.2985
 30
0.0
 10
-26.0581
 20
3.2985
 30
0.0
 10
-26.0581
 20
3.2985
 30
0.0
  0
SPLINE
  5
96
330
1F
100
AcDbEntity
  8
ROUND
  6
NEW_LINE1
 62
   250
100
AcDbSpline
210
0.0
220
0.0
230
1.0
 70
    24
 71
     3
 72
     8
 73
     4
 74
     0
 42
0.0000000001
 43
0.0000000001
 40
0.0
 40
0.0
 40
0.0
 40
0.0
 40
1.0
 40
1.0
 40
1.0
 40
1.0
 10
21.7641
 20
-13.371
 30
0.0
 10
21.7641
 20
-13.371
 30
0.0
 10
-4.2331
 20
-13.371
 30
0.0
 10
-4.2331
 20
-13.371
 30
0.0
  0
SPLINE
  5
98
330
1F
100
AcDbEntity
  8
ROUND
  6
NEW_LINE2
 62
   250
100
AcDbSpline
210
0.0
220
0.0
230
1.0
 70
    24
 71
     3
 72
     8
 73
     4
 74
     0
 42
0.0000000001
 43
0.0000000001
 40
0.0
 40
0.0
 40
0.0
 40
0.0
 40
1.0
 40
1.0
 40
1.0
 40
1.0
 10
-2.8321
 20
11.354
 30
0.0
 10
-2.8321
 20
11.354
 30
0.0
 10
-2.8321
 20
-23.7165
 30
0.0
 10
-2.8321
 20
-23.7165
 30
0.0
  0
ENDSEC
  0
SECTION
  2
OBJECTS
  0
DICTIONARY
  5
C
330
0
100
AcDbDictionary
  3
ACAD_GROUP
350
D
  3
ACAD_LAYOUT
350
1A
  3
ACAD_MATERIAL
350
3B
  3
ACAD_MLEADERSTYLE
350
BC
  3
ACAD_MLINESTYLE
350
17
  3
ACAD_PLOTSETTINGS
350
19
  3
ACAD_VISUALSTYLE
350
2A
  3
ACDBHEADERROUNDTRIPXREC
350
9A
  3
ACDBVARIABLEDICTIONARY
350
BA
  0
DICTIONARY
  5
D
102
{ACAD_REACTORS
330
C
102
}
330
C
100
AcDbDictionary
  0
DICTIONARY
  5
1A
102
{ACAD_REACTORS
330
C
102
}
330
C
100
AcDbDictionary
  0
DICTIONARY
  5
3B
102
{ACAD_REACTORS
330
C
102
}
330
C
100
AcDbDictionary
  3
BYBLOCK
350
3D
  3
BYLAYER
350
3C
  3
GLOBAL
350
3E
  0
DICTIONARY
  5
BC
102
{ACAD_REACTORS
330
C
102
}
330
C
100
AcDbDictionary
  0
DICTIONARY
  5
17
102
{ACAD_REACTORS
330
C
102
}
330
C
100
AcDbDictionary
  3
STANDARD
350
18
  0
DICTIONARY
  5
19
102
{ACAD_REACTORS
330
C
102
}
330
C
100
AcDbDictionary
  0
DICTIONARY
  5
2A
102
{ACAD_REACTORS
330
C
102
}
330
C
100
AcDbDictionary
  3
2DWIREFRAME
350
2F
  3
3D_HIDDEN
350
31
  3
3DWIREFRAME
350
30
  3
BASIC
350
32
  3
BRIGHTEN
350
36
  3
COLORCHANGE
350
3A
  3
CONCEPTUAL
350
34
  3
DIM
350
35
  3
FACEPATTERN
350
39
  3
FLAT
350
2B
  3
FLATWITHEDGES
350
2C
  3
GOURAUD
350
2D
  3
GOURAUDWITHEDGES
350
2E
  3
LINEPATTERN
350
38
  3
REALISTIC
350
33
  3
THICKEN
350
37
  0
DICTIONARY
  5
9A
102
{ACAD_REACTORS
330
C
102
}
330
C
100
AcDbDictionary
  3
CEPSNTYPE
350
A3
  3
DIMSTYLEDATA
350
B9
  3
FINGERPRINTGUID
350
A4
  3
HYPERLINKBASE
350
9D
  3
INSUNITS
350
A2
  3
LAYOUTDICT
350
9F
  3
LWETCUNION
350
A1
  3
PLOTSETDICT
350
A0
  3
PSVPSCALE
350
A6
  3
PUCSBASE
350
A9
  3
PUCSORGBACK
350
AF
  3
PUCSORGBOTTOM
350
AB
  3
PUCSORGFRONT
350
AE
  3
PUCSORGLEFT
350
AC
  3
PUCSORGRIGHT
350
AD
  3
PUCSORGTOP
350
AA
  3
PUCSORTHOREF
350
A7
  3
PUCSORTHOVIEW
350
A8
  3
STYLESHEET
350
9E
  3
TSTACKALIGN
350
9B
  3
TSTACKSIZE
350
9C
  3
UCSBASE
350
B2
  3
UCSORGBACK
350
B8
  3
UCSORGBOTTOM
350
B4
  3
UCSORGFRONT
350
B7
  3
UCSORGLEFT
350
B5
  3
UCSORGRIGHT
350
B6
  3
UCSORGTOP
350
B3
  3
UCSORTHOREF
350
B0
  3
UCSORTHOVIEW
350
B1
  3
VERSIONGUID
350
A5
  0
DICTIONARY
  5
BA
102
{ACAD_REACTORS
330
C
102
}
330
C
100
AcDbDictionary
  3
DIMASSOC
350
BD
  3
HIDETEXT
350
BE
  0
MATERIAL
  5
3D
102
{ACAD_REACTORS
330
3B
102
}
102
{ACAD_XDICTIONARY
360
C1
102
}
330
3B
100
AcDbMaterial
  1
ByBlock
  0
MATERIAL
  5
3C
102
{ACAD_REACTORS
330
3B
102
}
102
{ACAD_XDICTIONARY
360
BF
102
}
330
3B
100
AcDbMaterial
  1
ByLayer
  0
MATERIAL
  5
3E
102
{ACAD_REACTORS
330
3B
102
}
102
{ACAD_XDICTIONARY
360
C3
102
}
330
3B
100
AcDbMaterial
  1
Global
  0
MLINESTYLE
  5
18
102
{ACAD_REACTORS
330
17
102
}
330
17
100
AcDbMlineStyle
  2
Standard
 70
     0
  3

 62
   256
 51
90.0
 52
90.0
 71
     2
 49
0.5
 62
   256
  6
BYLAYER
 49
-0.5
 62
   256
  6
BYLAYER
  0
ACAD_PROXY_OBJECT
  5
2F
102
{ACAD_REACTORS
330
2A
102
}
330
2A
100
AcDbProxyObject
 90
      499
 91
      501
 93
      436
310
42CC9915DA5C99599C985B595049028333333333333E3BF0000000000000FB0107901411070040501600405405064090741402480A0340
1001
ACAD
1000
AcDbSavedByObjectVersion
1070
     0
  0
ACAD_PROXY_OBJECT
  5
31
102
{ACAD_REACTORS
330
2A
102
}
330
2A
100
AcDbProxyObject
 90
      499
 91
      501
 93
      500
310
424CD108121A5919195B90640502408333333333333E3BF0000000000000FB01079024090700405020000000000001110200405405064090740C02480A0340
1001
ACAD
1000
AcDbSavedByObjectVersion
1070
     0
  0
ACAD_PROXY_OBJECT
  5
30
102
{ACAD_REACTORS
330
2A
102
}
330
2A
100
AcDbProxyObject
 90
      499
 91
      501
 93
      436
310
42CCD915DA5C99599C985B595059028333333333333E3BF0000000000000FB0107901411070040501600405405064090741402480A0340
1001
ACAD
1000
AcDbSavedByObjectVersion
1070
     0
  0
ACAD_PROXY_OBJECT
  5
32
102
{ACAD_REACTORS
330
2A
102
}
330
2A
100
AcDbProxyObject
 90
      499
 91
      501
 93
      388
310
4150985CDA58D07406404333333333333E3BF0000000000000FB0107A41107004050150841D405064090741402480A0350
1001
ACAD
1000
AcDbSavedByObjectVersion
1070
     0
  0
ACAD_PROXY_OBJECT
  5
36
102
{ACAD_REACTORS
330
2A
102
}
330
2A
100
AcDbProxyObject
 90
      499
 91
      501
 93
      428
310
42109C9A59DA1D195B90C409028333333333333E3BF0000000000000FB010790141107004050150841D405064090741402480A029950
1001
ACAD
1000
AcDbSavedByObjectVersion
1070
     0
  0
ACAD_PROXY_OBJECT
  5
3A
102
{ACAD_REACTORS
330
2A
102
}
330
2A
100
AcDbProxyObject
 90
      499
 91
      501
 93
      452
310
42D0DBDB1BDC90DA185B99D95104090240C333333333333E3BF0000000000000FB0108901411070040501508421405064090741402480A0350
1001
ACAD
1000
AcDbSavedByObjectVersion
1070
     0
  0
ACAD_PROXY_OBJECT
  5
34
102
{ACAD_REACTORS
330
2A
102
}
330
2A
100
AcDbProxyObject
 90
      499
 91
      501
 93
      500
310
4290DBDB98D95C1D1D585B10940D028333333333333E3BF0000000000000FB0107902409070040501000000000000111010841D405064090740C02480A0340
1001
ACAD
1000
AcDbSavedByObjectVersion
1070
     0
  0
ACAD_PROXY_OBJECT
  5
35
102
{ACAD_REACTORS
330
2A
102
}
330
2A
100
AcDbProxyObject
 90
      499
 91
      501
 93
      412
310
40D11A5B50B409028333333333333E3BF0000000000000FB010790141107004050150841D405064090741402480A02677FFFFFD0
1001
ACAD
1000
AcDbSavedByObjectVersion
1070
     0
  0
ACAD_PROXY_OBJECT
  5
39
102
{ACAD_REACTORS
330
2A
102
}
330
2A
100
AcDbProxyObject
 90
      499
 91
      501
 93
      444
310
42D19858D95C185D1D195C9B90F409028333333333333E3BF0000000000000FB010790141107004050150841D405064090741402480A0350
1001
ACAD
1000
AcDbSavedByObjectVersion
1070
     0
  0
ACAD_PROXY_OBJECT
  5
2B
102
{ACAD_REACTORS
330
2A
102
}
330
2A
100
AcDbProxyObject
 90
      499
 91
      501
 93
      388
310
41119B185D240901404333333333333E3BF0000000000000F9010740A41107004050150841D405064090741402480A1B50
1001
ACAD
1000
AcDbSavedByObjectVersion
1070
     0
  0
ACAD_PROXY_OBJECT
  5
2C
102
{ACAD_REACTORS
330
2A
102
}
330
2A
100
AcDbProxyObject
 90
      499
 91
      501
 93
      476
310
43519B185D15DA5D1A115919D95CD0140901404333333333333E3BF0000000000000F9010740901411070040501600405405064090741402480A1B50
1001
ACAD
1000
AcDbSavedByObjectVersion
1070
     0
  0
ACAD_PROXY_OBJECT
  5
2D
102
{ACAD_REACTORS
330
2A
102
}
330
2A
100
AcDbProxyObject
 90
      499
 91
      501
 93
      412
310
41D1DBDD5C985D5910240902404333333333333E3BF0000000000000F9010740A411070040501641D405064090741402480A1B50
1001
ACAD
1000
AcDbSavedByObjectVersion
1070
     0
  0
ACAD_PROXY_OBJECT
  5
2E
102
{ACAD_REACTORS
330
2A
102
}
330
2A
100
AcDbProxyObject
 90
      499
 91
      501
 93
      500
310
4411DBDD5C985D5915DA5D1A115919D95CD0340902404333333333333E3BF0000000000000F9010740901411070040501600405405064090741402480A1B50
1001
ACAD
1000
AcDbSavedByObjectVersion
1070
     0
  0
ACAD_PROXY_OBJECT
  5
38
102
{ACAD_REACTORS
330
2A
102
}
330
2A
100
AcDbProxyObject
 90
      499
 91
      501
 93
      444
310
42D31A5B995C185D1D195C9B90E409028333333333333E3BF0000000000000FB010790141107004050750841D405064090741402483A0350
1001
ACAD
1000
AcDbSavedByObjectVersion
1070
     0
  0
ACAD_PROXY_OBJECT
  5
33
102
{ACAD_REACTORS
330
2A
102
}
330
2A
100
AcDbProxyObject
 90
      499
 91
      501
 93
      420
310
425499585B1A5CDD1A58D08409028333333333333E3BF0000000000000FB01079019070040501508421405064090741402480A1B40
1001
ACAD
1000
AcDbSavedByObjectVersion
1070
     0
  0
ACAD_PROXY_OBJECT
  5
37
102
{ACAD_REACTORS
330
2A
102
}
330
2A
100
AcDbProxyObject
 90
      499
 91
      501
 93
      412
310
41D51A1A58DAD95B90D409028333333333333E3BF0000000000000FB010790141107004050150C41D405064090741402480A0350
1001
ACAD
1000
AcDbSavedByObjectVersion
1070
     0
  0
XRECORD
  5
A3
102
{ACAD_REACTORS
330
9A
102
}
330
9A
100
AcDbXrecord
 90
        0
  0
XRECORD
  5
B9
102
{ACAD_REACTORS
330
9A
102
}
330
9A
100
AcDbXrecord
1000
DSTYLE
1002
{
1070
   340
340
11
1002
}
  0
XRECORD
  5
A4
102
{ACAD_REACTORS
330
9A
102
}
330
9A
100
AcDbXrecord
  1
{20AF7164-A6EA-4751-ACB7-DFC9D5683004}
  0
XRECORD
  5
9D
102
{ACAD_REACTORS
330
9A
102
}
330
9A
100
AcDbXrecord
  1

  0
XRECORD
  5
A2
102
{ACAD_REACTORS
330
9A
102
}
330
9A
100
AcDbXrecord
 90
        4
  0
XRECORD
  5
9F
102
{ACAD_REACTORS
330
9A
102
}
330
9A
100
AcDbXrecord
340
1A
  0
XRECORD
  5
A1
102
{ACAD_REACTORS
330
9A
102
}
330
9A
100
AcDbXrecord
 90
    10781
  0
XRECORD
  5
A0
102
{ACAD_REACTORS
330
9A
102
}
330
9A
100
AcDbXrecord
340
19
  0
XRECORD
  5
A6
102
{ACAD_REACTORS
330
9A
102
}
330
9A
100
AcDbXrecord
 40
0.0
  0
XRECORD
  5
A9
102
{ACAD_REACTORS
330
9A
102
}
330
9A
100
AcDbXrecord
340
0
  0
XRECORD
  5
AF
102
{ACAD_REACTORS
330
9A
102
}
330
9A
100
AcDbXrecord
 10
0.0
 20
0.0
 30
0.0
  0
XRECORD
  5
AB
102
{ACAD_REACTORS
330
9A
102
}
330
9A
100
AcDbXrecord
 10
0.0
 20
0.0
 30
0.0
  0
XRECORD
  5
AE
102
{ACAD_REACTORS
330
9A
102
}
330
9A
100
AcDbXrecord
 10
0.0
 20
0.0
 30
0.0
  0
XRECORD
  5
AC
102
{ACAD_REACTORS
330
9A
102
}
330
9A
100
AcDbXrecord
 10
0.0
 20
0.0
 30
0.0
  0
XRECORD
  5
AD
102
{ACAD_REACTORS
330
9A
102
}
330
9A
100
AcDbXrecord
 10
0.0
 20
0.0
 30
0.0
  0
XRECORD
  5
AA
102
{ACAD_REACTORS
330
9A
102
}
330
9A
100
AcDbXrecord
 10
0.0
 20
0.0
 30
0.0
  0
XRECORD
  5
A7
102
{ACAD_REACTORS
330
9A
102
}
330
9A
100
AcDbXrecord
340
0
  0
XRECORD
  5
A8
102
{ACAD_REACTORS
330
9A
102
}
330
9A
100
AcDbXrecord
 70
     0
  0
XRECORD
  5
9E
102
{ACAD_REACTORS
330
9A
102
}
330
9A
100
AcDbXrecord
  1

  0
XRECORD
  5
9B
102
{ACAD_REACTORS
330
9A
102
}
330
9A
100
AcDbXrecord
 90
        1
  0
XRECORD
  5
9C
102
{ACAD_REACTORS
330
9A
102
}
330
9A
100
AcDbXrecord
 90
       70
  0
XRECORD
  5
B2
102
{ACAD_REACTORS
330
9A
102
}
330
9A
100
AcDbXrecord
340
0
  0
XRECORD
  5
B8
102
{ACAD_REACTORS
330
9A
102
}
330
9A
100
AcDbXrecord
 10
0.0
 20
0.0
 30
0.0
  0
XRECORD
  5
B4
102
{ACAD_REACTORS
330
9A
102
}
330
9A
100
AcDbXrecord
 10
0.0
 20
0.0
 30
0.0
  0
XRECORD
  5
B7
102
{ACAD_REACTORS
330
9A
102
}
330
9A
100
AcDbXrecord
 10
0.0
 20
0.0
 30
0.0
  0
XRECORD
  5
B5
102
{ACAD_REACTORS
330
9A
102
}
330
9A
100
AcDbXrecord
 10
0.0
 20
0.0
 30
0.0
  0
XRECORD
  5
B6
102
{ACAD_REACTORS
330
9A
102
}
330
9A
100
AcDbXrecord
 10
0.0
 20
0.0
 30
0.0
  0
XRECORD
  5
B3
102
{ACAD_REACTORS
330
9A
102
}
330
9A
100
AcDbXrecord
 10
0.0
 20
0.0
 30
0.0
  0
XRECORD
  5
B0
102
{ACAD_REACTORS
330
9A
102
}
330
9A
100
AcDbXrecord
340
0
  0
XRECORD
  5
B1
102
{ACAD_REACTORS
330
9A
102
}
330
9A
100
AcDbXrecord
 70
     0
  0
XRECORD
  5
A5
102
{ACAD_REACTORS
330
9A
102
}
330
9A
100
AcDbXrecord
  1
{FAEB1C32-E019-11D5-929B-00C0DF256EC4}
  0
DICTIONARYVAR
  5
BD
102
{ACAD_REACTORS
330
BA
102
}
330
BA
100
DictionaryVariables
280
     0
  1
2
  0
DICTIONARYVAR
  5
BE
102
{ACAD_REACTORS
330
BA
102
}
330
BA
100
DictionaryVariables
280
     0
  1
1
  0
DICTIONARY
  5
C1
330
3D
100
AcDbDictionary
280
     1
  3
ACAD_XREC_ROUNDTRIP
360
C2
  0
DICTIONARY
  5
BF
330
3C
100
AcDbDictionary
280
     1
  3
ACAD_XREC_ROUNDTRIP
360
C0
  0
DICTIONARY
  5
C3
330
3E
100
AcDbDictionary
280
     1
  3
ACAD_XREC_ROUNDTRIP
360
C4
  0
XRECORD
  5
C2
102
{ACAD_REACTORS
330
C1
102
}
330
C1
100
AcDbXrecord
102
MATERIAL
148
0.0
149
0.0
149
0.0
 93
        0
 94
      127
282
     0
 72
     1
 77
     1
171
     1
175
     1
179
     1
273
     0
  0
XRECORD
  5
C0
102
{ACAD_REACTORS
330
BF
102
}
330
BF
100
AcDbXrecord
102
MATERIAL
148
0.0
149
0.0
149
0.0
 93
        0
 94
      127
282
     0
 72
     1
 77
     1
171
     1
175
     1
179
     1
273
     0
  0
XRECORD
  5
C4
102
{ACAD_REACTORS
330
C3
102
}
330
C3
100
AcDbXrecord
102
MATERIAL
148
0.0
149
0.0
149
0.0
 93
        0
 94
      127
282
     0
 72
     1
 77
     1
171
     1
175
     1
179
     1
273
     0
  0
ENDSEC
  0
EOF
