  0
SECTION
  2
HEADER
  9
$ACADVER
  1
AC1014
  9
$ACADMAINTVER
 70
     9
  9
$DWGCODEPAGE
  3
ANSI_1250
  9
$INSBASE
 10
0.0
 20
0.0
 30
0.0
  9
$EXTMIN
 10
-29.1918
 20
-12.5879
 30
0.0
  9
$EXTMAX
 10
30.8459
 20
12.4468
 30
0.0
  9
$LIMMIN
 10
0.0
 20
0.0
  9
$LIMMAX
 10
12.0
 20
9.0
  9
$ORTHOMODE
 70
     0
  9
$REGENMODE
 70
     1
  9
$FILLMODE
 70
     1
  9
$QTEXTMODE
 70
     0
  9
$MIRRTEXT
 70
     1
  9
$DRAGMODE
 70
     2
  9
$LTSCALE
 40
1.0
  9
$OSMODE
 70
    37
  9
$ATTMODE
 70
     1
  9
$TEXTSIZE
 40
0.2
  9
$TRACEWID
 40
0.05
  9
$TEXTSTYLE
  7
STANDARD
  9
$CLAYER
  8
0
  9
$CELTYPE
  6
BYLAYER
  9
$CECOLOR
 62
   256
  9
$CELTSCALE
 40
1.0
  9
$DELOBJ
 70
     1
  9
$DISPSILH
 70
     0
  9
$DIMSCALE
 40
1.0
  9
$DIMASZ
 40
0.18
  9
$DIMEXO
 40
0.0625
  9
$DIMDLI
 40
0.38
  9
$DIMRND
 40
0.0
  9
$DIMDLE
 40
0.0
  9
$DIMEXE
 40
0.18
  9
$DIMTP
 40
0.0
  9
$DIMTM
 40
0.0
  9
$DIMTXT
 40
0.18
  9
$DIMCEN
 40
0.09
  9
$DIMTSZ
 40
0.0
  9
$DIMTOL
 70
     0
  9
$DIMLIM
 70
     0
  9
$DIMTIH
 70
     1
  9
$DIMTOH
 70
     1
  9
$DIMSE1
 70
     0
  9
$DIMSE2
 70
     0
  9
$DIMTAD
 70
     0
  9
$DIMZIN
 70
     0
  9
$DIMBLK
  1

  9
$DIMASO
 70
     1
  9
$DIMSHO
 70
     1
  9
$DIMPOST
  1

  9
$DIMAPOST
  1

  9
$DIMALT
 70
     0
  9
$DIMALTD
 70
     2
  9
$DIMALTF
 40
25.4
  9
$DIMLFAC
 40
1.0
  9
$DIMTOFL
 70
     0
  9
$DIMTVP
 40
0.0
  9
$DIMTIX
 70
     0
  9
$DIMSOXD
 70
     0
  9
$DIMSAH
 70
     0
  9
$DIMBLK1
  1

  9
$DIMBLK2
  1

  9
$DIMSTYLE
  2
STANDARD
  9
$DIMCLRD
 70
     0
  9
$DIMCLRE
 70
     0
  9
$DIMCLRT
 70
     0
  9
$DIMTFAC
 40
1.0
  9
$DIMGAP
 40
0.09
  9
$DIMJUST
 70
     0
  9
$DIMSD1
 70
     0
  9
$DIMSD2
 70
     0
  9
$DIMTOLJ
 70
     1
  9
$DIMTZIN
 70
     0
  9
$DIMALTZ
 70
     0
  9
$DIMALTTZ
 70
     0
  9
$DIMFIT
 70
     3
  9
$DIMUPT
 70
     0
  9
$DIMUNIT
 70
     2
  9
$DIMDEC
 70
     4
  9
$DIMTDEC
 70
     4
  9
$DIMALTU
 70
     2
  9
$DIMALTTD
 70
     2
  9
$DIMTXSTY
  7
STANDARD
  9
$DIMAUNIT
 70
     0
  9
$LUNITS
 70
     2
  9
$LUPREC
 70
     4
  9
$SKETCHINC
 40
0.1
  9
$FILLETRAD
 40
0.5
  9
$AUNITS
 70
     0
  9
$AUPREC
 70
     0
  9
$MENU
  1
.
  9
$ELEVATION
 40
0.0
  9
$PELEVATION
 40
0.0
  9
$THICKNESS
 40
0.0
  9
$LIMCHECK
 70
     0
  9
$CHAMFERA
 40
0.5
  9
$CHAMFERB
 40
0.5
  9
$CHAMFERC
 40
1.0
  9
$CHAMFERD
 40
0.0
  9
$SKPOLY
 70
     0
  9
$TDCREATE
 40
2456269.419753495
  9
$TDUPDATE
 40
2456269.419753507
  9
$TDINDWG
 40
0.0000000116
  9
$TDUSRTIMER
 40
0.0000000116
  9
$USRTIMER
 70
     1
  9
$ANGBASE
 50
0.0
  9
$ANGDIR
 70
     0
  9
$PDMODE
 70
     0
  9
$PDSIZE
 40
0.0
  9
$PLINEWID
 40
0.0
  9
$COORDS
 70
     1
  9
$SPLFRAME
 70
     0
  9
$SPLINETYPE
 70
     6
  9
$SPLINESEGS
 70
     8
  9
$ATTDIA
 70
     0
  9
$ATTREQ
 70
     1
  9
$HANDLING
 70
     1
  9
$HANDSEED
  5
BC
  9
$SURFTAB1
 70
     6
  9
$SURFTAB2
 70
     6
  9
$SURFTYPE
 70
     6
  9
$SURFU
 70
     6
  9
$SURFV
 70
     6
  9
$UCSNAME
  2

  9
$UCSORG
 10
0.0
 20
0.0
 30
0.0
  9
$UCSXDIR
 10
1.0
 20
0.0
 30
0.0
  9
$UCSYDIR
 10
0.0
 20
1.0
 30
0.0
  9
$PUCSNAME
  2

  9
$PUCSORG
 10
0.0
 20
0.0
 30
0.0
  9
$PUCSXDIR
 10
1.0
 20
0.0
 30
0.0
  9
$PUCSYDIR
 10
0.0
 20
1.0
 30
0.0
  9
$USERI1
 70
     0
  9
$USERI2
 70
     0
  9
$USERI3
 70
     0
  9
$USERI4
 70
     0
  9
$USERI5
 70
     0
  9
$USERR1
 40
0.0
  9
$USERR2
 40
0.0
  9
$USERR3
 40
0.0
  9
$USERR4
 40
0.0
  9
$USERR5
 40
0.0
  9
$WORLDVIEW
 70
     1
  9
$SHADEDGE
 70
     3
  9
$SHADEDIF
 70
    70
  9
$TILEMODE
 70
     1
  9
$MAXACTVP
 70
    64
  9
$PINSBASE
 10
0.0
 20
0.0
 30
0.0
  9
$PLIMCHECK
 70
     0
  9
$PEXTMIN
 10
1.000000000000000E+20
 20
1.000000000000000E+20
 30
1.000000000000000E+20
  9
$PEXTMAX
 10
-1.000000000000000E+20
 20
-1.000000000000000E+20
 30
-1.000000000000000E+20
  9
$PLIMMIN
 10
0.0
 20
0.0
  9
$PLIMMAX
 10
12.0
 20
9.0
  9
$UNITMODE
 70
     0
  9
$VISRETAIN
 70
     1
  9
$PLINEGEN
 70
     0
  9
$PSLTSCALE
 70
     1
  9
$TREEDEPTH
 70
  3020
  9
$PICKSTYLE
 70
     1
  9
$CMLSTYLE
  2
STANDARD
  9
$CMLJUST
 70
     0
  9
$CMLSCALE
 40
1.0
  9
$PROXYGRAPHICS
 70
     1
  9
$MEASUREMENT
 70
     0
  0
ENDSEC
  0
SECTION
  2
CLASSES
  0
CLASS
  1
ACDBDICTIONARYWDFLT
  2
AcDbDictionaryWithDefault
  3
ObjectDBX Classes
 90
        0
280
     0
281
     0
  0
CLASS
  1
VISUALSTYLE
  2
AcDbVisualStyle
  3
ObjectDBX Classes
 90
     4095
280
     0
281
     0
  0
CLASS
  1
MATERIAL
  2
AcDbMaterial
  3
ObjectDBX Classes
 90
     1153
280
     0
281
     0
  0
CLASS
  1
DICTIONARYVAR
  2
AcDbDictionaryVar
  3
ObjectDBX Classes
 90
        0
280
     0
281
     0
  0
CLASS
  1
XRECORD
  2
AcDbXrecord
  3
AutoCAD 2000
 90
        0
280
     0
281
     0
  0
CLASS
  1
LWPOLYLINE
  2
AcDbPolyline
  3
AutoCAD 2000
 90
        0
280
     0
281
     1
  0
CLASS
  1
HATCH
  2
AcDbHatch
  3
AutoCAD 2000
 90
        0
280
     0
281
     1
  0
CLASS
  1
ACDBPLACEHOLDER
  2
AcDbPlaceHolder
  3
ObjectDBX Classes
 90
        0
280
     0
281
     0
  0
CLASS
  1
LAYOUT
  2
AcDbLayout
  3
ObjectDBX Classes
 90
        0
280
     0
281
     0
  0
ENDSEC
  0
SECTION
  2
TABLES
  0
TABLE
  2
VPORT
  5
8
330
0
100
AcDbSymbolTable
 70
     1
  0
VPORT
  5
29
330
8
100
AcDbSymbolTableRecord
100
AcDbViewportTableRecord
  2
*ACTIVE
 70
     0
 10
0.0
 20
0.0
 11
1.0
 21
1.0
 12
10.42990654205607
 22
4.5
 13
0.0
 23
0.0
 14
0.5
 24
0.5
 15
0.5
 25
0.5
 16
0.0
 26
0.0
 36
1.0
 17
0.0
 27
0.0
 37
0.0
 40
9.0
 41
1.972972972850329
 42
50.0
 43
0.0
 44
0.0
 50
0.0
 51
0.0
 71
     0
 72
   100
 73
     1
 74
     3
 75
     0
 76
     0
 77
     0
 78
     0
  0
ENDTAB
  0
TABLE
  2
LTYPE
  5
5
330
0
100
AcDbSymbolTable
 70
     9
  0
LTYPE
  5
14
330
5
100
AcDbSymbolTableRecord
100
AcDbLinetypeTableRecord
  2
BYBLOCK
 70
     0
  3

 72
    65
 73
     0
 40
0.0
  0
LTYPE
  5
15
330
5
100
AcDbSymbolTableRecord
100
AcDbLinetypeTableRecord
  2
BYLAYER
 70
     0
  3

 72
    65
 73
     0
 40
0.0
  0
LTYPE
  5
16
330
5
100
AcDbSymbolTableRecord
100
AcDbLinetypeTableRecord
  2
CONTINUOUS
 70
     0
  3
Solid line
 72
    65
 73
     0
 40
0.0
  0
LTYPE
  5
66
330
5
100
AcDbSymbolTableRecord
100
AcDbLinetypeTableRecord
  2
NEW_LINE1
 70
     0
  3

 72
    65
 73
     4
 40
1.2
 49
0.5
 74
     4
 75
     0
340
0
 46
1.0
 50
0.0
 44
0.0
 45
0.0
 49
-0.3
 74
     4
 75
     0
340
0
 46
1.0
 50
0.0
 44
0.0
 45
0.0
 49
0.1
 74
     4
 75
     0
340
0
 46
1.0
 50
0.0
 44
0.0
 45
0.0
 49
-0.3
 74
     4
 75
     0
340
0
 46
1.0
 50
0.0
 44
0.0
 45
0.0
  0
LTYPE
  5
68
330
5
100
AcDbSymbolTableRecord
100
AcDbLinetypeTableRecord
  2
NEW_LINE2
 70
     0
  3

 72
    65
 73
     4
 40
1.2
 49
0.5
 74
     4
 75
     0
340
0
 46
1.0
 50
0.0
 44
0.0
 45
0.0
 49
-0.3
 74
     4
 75
     0
340
0
 46
1.0
 50
0.0
 44
0.0
 45
0.0
 49
0.1
 74
     4
 75
     0
340
0
 46
1.0
 50
0.0
 44
0.0
 45
0.0
 49
-0.3
 74
     4
 75
     0
340
0
 46
1.0
 50
0.0
 44
0.0
 45
0.0
  0
LTYPE
  5
6C
330
5
100
AcDbSymbolTableRecord
100
AcDbLinetypeTableRecord
  2
NEW_LINE3
 70
     0
  3

 72
    65
 73
     4
 40
1.2
 49
0.5
 74
     4
 75
     0
340
0
 46
1.0
 50
0.0
 44
0.0
 45
0.0
 49
-0.3
 74
     4
 75
     0
340
0
 46
1.0
 50
0.0
 44
0.0
 45
0.0
 49
0.1
 74
     4
 75
     0
340
0
 46
1.0
 50
0.0
 44
0.0
 45
0.0
 49
-0.3
 74
     4
 75
     0
340
0
 46
1.0
 50
0.0
 44
0.0
 45
0.0
  0
LTYPE
  5
6E
330
5
100
AcDbSymbolTableRecord
100
AcDbLinetypeTableRecord
  2
NEW_LINE4
 70
     0
  3

 72
    65
 73
     4
 40
1.2
 49
0.5
 74
     4
 75
     0
340
0
 46
1.0
 50
0.0
 44
0.0
 45
0.0
 49
-0.3
 74
     4
 75
     0
340
0
 46
1.0
 50
0.0
 44
0.0
 45
0.0
 49
0.1
 74
     4
 75
     0
340
0
 46
1.0
 50
0.0
 44
0.0
 45
0.0
 49
-0.3
 74
     4
 75
     0
340
0
 46
1.0
 50
0.0
 44
0.0
 45
0.0
  0
LTYPE
  5
70
330
5
100
AcDbSymbolTableRecord
100
AcDbLinetypeTableRecord
  2
NEW_LINE5
 70
     0
  3

 72
    65
 73
     4
 40
1.2
 49
0.5
 74
     4
 75
     0
340
0
 46
1.0
 50
0.0
 44
0.0
 45
0.0
 49
-0.3
 74
     4
 75
     0
340
0
 46
1.0
 50
0.0
 44
0.0
 45
0.0
 49
0.1
 74
     4
 75
     0
340
0
 46
1.0
 50
0.0
 44
0.0
 45
0.0
 49
-0.3
 74
     4
 75
     0
340
0
 46
1.0
 50
0.0
 44
0.0
 45
0.0
  0
LTYPE
  5
72
330
5
100
AcDbSymbolTableRecord
100
AcDbLinetypeTableRecord
  2
NEW_LINE6
 70
     0
  3

 72
    65
 73
     4
 40
1.2
 49
0.5
 74
     4
 75
     0
340
0
 46
1.0
 50
0.0
 44
0.0
 45
0.0
 49
-0.3
 74
     4
 75
     0
340
0
 46
1.0
 50
0.0
 44
0.0
 45
0.0
 49
0.1
 74
     4
 75
     0
340
0
 46
1.0
 50
0.0
 44
0.0
 45
0.0
 49
-0.3
 74
     4
 75
     0
340
0
 46
1.0
 50
0.0
 44
0.0
 45
0.0
  0
LTYPE
  5
7E
330
5
100
AcDbSymbolTableRecord
100
AcDbLinetypeTableRecord
  2
NEW_LINE7
 70
     0
  3

 72
    65
 73
     4
 40
1.2
 49
0.5
 74
     4
 75
     0
340
0
 46
1.0
 50
0.0
 44
0.0
 45
0.0
 49
-0.3
 74
     4
 75
     0
340
0
 46
1.0
 50
0.0
 44
0.0
 45
0.0
 49
0.1
 74
     4
 75
     0
340
0
 46
1.0
 50
0.0
 44
0.0
 45
0.0
 49
-0.3
 74
     4
 75
     0
340
0
 46
1.0
 50
0.0
 44
0.0
 45
0.0
  0
LTYPE
  5
80
330
5
100
AcDbSymbolTableRecord
100
AcDbLinetypeTableRecord
  2
NEW_LINE8
 70
     0
  3

 72
    65
 73
     4
 40
1.2
 49
0.5
 74
     4
 75
     0
340
0
 46
1.0
 50
0.0
 44
0.0
 45
0.0
 49
-0.3
 74
     4
 75
     0
340
0
 46
1.0
 50
0.0
 44
0.0
 45
0.0
 49
0.1
 74
     4
 75
     0
340
0
 46
1.0
 50
0.0
 44
0.0
 45
0.0
 49
-0.3
 74
     4
 75
     0
340
0
 46
1.0
 50
0.0
 44
0.0
 45
0.0
  0
ENDTAB
  0
TABLE
  2
LAYER
  5
2
330
0
100
AcDbSymbolTable
 70
     2
  0
LAYER
  5
10
330
2
100
AcDbSymbolTableRecord
100
AcDbLayerTableRecord
  2
0
 70
     0
 62
     7
  6
CONTINUOUS
  0
LAYER
  5
40
330
2
100
AcDbSymbolTableRecord
100
AcDbLayerTableRecord
  2
ROUND
 70
     0
 62
     7
  6
CONTINUOUS
  0
ENDTAB
  0
TABLE
  2
STYLE
  5
3
330
0
100
AcDbSymbolTable
 70
     1
  0
STYLE
  5
11
330
3
100
AcDbSymbolTableRecord
100
AcDbTextStyleTableRecord
  2
STANDARD
 70
     0
 40
0.0
 41
1.0
 50
0.0
 71
     0
 42
0.2
  3
txt
  4

  0
ENDTAB
  0
TABLE
  2
VIEW
  5
6
330
0
100
AcDbSymbolTable
 70
     0
  0
ENDTAB
  0
TABLE
  2
UCS
  5
7
330
0
100
AcDbSymbolTable
 70
     0
  0
ENDTAB
  0
TABLE
  2
APPID
  5
9
330
0
100
AcDbSymbolTable
 70
     2
  0
APPID
  5
12
330
9
100
AcDbSymbolTableRecord
100
AcDbRegAppTableRecord
  2
ACAD
 70
     0
  0
APPID
  5
3F
330
9
100
AcDbSymbolTableRecord
100
AcDbRegAppTableRecord
  2
ODA
 70
     0
  0
ENDTAB
  0
TABLE
  2
DIMSTYLE
  5
A
330
0
100
AcDbSymbolTable
 70
     1
  0
DIMSTYLE
105
27
330
A
100
AcDbSymbolTableRecord
100
AcDbDimStyleTableRecord
  2
STANDARD
 70
     0
  3

  4

  5

  6

  7

 40
1.0
 41
0.18
 42
0.0625
 43
0.38
 44
0.18
 45
0.0
 46
0.0
 47
0.0
 48
0.0
140
0.18
141
0.09
142
0.0
143
25.4
144
1.0
145
0.0
146
1.0
147
0.09
 71
     0
 72
     0
 73
     1
 74
     1
 75
     0
 76
     0
 77
     0
 78
     0
170
     0
171
     2
172
     0
173
     0
174
     0
175
     0
176
     0
177
     0
178
     0
270
     2
271
     4
272
     4
273
     2
274
     2
340
11
275
     0
280
     0
281
     0
282
     0
283
     1
284
     0
285
     0
286
     0
287
     3
288
     0
  0
ENDTAB
  0
TABLE
  2
BLOCK_RECORD
  5
1
330
0
100
AcDbSymbolTable
 70
     1
  0
BLOCK_RECORD
  5
1F
330
1
100
AcDbSymbolTableRecord
100
AcDbBlockTableRecord
  2
*MODEL_SPACE
  0
BLOCK_RECORD
  5
1B
330
1
100
AcDbSymbolTableRecord
100
AcDbBlockTableRecord
  2
*PAPER_SPACE
  0
ENDTAB
  0
ENDSEC
  0
SECTION
  2
BLOCKS
  0
BLOCK
  5
20
330
1F
100
AcDbEntity
  8
0
100
AcDbBlockBegin
  2
*MODEL_SPACE
 70
     0
 10
0.0
 20
0.0
 30
0.0
  3
*MODEL_SPACE
  1

  0
ENDBLK
  5
21
330
1F
100
AcDbEntity
  8
0
100
AcDbBlockEnd
  0
BLOCK
  5
1C
330
1B
100
AcDbEntity
 67
     1
  8
0
100
AcDbBlockBegin
  2
*PAPER_SPACE
 70
     0
 10
0.0
 20
0.0
 30
0.0
  3
*PAPER_SPACE
  1

  0
ENDBLK
  5
1D
330
1B
100
AcDbEntity
 67
     1
  8
0
100
AcDbBlockEnd
  0
ENDSEC
  0
SECTION
  2
ENTITIES
  0
SPLINE
  5
41
330
1F
100
AcDbEntity
  8
ROUND
 62
   250
100
AcDbSpline
210
0.0
220
0.0
230
1.0
 70
    24
 71
     3
 72
     8
 73
     4
 74
     0
 42
0.0000000001
 43
0.0000000001
 40
0.0
 40
0.0
 40
0.0
 40
0.0
 40
1.0
 40
1.0
 40
1.0
 40
1.0
 10
12.6557
 20
9.2036
 30
0.0
 10
12.6557
 20
9.2036
 30
0.0
 10
30.8459
 20
9.2036
 30
0.0
 10
30.8459
 20
9.2036
 30
0.0
  0
SPLINE
  5
42
330
1F
100
AcDbEntity
  8
ROUND
 62
   250
100
AcDbSpline
210
0.0
220
0.0
230
1.0
 70
    11
 71
     3
 72
   120
 73
   116
 74
     0
 42
0.0000000001
 43
0.0000000001
 40
0.0
 40
0.0
 40
0.0
 40
0.0
 40
0.0333333333333333
 40
0.0333333333333333
 40
0.0333333333333333
 40
0.0333333333333333
 40
0.0666666666666667
 40
0.0666666666666667
 40
0.0666666666666667
 40
0.0666666666666667
 40
0.1
 40
0.1
 40
0.1
 40
0.1
 40
0.1333333333333333
 40
0.1333333333333333
 40
0.1333333333333333
 40
0.1333333333333333
 40
0.1666666666666667
 40
0.1666666666666667
 40
0.1666666666666667
 40
0.1666666666666667
 40
0.2
 40
0.2
 40
0.2
 40
0.2
 40
0.2333333333333333
 40
0.2333333333333333
 40
0.2333333333333333
 40
0.2333333333333333
 40
0.2666666666666667
 40
0.2666666666666667
 40
0.2666666666666667
 40
0.2666666666666667
 40
0.3
 40
0.3
 40
0.3
 40
0.3
 40
0.3333333333333333
 40
0.3333333333333333
 40
0.3333333333333333
 40
0.3333333333333333
 40
0.3666666666666666
 40
0.3666666666666666
 40
0.3666666666666666
 40
0.3666666666666666
 40
0.4
 40
0.4
 40
0.4
 40
0.4
 40
0.4333333333333333
 40
0.4333333333333333
 40
0.4333333333333333
 40
0.4333333333333333
 40
0.4666666666666667
 40
0.4666666666666667
 40
0.4666666666666667
 40
0.4666666666666667
 40
0.5
 40
0.5
 40
0.5
 40
0.5
 40
0.5333333333333333
 40
0.5333333333333333
 40
0.5333333333333333
 40
0.5333333333333333
 40
0.5666666666666667
 40
0.5666666666666667
 40
0.5666666666666667
 40
0.5666666666666667
 40
0.6
 40
0.6
 40
0.6
 40
0.6
 40
0.6333333333333333
 40
0.6333333333333333
 40
0.6333333333333333
 40
0.6333333333333333
 40
0.6666666666666666
 40
0.6666666666666666
 40
0.6666666666666666
 40
0.6666666666666666
 40
0.7
 40
0.7
 40
0.7
 40
0.7
 40
0.7333333333333333
 40
0.7333333333333333
 40
0.7333333333333333
 40
0.7333333333333333
 40
0.7666666666666667
 40
0.7666666666666667
 40
0.7666666666666667
 40
0.7666666666666667
 40
0.8
 40
0.8
 40
0.8
 40
0.8
 40
0.8333333333333334
 40
0.8333333333333334
 40
0.8333333333333334
 40
0.8333333333333334
 40
0.8666666666666667
 40
0.8666666666666667
 40
0.8666666666666667
 40
0.8666666666666667
 40
0.9
 40
0.9
 40
0.9
 40
0.9
 40
0.9333333333333333
 40
0.9333333333333333
 40
0.9333333333333333
 40
0.9333333333333333
 40
1.0
 40
1.0
 40
1.0
 40
1.0
 10
19.2013
 20
11.1848
 30
0.0
 10
19.2013
 20
11.1848
 30
0.0
 10
19.2013
 20
11.4214
 30
0.0
 10
19.2013
 20
11.4214
 30
0.0
 10
19.2013
 20
11.4214
 30
0.0
 10
19.2013
 20
11.4214
 30
0.0
 10
20.0569
 20
11.4228
 30
0.0
 10
20.0569
 20
11.4228
 30
0.0
 10
20.0569
 20
11.4228
 30
0.0
 10
20.0569
 20
11.4228
 30
0.0
 10
20.0569
 20
10.6735
 30
0.0
 10
20.0569
 20
10.6735
 30
0.0
 10
20.0569
 20
10.6735
 30
0.0
 10
19.9257
 20
10.5686
 30
0.0
 10
19.7902
 20
10.49
 30
0.0
 10
19.6505
 20
10.4369
 30
0.0
 10
19.6505
 20
10.4369
 30
0.0
 10
19.5108
 20
10.3842
 30
0.0
 10
19.3674
 20
10.3579
 30
0.0
 10
19.2206
 20
10.3579
 30
0.0
 10
19.2206
 20
10.3579
 30
0.0
 10
19.0221
 20
10.3579
 30
0.0
 10
18.8415
 20
10.4002
 30
0.0
 10
18.6797
 20
10.4853
 30
0.0
 10
18.6797
 20
10.4853
 30
0.0
 10
18.5174
 20
10.57
 30
0.0
 10
18.3951
 20
10.6932
 30
0.0
 10
18.3123
 20
10.8536
 30
0.0
 10
18.3123
 20
10.8536
 30
0.0
 10
18.2295
 20
11.0145
 30
0.0
 10
18.1881
 20
11.1942
 30
0.0
 10
18.1881
 20
11.3927
 30
0.0
 10
18.1881
 20
11.3927
 30
0.0
 10
18.1881
 20
11.5893
 30
0.0
 10
18.2295
 20
11.7727
 30
0.0
 10
18.3119
 20
11.943
 30
0.0
 10
18.3119
 20
11.943
 30
0.0
 10
18.3937
 20
12.1137
 30
0.0
 10
18.5122
 20
12.2403
 30
0.0
 10
18.6665
 20
12.3231
 30
0.0
 10
18.6665
 20
12.3231
 30
0.0
 10
18.8208
 20
12.4054
 30
0.0
 10
18.9986
 20
12.4468
 30
0.0
 10
19.1999
 20
12.4468
 30
0.0
 10
19.1999
 20
12.4468
 30
0.0
 10
19.3457
 20
12.4468
 30
0.0
 10
19.4779
 20
12.4232
 30
0.0
 10
19.596
 20
12.3757
 30
0.0
 10
19.596
 20
12.3757
 30
0.0
 10
19.714
 20
12.3287
 30
0.0
 10
19.8067
 20
12.2628
 30
0.0
 10
19.8735
 20
12.1782
 30
0.0
 10
19.8735
 20
12.1782
 30
0.0
 10
19.9407
 20
12.0935
 30
0.0
 10
19.9915
 20
11.9835
 30
0.0
 10
20.0268
 20
11.8475
 30
0.0
 10
20.0268
 20
11.8475
 30
0.0
 10
20.0268
 20
11.8475
 30
0.0
 10
19.7855
 20
11.7812
 30
0.0
 10
19.7855
 20
11.7812
 30
0.0
 10
19.7855
 20
11.7812
 30
0.0
 10
19.7549
 20
11.8842
 30
0.0
 10
19.7173
 20
11.9651
 30
0.0
 10
19.6726
 20
12.0239
 30
0.0
 10
19.6726
 20
12.0239
 30
0.0
 10
19.6275
 20
12.0827
 30
0.0
 10
19.563
 20
12.1297
 30
0.0
 10
19.4793
 20
12.165
 30
0.0
 10
19.4793
 20
12.165
 30
0.0
 10
19.396
 20
12.2003
 30
0.0
 10
19.3029
 20
12.2182
 30
0.0
 10
19.2013
 20
12.2182
 30
0.0
 10
19.2013
 20
12.2182
 30
0.0
 10
19.079
 20
12.2182
 30
0.0
 10
18.9732
 20
12.1993
 30
0.0
 10
18.8843
 20
12.1622
 30
0.0
 10
18.8843
 20
12.1622
 30
0.0
 10
18.7949
 20
12.125
 30
0.0
 10
18.7234
 20
12.0761
 30
0.0
 10
18.6684
 20
12.0154
 30
0.0
 10
18.6684
 20
12.0154
 30
0.0
 10
18.6138
 20
11.9548
 30
0.0
 10
18.5715
 20
11.8884
 30
0.0
 10
18.5409
 20
11.8155
 30
0.0
 10
18.5409
 20
11.8155
 30
0.0
 10
18.4897
 20
11.6909
 30
0.0
 10
18.4638
 20
11.5554
 30
0.0
 10
18.4638
 20
11.4091
 30
0.0
 10
18.4638
 20
11.4091
 30
0.0
 10
18.4638
 20
11.229
 30
0.0
 10
18.4948
 20
11.0785
 30
0.0
 10
18.5569
 20
10.9571
 30
0.0
 10
18.5569
 20
10.9571
 30
0.0
 10
18.619
 20
10.8358
 30
0.0
 10
18.7093
 20
10.7459
 30
0.0
 10
18.8278
 20
10.6871
 30
0.0
 10
18.8278
 20
10.6871
 30
0.0
 10
18.9464
 20
10.6283
 30
0.0
 10
19.072
 20
10.5987
 30
0.0
 10
19.2051
 20
10.5987
 30
0.0
 10
19.2051
 20
10.5987
 30
0.0
 10
19.3213
 20
10.5987
 30
0.0
 10
19.4341
 20
10.6213
 30
0.0
 10
19.5442
 20
10.666
 30
0.0
 10
19.5442
 20
10.666
 30
0.0
 10
19.6548
 20
10.7102
 30
0.0
 10
19.738
 20
10.7577
 30
0.0
 10
19.7949
 20
10.8085
 30
0.0
 10
19.7949
 20
10.8085
 30
0.0
 10
19.7949
 20
10.8085
 30
0.0
 10
19.7949
 20
11.1848
 30
0.0
 10
19.7949
 20
11.1848
 30
0.0
 10
19.7949
 20
11.1848
 30
0.0
 10
19.7949
 20
11.1848
 30
0.0
 10
19.2013
 20
11.1848
 30
0.0
 10
19.2013
 20
11.1848
 30
0.0
  0
SPLINE
  5
43
330
1F
100
AcDbEntity
  8
ROUND
 62
   250
100
AcDbSpline
210
0.0
220
0.0
230
1.0
 70
    11
 71
     3
 72
    80
 73
    76
 74
     0
 42
0.0000000001
 43
0.0000000001
 40
0.0
 40
0.0
 40
0.0
 40
0.0
 40
0.05
 40
0.05
 40
0.05
 40
0.05
 40
0.1
 40
0.1
 40
0.1
 40
0.1
 40
0.15
 40
0.15
 40
0.15
 40
0.15
 40
0.2
 40
0.2
 40
0.2
 40
0.2
 40
0.25
 40
0.25
 40
0.25
 40
0.25
 40
0.3
 40
0.3
 40
0.3
 40
0.3
 40
0.35
 40
0.35
 40
0.35
 40
0.35
 40
0.4
 40
0.4
 40
0.4
 40
0.4
 40
0.45
 40
0.45
 40
0.45
 40
0.45
 40
0.5
 40
0.5
 40
0.5
 40
0.5
 40
0.55
 40
0.55
 40
0.55
 40
0.55
 40
0.6
 40
0.6
 40
0.6
 40
0.6
 40
0.65
 40
0.65
 40
0.65
 40
0.65
 40
0.7
 40
0.7
 40
0.7
 40
0.7
 40
0.75
 40
0.75
 40
0.75
 40
0.75
 40
0.8
 40
0.8
 40
0.8
 40
0.8
 40
0.85
 40
0.85
 40
0.85
 40
0.85
 40
0.9
 40
0.9
 40
0.9
 40
0.9
 40
1.0
 40
1.0
 40
1.0
 40
1.0
 10
22.4214
 20
11.9176
 30
0.0
 10
22.4214
 20
11.9176
 30
0.0
 10
22.175
 20
11.8983
 30
0.0
 10
22.175
 20
11.8983
 30
0.0
 10
22.175
 20
11.8983
 30
0.0
 10
22.1529
 20
11.9957
 30
0.0
 10
22.1218
 20
12.0667
 30
0.0
 10
22.0814
 20
12.1104
 30
0.0
 10
22.0814
 20
12.1104
 30
0.0
 10
22.0141
 20
12.1815
 30
0.0
 10
21.9313
 20
12.2168
 30
0.0
 10
21.833
 20
12.2168
 30
0.0
 10
21.833
 20
12.2168
 30
0.0
 10
21.754
 20
12.2168
 30
0.0
 10
21.6849
 20
12.1946
 30
0.0
 10
21.6251
 20
12.1504
 30
0.0
 10
21.6251
 20
12.1504
 30
0.0
 10
21.547
 20
12.0935
 30
0.0
 10
21.4854
 20
12.0103
 30
0.0
 10
21.4403
 20
11.9011
 30
0.0
 10
21.4403
 20
11.9011
 30
0.0
 10
21.3956
 20
11.792
 30
0.0
 10
21.3721
 20
11.6363
 30
0.0
 10
21.3702
 20
11.4341
 30
0.0
 10
21.3702
 20
11.4341
 30
0.0
 10
21.4299
 20
11.5248
 30
0.0
 10
21.5028
 20
11.5926
 30
0.0
 10
21.5894
 20
11.6368
 30
0.0
 10
21.5894
 20
11.6368
 30
0.0
 10
21.6754
 20
11.6805
 30
0.0
 10
21.7662
 20
11.7026
 30
0.0
 10
21.8608
 20
11.7026
 30
0.0
 10
21.8608
 20
11.7026
 30
0.0
 10
22.0263
 20
11.7026
 30
0.0
 10
22.167
 20
11.642
 30
0.0
 10
22.2832
 20
11.5201
 30
0.0
 10
22.2832
 20
11.5201
 30
0.0
 10
22.3993
 20
11.3983
 30
0.0
 10
22.4577
 20
11.2412
 30
0.0
 10
22.4577
 20
11.0484
 30
0.0
 10
22.4577
 20
11.0484
 30
0.0
 10
22.4577
 20
10.9214
 30
0.0
 10
22.4299
 20
10.8038
 30
0.0
 10
22.3753
 20
10.6946
 30
0.0
 10
22.3753
 20
10.6946
 30
0.0
 10
22.3208
 20
10.586
 30
0.0
 10
22.2455
 20
10.5023
 30
0.0
 10
22.15
 20
10.4444
 30
0.0
 10
22.15
 20
10.4444
 30
0.0
 10
22.0546
 20
10.3866
 30
0.0
 10
21.9464
 20
10.3579
 30
0.0
 10
21.825
 20
10.3579
 30
0.0
 10
21.825
 20
10.3579
 30
0.0
 10
21.6181
 20
10.3579
 30
0.0
 10
21.4497
 20
10.4336
 30
0.0
 10
21.3194
 20
10.586
 30
0.0
 10
21.3194
 20
10.586
 30
0.0
 10
21.1886
 20
10.7379
 30
0.0
 10
21.1237
 20
10.9886
 30
0.0
 10
21.1237
 20
11.3376
 30
0.0
 10
21.1237
 20
11.3376
 30
0.0
 10
21.1237
 20
11.728
 30
0.0
 10
21.1957
 20
12.0117
 30
0.0
 10
21.3401
 20
12.189
 30
0.0
 10
21.3401
 20
12.189
 30
0.0
 10
21.4657
 20
12.3433
 30
0.0
 10
21.635
 20
12.4209
 30
0.0
 10
21.8485
 20
12.4209
 30
0.0
 10
21.8485
 20
12.4209
 30
0.0
 10
22.0071
 20
12.4209
 30
0.0
 10
22.1373
 20
12.3762
 30
0.0
 10
22.2389
 20
12.2868
 30
0.0
 10
22.2389
 20
12.2868
 30
0.0
 10
22.3405
 20
12.1979
 30
0.0
 10
22.4012
 20
12.0747
 30
0.0
 10
22.4214
 20
11.9176
 30
0.0
  0
SPLINE
  5
44
330
1F
100
AcDbEntity
  8
ROUND
 62
   250
100
AcDbSpline
210
0.0
220
0.0
230
1.0
 70
    11
 71
     3
 72
    40
 73
    36
 74
     0
 42
0.0000000001
 43
0.0000000001
 40
0.0
 40
0.0
 40
0.0
 40
0.0
 40
0.1
 40
0.1
 40
0.1
 40
0.1
 40
0.2
 40
0.2
 40
0.2
 40
0.2
 40
0.3
 40
0.3
 40
0.3
 40
0.3
 40
0.4
 40
0.4
 40
0.4
 40
0.4
 40
0.5
 40
0.5
 40
0.5
 40
0.5
 40
0.6
 40
0.6
 40
0.6
 40
0.6
 40
0.7
 40
0.7
 40
0.7
 40
0.7
 40
0.8
 40
0.8
 40
0.8
 40
0.8
 40
1.0
 40
1.0
 40
1.0
 40
1.0
 10
21.4087
 20
11.047
 30
0.0
 10
21.4087
 20
10.9613
 30
0.0
 10
21.4271
 20
10.8795
 30
0.0
 10
21.4633
 20
10.8014
 30
0.0
 10
21.4633
 20
10.8014
 30
0.0
 10
21.4995
 20
10.7233
 30
0.0
 10
21.5503
 20
10.6641
 30
0.0
 10
21.6152
 20
10.6232
 30
0.0
 10
21.6152
 20
10.6232
 30
0.0
 10
21.6806
 20
10.5822
 30
0.0
 10
21.7493
 20
10.5615
 30
0.0
 10
21.8208
 20
10.5615
 30
0.0
 10
21.8208
 20
10.5615
 30
0.0
 10
21.9257
 20
10.5615
 30
0.0
 10
22.0155
 20
10.6039
 30
0.0
 10
22.0908
 20
10.6885
 30
0.0
 10
22.0908
 20
10.6885
 30
0.0
 10
22.166
 20
10.7732
 30
0.0
 10
22.2037
 20
10.888
 30
0.0
 10
22.2037
 20
11.0328
 30
0.0
 10
22.2037
 20
11.0328
 30
0.0
 10
22.2037
 20
11.1725
 30
0.0
 10
22.1665
 20
11.2826
 30
0.0
 10
22.0922
 20
11.363
 30
0.0
 10
22.0922
 20
11.363
 30
0.0
 10
22.0179
 20
11.4435
 30
0.0
 10
21.9243
 20
11.4835
 30
0.0
 10
21.8114
 20
11.4835
 30
0.0
 10
21.8114
 20
11.4835
 30
0.0
 10
21.699
 20
11.4835
 30
0.0
 10
21.6039
 20
11.4435
 30
0.0
 10
21.5259
 20
11.363
 30
0.0
 10
21.5259
 20
11.363
 30
0.0
 10
21.4478
 20
11.2826
 30
0.0
 10
21.4087
 20
11.1772
 30
0.0
 10
21.4087
 20
11.047
 30
0.0
  0
SPLINE
  5
45
330
1F
100
AcDbEntity
  8
ROUND
 62
   250
100
AcDbSpline
210
0.0
220
0.0
230
1.0
 70
    11
 71
     3
 72
    20
 73
    16
 74
     0
 42
0.0000000001
 43
0.0000000001
 40
0.0
 40
0.0
 40
0.0
 40
0.0
 40
0.2
 40
0.2
 40
0.2
 40
0.2
 40
0.4
 40
0.4
 40
0.4
 40
0.4
 40
0.6
 40
0.6
 40
0.6
 40
0.6
 40
1.0
 40
1.0
 40
1.0
 40
1.0
 10
22.587
 20
10.3579
 30
0.0
 10
22.587
 20
10.3579
 30
0.0
 10
23.1726
 20
12.4468
 30
0.0
 10
23.1726
 20
12.4468
 30
0.0
 10
23.1726
 20
12.4468
 30
0.0
 10
23.1726
 20
12.4468
 30
0.0
 10
23.3711
 20
12.4468
 30
0.0
 10
23.3711
 20
12.4468
 30
0.0
 10
23.3711
 20
12.4468
 30
0.0
 10
23.3711
 20
12.4468
 30
0.0
 10
22.7869
 20
10.3579
 30
0.0
 10
22.7869
 20
10.3579
 30
0.0
 10
22.7869
 20
10.3579
 30
0.0
 10
22.7869
 20
10.3579
 30
0.0
 10
22.587
 20
10.3579
 30
0.0
 10
22.587
 20
10.3579
 30
0.0
  0
SPLINE
  5
46
330
1F
100
AcDbEntity
  8
ROUND
 62
   250
100
AcDbSpline
210
0.0
220
0.0
230
1.0
 70
    11
 71
     3
 72
    48
 73
    44
 74
     0
 42
0.0000000001
 43
0.0000000001
 40
0.0
 40
0.0
 40
0.0
 40
0.0
 40
0.0833333333333333
 40
0.0833333333333333
 40
0.0833333333333333
 40
0.0833333333333333
 40
0.1666666666666667
 40
0.1666666666666667
 40
0.1666666666666667
 40
0.1666666666666667
 40
0.25
 40
0.25
 40
0.25
 40
0.25
 40
0.3333333333333333
 40
0.3333333333333333
 40
0.3333333333333333
 40
0.3333333333333333
 40
0.4166666666666667
 40
0.4166666666666667
 40
0.4166666666666667
 40
0.4166666666666667
 40
0.5
 40
0.5
 40
0.5
 40
0.5
 40
0.5833333333333334
 40
0.5833333333333334
 40
0.5833333333333334
 40
0.5833333333333334
 40
0.6666666666666666
 40
0.6666666666666666
 40
0.6666666666666666
 40
0.6666666666666666
 40
0.75
 40
0.75
 40
0.75
 40
0.75
 40
0.8333333333333334
 40
0.8333333333333334
 40
0.8333333333333334
 40
0.8333333333333334
 40
1.0
 40
1.0
 40
1.0
 40
1.0
 10
24.2831
 20
10.3922
 30
0.0
 10
24.2831
 20
10.3922
 30
0.0
 10
24.2831
 20
10.8757
 30
0.0
 10
24.2831
 20
10.8757
 30
0.0
 10
24.2831
 20
10.8757
 30
0.0
 10
24.2831
 20
10.8757
 30
0.0
 10
23.4068
 20
10.8757
 30
0.0
 10
23.4068
 20
10.8757
 30
0.0
 10
23.4068
 20
10.8757
 30
0.0
 10
23.4068
 20
10.8757
 30
0.0
 10
23.4068
 20
11.1034
 30
0.0
 10
23.4068
 20
11.1034
 30
0.0
 10
23.4068
 20
11.1034
 30
0.0
 10
23.4068
 20
11.1034
 30
0.0
 10
24.3288
 20
12.4124
 30
0.0
 10
24.3288
 20
12.4124
 30
0.0
 10
24.3288
 20
12.4124
 30
0.0
 10
24.3288
 20
12.4124
 30
0.0
 10
24.5315
 20
12.4124
 30
0.0
 10
24.5315
 20
12.4124
 30
0.0
 10
24.5315
 20
12.4124
 30
0.0
 10
24.5315
 20
12.4124
 30
0.0
 10
24.5315
 20
11.1034
 30
0.0
 10
24.5315
 20
11.1034
 30
0.0
 10
24.5315
 20
11.1034
 30
0.0
 10
24.5315
 20
11.1034
 30
0.0
 10
24.8043
 20
11.1034
 30
0.0
 10
24.8043
 20
11.1034
 30
0.0
 10
24.8043
 20
11.1034
 30
0.0
 10
24.8043
 20
11.1034
 30
0.0
 10
24.8043
 20
10.8757
 30
0.0
 10
24.8043
 20
10.8757
 30
0.0
 10
24.8043
 20
10.8757
 30
0.0
 10
24.8043
 20
10.8757
 30
0.0
 10
24.5315
 20
10.8757
 30
0.0
 10
24.5315
 20
10.8757
 30
0.0
 10
24.5315
 20
10.8757
 30
0.0
 10
24.5315
 20
10.8757
 30
0.0
 10
24.5315
 20
10.3922
 30
0.0
 10
24.5315
 20
10.3922
 30
0.0
 10
24.5315
 20
10.3922
 30
0.0
 10
24.5315
 20
10.3922
 30
0.0
 10
24.2831
 20
10.3922
 30
0.0
 10
24.2831
 20
10.3922
 30
0.0
  0
SPLINE
  5
47
330
1F
100
AcDbEntity
  8
ROUND
 62
   250
100
AcDbSpline
210
0.0
220
0.0
230
1.0
 70
    11
 71
     3
 72
    16
 73
    12
 74
     0
 42
0.0000000001
 43
0.0000000001
 40
0.0
 40
0.0
 40
0.0
 40
0.0
 40
0.25
 40
0.25
 40
0.25
 40
0.25
 40
0.5
 40
0.5
 40
0.5
 40
0.5
 40
1.0
 40
1.0
 40
1.0
 40
1.0
 10
24.2831
 20
11.1034
 30
0.0
 10
24.2831
 20
11.1034
 30
0.0
 10
24.2831
 20
12.014
 30
0.0
 10
24.2831
 20
12.014
 30
0.0
 10
24.2831
 20
12.014
 30
0.0
 10
24.2831
 20
12.014
 30
0.0
 10
23.651
 20
11.1034
 30
0.0
 10
23.651
 20
11.1034
 30
0.0
 10
23.651
 20
11.1034
 30
0.0
 10
23.651
 20
11.1034
 30
0.0
 10
24.2831
 20
11.1034
 30
0.0
 10
24.2831
 20
11.1034
 30
0.0
  0
SPLINE
  5
48
330
1F
100
AcDbEntity
  8
ROUND
 62
   250
100
AcDbSpline
210
0.0
220
0.0
230
1.0
 70
    11
 71
     3
 72
    28
 73
    24
 74
     0
 42
0.0000000001
 43
0.0000000001
 40
0.0
 40
0.0
 40
0.0
 40
0.0
 40
0.1428571428571428
 40
0.1428571428571428
 40
0.1428571428571428
 40
0.1428571428571428
 40
0.2857142857142857
 40
0.2857142857142857
 40
0.2857142857142857
 40
0.2857142857142857
 40
0.4285714285714285
 40
0.4285714285714285
 40
0.4285714285714285
 40
0.4285714285714285
 40
0.5714285714285714
 40
0.5714285714285714
 40
0.5714285714285714
 40
0.5714285714285714
 40
0.7142857142857143
 40
0.7142857142857143
 40
0.7142857142857143
 40
0.7142857142857143
 40
1.0
 40
1.0
 40
1.0
 40
1.0
 10
25.1392
 20
11.697
 30
0.0
 10
25.1392
 20
11.697
 30
0.0
 10
25.0701
 20
12.0818
 30
0.0
 10
25.0701
 20
12.0818
 30
0.0
 10
25.0701
 20
12.0818
 30
0.0
 10
25.0701
 20
12.0818
 30
0.0
 10
25.0701
 20
12.4124
 30
0.0
 10
25.0701
 20
12.4124
 30
0.0
 10
25.0701
 20
12.4124
 30
0.0
 10
25.0701
 20
12.4124
 30
0.0
 10
25.3527
 20
12.4124
 30
0.0
 10
25.3527
 20
12.4124
 30
0.0
 10
25.3527
 20
12.4124
 30
0.0
 10
25.3527
 20
12.4124
 30
0.0
 10
25.3527
 20
12.0818
 30
0.0
 10
25.3527
 20
12.0818
 30
0.0
 10
25.3527
 20
12.0818
 30
0.0
 10
25.3527
 20
12.0818
 30
0.0
 10
25.2907
 20
11.697
 30
0.0
 10
25.2907
 20
11.697
 30
0.0
 10
25.2907
 20
11.697
 30
0.0
 10
25.2907
 20
11.697
 30
0.0
 10
25.1392
 20
11.697
 30
0.0
 10
25.1392
 20
11.697
 30
0.0
  0
SPLINE
  5
49
330
1F
100
AcDbEntity
  8
ROUND
 62
   250
100
AcDbSpline
210
0.0
220
0.0
230
1.0
 70
    11
 71
     3
 72
    28
 73
    24
 74
     0
 42
0.0000000001
 43
0.0000000001
 40
0.0
 40
0.0
 40
0.0
 40
0.0
 40
0.1428571428571428
 40
0.1428571428571428
 40
0.1428571428571428
 40
0.1428571428571428
 40
0.2857142857142857
 40
0.2857142857142857
 40
0.2857142857142857
 40
0.2857142857142857
 40
0.4285714285714285
 40
0.4285714285714285
 40
0.4285714285714285
 40
0.4285714285714285
 40
0.5714285714285714
 40
0.5714285714285714
 40
0.5714285714285714
 40
0.5714285714285714
 40
0.7142857142857143
 40
0.7142857142857143
 40
0.7142857142857143
 40
0.7142857142857143
 40
1.0
 40
1.0
 40
1.0
 40
1.0
 10
25.5955
 20
11.697
 30
0.0
 10
25.5955
 20
11.697
 30
0.0
 10
25.5277
 20
12.0818
 30
0.0
 10
25.5277
 20
12.0818
 30
0.0
 10
25.5277
 20
12.0818
 30
0.0
 10
25.5277
 20
12.0818
 30
0.0
 10
25.5277
 20
12.4124
 30
0.0
 10
25.5277
 20
12.4124
 30
0.0
 10
25.5277
 20
12.4124
 30
0.0
 10
25.5277
 20
12.4124
 30
0.0
 10
25.8104
 20
12.4124
 30
0.0
 10
25.8104
 20
12.4124
 30
0.0
 10
25.8104
 20
12.4124
 30
0.0
 10
25.8104
 20
12.4124
 30
0.0
 10
25.8104
 20
12.0818
 30
0.0
 10
25.8104
 20
12.0818
 30
0.0
 10
25.8104
 20
12.0818
 30
0.0
 10
25.8104
 20
12.0818
 30
0.0
 10
25.7441
 20
11.697
 30
0.0
 10
25.7441
 20
11.697
 30
0.0
 10
25.7441
 20
11.697
 30
0.0
 10
25.7441
 20
11.697
 30
0.0
 10
25.5955
 20
11.697
 30
0.0
 10
25.5955
 20
11.697
 30
0.0
  0
SPLINE
  5
4A
330
1F
100
AcDbEntity
  8
ROUND
 62
   250
100
AcDbSpline
210
0.0
220
0.0
230
1.0
 70
    11
 71
     3
 72
    20
 73
    16
 74
     0
 42
0.0000000001
 43
0.0000000001
 40
0.0
 40
0.0
 40
0.0
 40
0.0
 40
0.2
 40
0.2
 40
0.2
 40
0.2
 40
0.4
 40
0.4
 40
0.4
 40
0.4
 40
0.6
 40
0.6
 40
0.6
 40
0.6
 40
1.0
 40
1.0
 40
1.0
 40
1.0
 10
14.3142
 20
9.688
 30
0.0
 10
14.3142
 20
9.688
 30
0.0
 10
17.3142
 20
9.2646
 30
0.0
 10
17.3142
 20
9.2646
 30
0.0
 10
17.3142
 20
9.2646
 30
0.0
 10
17.3142
 20
9.2646
 30
0.0
 10
17.3142
 20
9.1706
 30
0.0
 10
17.3142
 20
9.1706
 30
0.0
 10
17.3142
 20
9.1706
 30
0.0
 10
17.3142
 20
9.1706
 30
0.0
 10
14.3142
 20
8.7191
 30
0.0
 10
14.3142
 20
8.7191
 30
0.0
 10
14.3142
 20
8.7191
 30
0.0
 10
14.3142
 20
8.7191
 30
0.0
 10
14.3142
 20
9.688
 30
0.0
 10
14.3142
 20
9.688
 30
0.0
  0
SPLINE
  5
4B
330
1F
100
AcDbEntity
  8
ROUND
 62
   250
100
AcDbSpline
210
0.0
220
0.0
230
1.0
 70
    11
 71
     3
 72
    20
 73
    16
 74
     0
 42
0.0000000001
 43
0.0000000001
 40
0.0
 40
0.0
 40
0.0
 40
0.0
 40
0.2
 40
0.2
 40
0.2
 40
0.2
 40
0.4
 40
0.4
 40
0.4
 40
0.4
 40
0.6
 40
0.6
 40
0.6
 40
0.6
 40
1.0
 40
1.0
 40
1.0
 40
1.0
 10
28.989
 20
8.7191
 30
0.0
 10
28.989
 20
8.7191
 30
0.0
 10
25.989
 20
9.1425
 30
0.0
 10
25.989
 20
9.1425
 30
0.0
 10
25.989
 20
9.1425
 30
0.0
 10
25.989
 20
9.1425
 30
0.0
 10
25.989
 20
9.2365
 30
0.0
 10
25.989
 20
9.2365
 30
0.0
 10
25.989
 20
9.2365
 30
0.0
 10
25.989
 20
9.2365
 30
0.0
 10
28.989
 20
9.6881
 30
0.0
 10
28.989
 20
9.6881
 30
0.0
 10
28.989
 20
9.6881
 30
0.0
 10
28.989
 20
9.6881
 30
0.0
 10
28.989
 20
8.7191
 30
0.0
 10
28.989
 20
8.7191
 30
0.0
  0
SPLINE
  5
4C
330
1F
100
AcDbEntity
  8
ROUND
 62
   250
100
AcDbSpline
210
0.0
220
0.0
230
1.0
 70
    24
 71
     3
 72
     8
 73
     4
 74
     0
 42
0.0000000001
 43
0.0000000001
 40
0.0
 40
0.0
 40
0.0
 40
0.0
 40
1.0
 40
1.0
 40
1.0
 40
1.0
 10
14.5034
 20
-12.0244
 30
0.0
 10
14.5034
 20
-12.0244
 30
0.0
 10
14.5034
 20
4.8746
 30
0.0
 10
14.5034
 20
4.8746
 30
0.0
  0
SPLINE
  5
4D
330
1F
100
AcDbEntity
  8
ROUND
 62
   250
100
AcDbSpline
210
0.0
220
0.0
230
1.0
 70
    11
 71
     3
 72
    92
 73
    88
 74
     0
 42
0.0000000001
 43
0.0000000001
 40
0.0
 40
0.0
 40
0.0
 40
0.0
 40
0.0434782608695652
 40
0.0434782608695652
 40
0.0434782608695652
 40
0.0434782608695652
 40
0.0869565217391304
 40
0.0869565217391304
 40
0.0869565217391304
 40
0.0869565217391304
 40
0.1304347826086956
 40
0.1304347826086956
 40
0.1304347826086956
 40
0.1304347826086956
 40
0.1739130434782609
 40
0.1739130434782609
 40
0.1739130434782609
 40
0.1739130434782609
 40
0.2173913043478261
 40
0.2173913043478261
 40
0.2173913043478261
 40
0.2173913043478261
 40
0.2608695652173913
 40
0.2608695652173913
 40
0.2608695652173913
 40
0.2608695652173913
 40
0.3043478260869565
 40
0.3043478260869565
 40
0.3043478260869565
 40
0.3043478260869565
 40
0.3478260869565217
 40
0.3478260869565217
 40
0.3478260869565217
 40
0.3478260869565217
 40
0.391304347826087
 40
0.391304347826087
 40
0.391304347826087
 40
0.391304347826087
 40
0.4347826086956522
 40
0.4347826086956522
 40
0.4347826086956522
 40
0.4347826086956522
 40
0.4782608695652174
 40
0.4782608695652174
 40
0.4782608695652174
 40
0.4782608695652174
 40
0.5217391304347826
 40
0.5217391304347826
 40
0.5217391304347826
 40
0.5217391304347826
 40
0.5652173913043478
 40
0.5652173913043478
 40
0.5652173913043478
 40
0.5652173913043478
 40
0.6086956521739131
 40
0.6086956521739131
 40
0.6086956521739131
 40
0.6086956521739131
 40
0.6521739130434783
 40
0.6521739130434783
 40
0.6521739130434783
 40
0.6521739130434783
 40
0.6956521739130435
 40
0.6956521739130435
 40
0.6956521739130435
 40
0.6956521739130435
 40
0.7391304347826086
 40
0.7391304347826086
 40
0.7391304347826086
 40
0.7391304347826086
 40
0.782608695652174
 40
0.782608695652174
 40
0.782608695652174
 40
0.782608695652174
 40
0.8260869565217391
 40
0.8260869565217391
 40
0.8260869565217391
 40
0.8260869565217391
 40
0.8695652173913043
 40
0.8695652173913043
 40
0.8695652173913043
 40
0.8695652173913043
 40
0.9130434782608695
 40
0.9130434782608695
 40
0.9130434782608695
 40
0.9130434782608695
 40
1.0
 40
1.0
 40
1.0
 40
1.0
 10
13.6164
 20
-4.3381
 30
0.0
 10
13.6164
 20
-4.3381
 30
0.0
 10
13.5943
 20
-4.0996
 30
0.0
 10
13.5943
 20
-4.0996
 30
0.0
 10
13.5943
 20
-4.0996
 30
0.0
 10
13.7063
 20
-4.0794
 30
0.0
 10
13.7876
 20
-4.0408
 30
0.0
 10
13.8384
 20
-3.9839
 30
0.0
 10
13.8384
 20
-3.9839
 30
0.0
 10
13.8888
 20
-3.927
 30
0.0
 10
13.9142
 20
-3.8541
 30
0.0
 10
13.9142
 20
-3.7647
 30
0.0
 10
13.9142
 20
-3.7647
 30
0.0
 10
13.9142
 20
-3.6885
 30
0.0
 10
13.8968
 20
-3.6218
 30
0.0
 10
13.8615
 20
-3.5644
 30
0.0
 10
13.8615
 20
-3.5644
 30
0.0
 10
13.8267
 20
-3.507
 30
0.0
 10
13.7801
 20
-3.4599
 30
0.0
 10
13.7218
 20
-3.4233
 30
0.0
 10
13.7218
 20
-3.4233
 30
0.0
 10
13.6635
 20
-3.3861
 30
0.0
 10
13.5844
 20
-3.3555
 30
0.0
 10
13.4857
 20
-3.3306
 30
0.0
 10
13.4857
 20
-3.3306
 30
0.0
 10
13.3864
 20
-3.3061
 30
0.0
 10
13.2853
 20
-3.2934
 30
0.0
 10
13.1823
 20
-3.2934
 30
0.0
 10
13.1823
 20
-3.2934
 30
0.0
 10
13.1715
 20
-3.2934
 30
0.0
 10
13.1545
 20
-3.2939
 30
0.0
 10
13.1329
 20
-3.2948
 30
0.0
 10
13.1329
 20
-3.2948
 30
0.0
 10
13.2114
 20
-3.3447
 30
0.0
 10
13.2759
 20
-3.4124
 30
0.0
 10
13.3248
 20
-3.498
 30
0.0
 10
13.3248
 20
-3.498
 30
0.0
 10
13.3742
 20
-3.5841
 30
0.0
 10
13.3986
 20
-3.6773
 30
0.0
 10
13.3986
 20
-3.777
 30
0.0
 10
13.3986
 20
-3.777
 30
0.0
 10
13.3986
 20
-3.9444
 30
0.0
 10
13.338
 20
-4.086
 30
0.0
 10
13.2166
 20
-4.2017
 30
0.0
 10
13.2166
 20
-4.2017
 30
0.0
 10
13.0953
 20
-4.3174
 30
0.0
 10
12.9358
 20
-4.3753
 30
0.0
 10
12.7373
 20
-4.3753
 30
0.0
 10
12.7373
 20
-4.3753
 30
0.0
 10
12.5322
 20
-4.3753
 30
0.0
 10
12.3676
 20
-4.3151
 30
0.0
 10
12.2425
 20
-4.1942
 30
0.0
 10
12.2425
 20
-4.1942
 30
0.0
 10
12.1174
 20
-4.0733
 30
0.0
 10
12.0548
 20
-3.9218
 30
0.0
 10
12.0548
 20
-3.7398
 30
0.0
 10
12.0548
 20
-3.7398
 30
0.0
 10
12.0548
 20
-3.6086
 30
0.0
 10
12.0906
 20
-3.4886
 30
0.0
 10
12.1611
 20
-3.3795
 30
0.0
 10
12.1611
 20
-3.3795
 30
0.0
 10
12.2317
 20
-3.2709
 30
0.0
 10
12.3328
 20
-3.1881
 30
0.0
 10
12.4636
 20
-3.1316
 30
0.0
 10
12.4636
 20
-3.1316
 30
0.0
 10
12.5943
 20
-3.0752
 30
0.0
 10
12.7839
 20
-3.047
 30
0.0
 10
13.0322
 20
-3.047
 30
0.0
 10
13.0322
 20
-3.047
 30
0.0
 10
13.29
 20
-3.047
 30
0.0
 10
13.4955
 20
-3.0747
 30
0.0
 10
13.6489
 20
-3.1307
 30
0.0
 10
13.6489
 20
-3.1307
 30
0.0
 10
13.8018
 20
-3.1871
 30
0.0
 10
13.9179
 20
-3.2704
 30
0.0
 10
13.9979
 20
-3.3809
 30
0.0
 10
13.9979
 20
-3.3809
 30
0.0
 10
14.0779
 20
-3.4919
 30
0.0
 10
14.1178
 20
-3.6213
 30
0.0
 10
14.1178
 20
-3.7704
 30
0.0
 10
14.1178
 20
-3.7704
 30
0.0
 10
14.1178
 20
-3.9284
 30
0.0
 10
14.0741
 20
-4.0573
 30
0.0
 10
13.9861
 20
-4.1575
 30
0.0
 10
13.9861
 20
-4.1575
 30
0.0
 10
13.8986
 20
-4.2577
 30
0.0
 10
13.7754
 20
-4.3179
 30
0.0
 10
13.6164
 20
-4.3381
 30
0.0
  0
SPLINE
  5
4E
330
1F
100
AcDbEntity
  8
ROUND
 62
   250
100
AcDbSpline
210
0.0
220
0.0
230
1.0
 70
    11
 71
     3
 72
    36
 73
    32
 74
     0
 42
0.0000000001
 43
0.0000000001
 40
0.0
 40
0.0
 40
0.0
 40
0.0
 40
0.1111111111111111
 40
0.1111111111111111
 40
0.1111111111111111
 40
0.1111111111111111
 40
0.2222222222222222
 40
0.2222222222222222
 40
0.2222222222222222
 40
0.2222222222222222
 40
0.3333333333333333
 40
0.3333333333333333
 40
0.3333333333333333
 40
0.3333333333333333
 40
0.4444444444444444
 40
0.4444444444444444
 40
0.4444444444444444
 40
0.4444444444444444
 40
0.5555555555555556
 40
0.5555555555555556
 40
0.5555555555555556
 40
0.5555555555555556
 40
0.6666666666666666
 40
0.6666666666666666
 40
0.6666666666666666
 40
0.6666666666666666
 40
0.7777777777777778
 40
0.7777777777777778
 40
0.7777777777777778
 40
0.7777777777777778
 40
1.0
 40
1.0
 40
1.0
 40
1.0
 10
12.7246
 20
-3.3226
 30
0.0
 10
12.5826
 20
-3.3226
 30
0.0
 10
12.4692
 20
-3.3602
 30
0.0
 10
12.3859
 20
-3.436
 30
0.0
 10
12.3859
 20
-3.436
 30
0.0
 10
12.3022
 20
-3.5122
 30
0.0
 10
12.2604
 20
-3.6029
 30
0.0
 10
12.2604
 20
-3.7097
 30
0.0
 10
12.2604
 20
-3.7097
 30
0.0
 10
12.2604
 20
-3.8198
 30
0.0
 10
12.3055
 20
-3.9157
 30
0.0
 10
12.3954
 20
-3.9976
 30
0.0
 10
12.3954
 20
-3.9976
 30
0.0
 10
12.4857
 20
-4.0794
 30
0.0
 10
12.6023
 20
-4.1203
 30
0.0
 10
12.7453
 20
-4.1203
 30
0.0
 10
12.7453
 20
-4.1203
 30
0.0
 10
12.8742
 20
-4.1203
 30
0.0
 10
12.9786
 20
-4.0813
 30
0.0
 10
13.059
 20
-4.0037
 30
0.0
 10
13.059
 20
-4.0037
 30
0.0
 10
13.1395
 20
-3.9261
 30
0.0
 10
13.1795
 20
-3.8306
 30
0.0
 10
13.1795
 20
-3.7168
 30
0.0
 10
13.1795
 20
-3.7168
 30
0.0
 10
13.1795
 20
-3.6015
 30
0.0
 10
13.1395
 20
-3.5075
 30
0.0
 10
13.059
 20
-3.4336
 30
0.0
 10
13.059
 20
-3.4336
 30
0.0
 10
12.9786
 20
-3.3593
 30
0.0
 10
12.8671
 20
-3.3226
 30
0.0
 10
12.7246
 20
-3.3226
 30
0.0
  0
SPLINE
  5
4F
330
1F
100
AcDbEntity
  8
ROUND
 62
   250
100
AcDbSpline
210
0.0
220
0.0
230
1.0
 70
    11
 71
     3
 72
    92
 73
    88
 74
     0
 42
0.0000000001
 43
0.0000000001
 40
0.0
 40
0.0
 40
0.0
 40
0.0
 40
0.0434782608695652
 40
0.0434782608695652
 40
0.0434782608695652
 40
0.0434782608695652
 40
0.0869565217391304
 40
0.0869565217391304
 40
0.0869565217391304
 40
0.0869565217391304
 40
0.1304347826086956
 40
0.1304347826086956
 40
0.1304347826086956
 40
0.1304347826086956
 40
0.1739130434782609
 40
0.1739130434782609
 40
0.1739130434782609
 40
0.1739130434782609
 40
0.2173913043478261
 40
0.2173913043478261
 40
0.2173913043478261
 40
0.2173913043478261
 40
0.2608695652173913
 40
0.2608695652173913
 40
0.2608695652173913
 40
0.2608695652173913
 40
0.3043478260869565
 40
0.3043478260869565
 40
0.3043478260869565
 40
0.3043478260869565
 40
0.3478260869565217
 40
0.3478260869565217
 40
0.3478260869565217
 40
0.3478260869565217
 40
0.391304347826087
 40
0.391304347826087
 40
0.391304347826087
 40
0.391304347826087
 40
0.4347826086956522
 40
0.4347826086956522
 40
0.4347826086956522
 40
0.4347826086956522
 40
0.4782608695652174
 40
0.4782608695652174
 40
0.4782608695652174
 40
0.4782608695652174
 40
0.5217391304347826
 40
0.5217391304347826
 40
0.5217391304347826
 40
0.5217391304347826
 40
0.5652173913043478
 40
0.5652173913043478
 40
0.5652173913043478
 40
0.5652173913043478
 40
0.6086956521739131
 40
0.6086956521739131
 40
0.6086956521739131
 40
0.6086956521739131
 40
0.6521739130434783
 40
0.6521739130434783
 40
0.6521739130434783
 40
0.6521739130434783
 40
0.6956521739130435
 40
0.6956521739130435
 40
0.6956521739130435
 40
0.6956521739130435
 40
0.7391304347826086
 40
0.7391304347826086
 40
0.7391304347826086
 40
0.7391304347826086
 40
0.782608695652174
 40
0.782608695652174
 40
0.782608695652174
 40
0.782608695652174
 40
0.8260869565217391
 40
0.8260869565217391
 40
0.8260869565217391
 40
0.8260869565217391
 40
0.8695652173913043
 40
0.8695652173913043
 40
0.8695652173913043
 40
0.8695652173913043
 40
0.9130434782608695
 40
0.9130434782608695
 40
0.9130434782608695
 40
0.9130434782608695
 40
1.0
 40
1.0
 40
1.0
 40
1.0
 10
13.5543
 20
-2.8057
 30
0.0
 10
13.5543
 20
-2.8057
 30
0.0
 10
13.5322
 20
-2.5451
 30
0.0
 10
13.5322
 20
-2.5451
 30
0.0
 10
13.5322
 20
-2.5451
 30
0.0
 10
13.6592
 20
-2.5258
 30
0.0
 10
13.7542
 20
-2.4811
 30
0.0
 10
13.8182
 20
-2.411
 30
0.0
 10
13.8182
 20
-2.411
 30
0.0
 10
13.8822
 20
-2.3405
 30
0.0
 10
13.9142
 20
-2.2558
 30
0.0
 10
13.9142
 20
-2.1566
 30
0.0
 10
13.9142
 20
-2.1566
 30
0.0
 10
13.9142
 20
-2.0371
 30
0.0
 10
13.869
 20
-1.936
 30
0.0
 10
13.7792
 20
-1.8537
 30
0.0
 10
13.7792
 20
-1.8537
 30
0.0
 10
13.6889
 20
-1.7709
 30
0.0
 10
13.5694
 20
-1.7295
 30
0.0
 10
13.4208
 20
-1.7295
 30
0.0
 10
13.4208
 20
-1.7295
 30
0.0
 10
13.2792
 20
-1.7295
 30
0.0
 10
13.1677
 20
-1.769
 30
0.0
 10
13.0859
 20
-1.8485
 30
0.0
 10
13.0859
 20
-1.8485
 30
0.0
 10
13.004
 20
-1.928
 30
0.0
 10
12.9631
 20
-2.0319
 30
0.0
 10
12.9631
 20
-2.1608
 30
0.0
 10
12.9631
 20
-2.1608
 30
0.0
 10
12.9631
 20
-2.2408
 30
0.0
 10
12.9814
 20
-2.3127
 30
0.0
 10
13.0176
 20
-2.3772
 30
0.0
 10
13.0176
 20
-2.3772
 30
0.0
 10
13.0539
 20
-2.4416
 30
0.0
 10
13.1009
 20
-2.4919
 30
0.0
 10
13.1588
 20
-2.5286
 30
0.0
 10
13.1588
 20
-2.5286
 30
0.0
 10
13.1588
 20
-2.5286
 30
0.0
 10
13.1287
 20
-2.7615
 30
0.0
 10
13.1287
 20
-2.7615
 30
0.0
 10
13.1287
 20
-2.7615
 30
0.0
 10
13.1287
 20
-2.7615
 30
0.0
 10
12.091
 20
-2.5658
 30
0.0
 10
12.091
 20
-2.5658
 30
0.0
 10
12.091
 20
-2.5658
 30
0.0
 10
12.091
 20
-2.5658
 30
0.0
 10
12.091
 20
-1.5611
 30
0.0
 10
12.091
 20
-1.5611
 30
0.0
 10
12.091
 20
-1.5611
 30
0.0
 10
12.091
 20
-1.5611
 30
0.0
 10
12.3281
 20
-1.5611
 30
0.0
 10
12.3281
 20
-1.5611
 30
0.0
 10
12.3281
 20
-1.5611
 30
0.0
 10
12.3281
 20
-1.5611
 30
0.0
 10
12.3281
 20
-2.3673
 30
0.0
 10
12.3281
 20
-2.3673
 30
0.0
 10
12.3281
 20
-2.3673
 30
0.0
 10
12.3281
 20
-2.3673
 30
0.0
 10
12.8709
 20
-2.4764
 30
0.0
 10
12.8709
 20
-2.4764
 30
0.0
 10
12.8709
 20
-2.4764
 30
0.0
 10
12.7862
 20
-2.3551
 30
0.0
 10
12.7439
 20
-2.2276
 30
0.0
 10
12.7439
 20
-2.0945
 30
0.0
 10
12.7439
 20
-2.0945
 30
0.0
 10
12.7439
 20
-1.9181
 30
0.0
 10
12.805
 20
-1.7695
 30
0.0
 10
12.9273
 20
-1.6481
 30
0.0
 10
12.9273
 20
-1.6481
 30
0.0
 10
13.0496
 20
-1.5268
 30
0.0
 10
13.2067
 20
-1.4661
 30
0.0
 10
13.3986
 20
-1.4661
 30
0.0
 10
13.3986
 20
-1.4661
 30
0.0
 10
13.5816
 20
-1.4661
 30
0.0
 10
13.7397
 20
-1.5197
 30
0.0
 10
13.8728
 20
-1.626
 30
0.0
 10
13.8728
 20
-1.626
 30
0.0
 10
14.036
 20
-1.7558
 30
0.0
 10
14.1178
 20
-1.9327
 30
0.0
 10
14.1178
 20
-2.1566
 30
0.0
 10
14.1178
 20
-2.1566
 30
0.0
 10
14.1178
 20
-2.3405
 30
0.0
 10
14.0666
 20
-2.4905
 30
0.0
 10
13.9636
 20
-2.6067
 30
0.0
 10
13.9636
 20
-2.6067
 30
0.0
 10
13.8605
 20
-2.7229
 30
0.0
 10
13.7241
 20
-2.7892
 30
0.0
 10
13.5543
 20
-2.8057
 30
0.0
  0
SPLINE
  5
50
330
1F
100
AcDbEntity
  8
ROUND
 62
   250
100
AcDbSpline
210
0.0
220
0.0
230
1.0
 70
    11
 71
     3
 72
    20
 73
    16
 74
     0
 42
0.0000000001
 43
0.0000000001
 40
0.0
 40
0.0
 40
0.0
 40
0.0
 40
0.2
 40
0.2
 40
0.2
 40
0.2
 40
0.4
 40
0.4
 40
0.4
 40
0.4
 40
0.6
 40
0.6
 40
0.6
 40
0.6
 40
1.0
 40
1.0
 40
1.0
 40
1.0
 10
14.0189
 20
2.0015
 30
0.0
 10
14.0189
 20
2.0015
 30
0.0
 10
14.4423
 20
5.0015
 30
0.0
 10
14.4423
 20
5.0015
 30
0.0
 10
14.4423
 20
5.0015
 30
0.0
 10
14.4423
 20
5.0015
 30
0.0
 10
14.5363
 20
5.0015
 30
0.0
 10
14.5363
 20
5.0015
 30
0.0
 10
14.5363
 20
5.0015
 30
0.0
 10
14.5363
 20
5.0015
 30
0.0
 10
14.9879
 20
2.0015
 30
0.0
 10
14.9879
 20
2.0015
 30
0.0
 10
14.9879
 20
2.0015
 30
0.0
 10
14.9879
 20
2.0015
 30
0.0
 10
14.0189
 20
2.0015
 30
0.0
 10
14.0189
 20
2.0015
 30
0.0
  0
SPLINE
  5
51
330
1F
100
AcDbEntity
  8
ROUND
 62
   250
100
AcDbSpline
210
0.0
220
0.0
230
1.0
 70
    11
 71
     3
 72
    20
 73
    16
 74
     0
 42
0.0000000001
 43
0.0000000001
 40
0.0
 40
0.0
 40
0.0
 40
0.0
 40
0.2
 40
0.2
 40
0.2
 40
0.2
 40
0.4
 40
0.4
 40
0.4
 40
0.4
 40
0.6
 40
0.6
 40
0.6
 40
0.6
 40
1.0
 40
1.0
 40
1.0
 40
1.0
 10
14.9878
 20
-9.2117
 30
0.0
 10
14.9878
 20
-9.2117
 30
0.0
 10
14.5644
 20
-12.2117
 30
0.0
 10
14.5644
 20
-12.2117
 30
0.0
 10
14.5644
 20
-12.2117
 30
0.0
 10
14.5644
 20
-12.2117
 30
0.0
 10
14.4704
 20
-12.2117
 30
0.0
 10
14.4704
 20
-12.2117
 30
0.0
 10
14.4704
 20
-12.2117
 30
0.0
 10
14.4704
 20
-12.2117
 30
0.0
 10
14.0189
 20
-9.2117
 30
0.0
 10
14.0189
 20
-9.2117
 30
0.0
 10
14.0189
 20
-9.2117
 30
0.0
 10
14.0189
 20
-9.2117
 30
0.0
 10
14.9878
 20
-9.2117
 30
0.0
 10
14.9878
 20
-9.2117
 30
0.0
  0
SPLINE
  5
52
330
1F
100
AcDbEntity
  8
ROUND
 62
   250
100
AcDbSpline
210
0.0
220
0.0
230
1.0
 70
    24
 71
     3
 72
     8
 73
     4
 74
     0
 42
0.0000000001
 43
0.0000000001
 40
0.0
 40
0.0
 40
0.0
 40
0.0
 40
1.0
 40
1.0
 40
1.0
 40
1.0
 10
15.3089
 20
5.1729
 30
0.0
 10
15.3089
 20
5.1729
 30
0.0
 10
7.4561
 20
5.1729
 30
0.0
 10
7.4561
 20
5.1729
 30
0.0
  0
SPLINE
  5
53
330
1F
100
AcDbEntity
  8
ROUND
 62
   250
100
AcDbSpline
210
0.0
220
0.0
230
1.0
 70
     8
 71
     3
 72
    16
 73
    12
 74
     0
 42
0.0000000001
 43
0.0000000001
 40
0.0
 40
0.0
 40
0.0
 40
0.0
 40
0.25
 40
0.25
 40
0.25
 40
0.25
 40
0.5
 40
0.5
 40
0.5
 40
0.5
 40
1.0
 40
1.0
 40
1.0
 40
1.0
 10
-0.2332
 20
-2.9527
 30
0.0
 10
-0.2332
 20
-2.9527
 30
0.0
 10
-0.2332
 20
-5.4339
 30
0.0
 10
-0.2332
 20
-5.4339
 30
0.0
 10
-0.2332
 20
-5.4339
 30
0.0
 10
-0.2332
 20
-5.4339
 30
0.0
 10
10.086
 20
-5.4412
 30
0.0
 10
10.086
 20
-5.4412
 30
0.0
 10
10.086
 20
-5.4412
 30
0.0
 10
10.086
 20
-5.4412
 30
0.0
 10
10.086
 20
-2.9272
 30
0.0
 10
10.086
 20
-2.9272
 30
0.0
  0
SPLINE
  5
54
330
1F
100
AcDbEntity
  8
ROUND
 62
   250
100
AcDbSpline
210
0.0
220
0.0
230
1.0
 70
     8
 71
     3
 72
   124
 73
   120
 74
     0
 42
0.0000000001
 43
0.0000000001
 40
0.0
 40
0.0
 40
0.0
 40
0.0
 40
0.032258064516129
 40
0.032258064516129
 40
0.032258064516129
 40
0.032258064516129
 40
0.0645161290322581
 40
0.0645161290322581
 40
0.0645161290322581
 40
0.0645161290322581
 40
0.0967741935483871
 40
0.0967741935483871
 40
0.0967741935483871
 40
0.0967741935483871
 40
0.1290322580645161
 40
0.1290322580645161
 40
0.1290322580645161
 40
0.1290322580645161
 40
0.1612903225806452
 40
0.1612903225806452
 40
0.1612903225806452
 40
0.1612903225806452
 40
0.1935483870967742
 40
0.1935483870967742
 40
0.1935483870967742
 40
0.1935483870967742
 40
0.2258064516129032
 40
0.2258064516129032
 40
0.2258064516129032
 40
0.2258064516129032
 40
0.2580645161290323
 40
0.2580645161290323
 40
0.2580645161290323
 40
0.2580645161290323
 40
0.2903225806451613
 40
0.2903225806451613
 40
0.2903225806451613
 40
0.2903225806451613
 40
0.3225806451612903
 40
0.3225806451612903
 40
0.3225806451612903
 40
0.3225806451612903
 40
0.3548387096774194
 40
0.3548387096774194
 40
0.3548387096774194
 40
0.3548387096774194
 40
0.3870967741935484
 40
0.3870967741935484
 40
0.3870967741935484
 40
0.3870967741935484
 40
0.4193548387096774
 40
0.4193548387096774
 40
0.4193548387096774
 40
0.4193548387096774
 40
0.4516129032258064
 40
0.4516129032258064
 40
0.4516129032258064
 40
0.4516129032258064
 40
0.4838709677419355
 40
0.4838709677419355
 40
0.4838709677419355
 40
0.4838709677419355
 40
0.5161290322580645
 40
0.5161290322580645
 40
0.5161290322580645
 40
0.5161290322580645
 40
0.5483870967741935
 40
0.5483870967741935
 40
0.5483870967741935
 40
0.5483870967741935
 40
0.5806451612903226
 40
0.5806451612903226
 40
0.5806451612903226
 40
0.5806451612903226
 40
0.6129032258064516
 40
0.6129032258064516
 40
0.6129032258064516
 40
0.6129032258064516
 40
0.6451612903225806
 40
0.6451612903225806
 40
0.6451612903225806
 40
0.6451612903225806
 40
0.6774193548387096
 40
0.6774193548387096
 40
0.6774193548387096
 40
0.6774193548387096
 40
0.7096774193548387
 40
0.7096774193548387
 40
0.7096774193548387
 40
0.7096774193548387
 40
0.7419354838709677
 40
0.7419354838709677
 40
0.7419354838709677
 40
0.7419354838709677
 40
0.7741935483870968
 40
0.7741935483870968
 40
0.7741935483870968
 40
0.7741935483870968
 40
0.8064516129032258
 40
0.8064516129032258
 40
0.8064516129032258
 40
0.8064516129032258
 40
0.8387096774193549
 40
0.8387096774193549
 40
0.8387096774193549
 40
0.8387096774193549
 40
0.8709677419354839
 40
0.8709677419354839
 40
0.8709677419354839
 40
0.8709677419354839
 40
0.9032258064516129
 40
0.9032258064516129
 40
0.9032258064516129
 40
0.9032258064516129
 40
0.9354838709677419
 40
0.9354838709677419
 40
0.9354838709677419
 40
0.9354838709677419
 40
1.0
 40
1.0
 40
1.0
 40
1.0
 10
10.0336
 20
-3.3071
 30
0.0
 10
10.0336
 20
-3.3071
 30
0.0
 10
10.0336
 20
-4.9022
 30
0.0
 10
10.0336
 20
-4.9022
 30
0.0
 10
10.0336
 20
-4.9022
 30
0.0
 10
10.0336
 20
-4.9022
 30
0.0
 10
8.8325
 20
-4.8996
 30
0.0
 10
8.8325
 20
-4.8996
 30
0.0
 10
8.8325
 20
-4.8996
 30
0.0
 10
8.8325
 20
-4.8996
 30
0.0
 10
8.818
 20
-3.1985
 30
0.0
 10
8.818
 20
-3.1985
 30
0.0
 10
8.818
 20
-3.1985
 30
0.0
 10
8.818
 20
-3.1985
 30
0.0
 10
8.7456
 20
-3.075
 30
0.0
 10
8.7456
 20
-3.075
 30
0.0
 10
8.7456
 20
-3.075
 30
0.0
 10
8.7456
 20
-3.075
 30
0.0
 10
8.601
 20
-2.9515
 30
0.0
 10
8.601
 20
-2.9515
 30
0.0
 10
8.601
 20
-2.9515
 30
0.0
 10
8.601
 20
-2.9515
 30
0.0
 10
8.4707
 20
-2.9515
 30
0.0
 10
8.4707
 20
-2.9515
 30
0.0
 10
8.4707
 20
-2.9515
 30
0.0
 10
8.4707
 20
-2.9515
 30
0.0
 10
8.3839
 20
-3.0201
 30
0.0
 10
8.3839
 20
-3.0201
 30
0.0
 10
8.3839
 20
-3.0201
 30
0.0
 10
8.3839
 20
-3.0201
 30
0.0
 10
8.2971
 20
-3.1025
 30
0.0
 10
8.2971
 20
-3.1025
 30
0.0
 10
8.2971
 20
-3.1025
 30
0.0
 10
8.2971
 20
-3.1025
 30
0.0
 10
8.2826
 20
-3.2945
 30
0.0
 10
8.2826
 20
-3.2945
 30
0.0
 10
8.2826
 20
-3.2945
 30
0.0
 10
8.2826
 20
-3.2945
 30
0.0
 10
8.2682
 20
-4.8721
 30
0.0
 10
8.2682
 20
-4.8721
 30
0.0
 10
8.2682
 20
-4.8721
 30
0.0
 10
8.2682
 20
-4.8721
 30
0.0
 10
5.2587
 20
-4.8996
 30
0.0
 10
5.2587
 20
-4.8996
 30
0.0
 10
5.2587
 20
-4.8996
 30
0.0
 10
5.2587
 20
-4.8996
 30
0.0
 10
5.2732
 20
-3.3082
 30
0.0
 10
5.2732
 20
-3.3082
 30
0.0
 10
5.2732
 20
-3.3082
 30
0.0
 10
5.2732
 20
-3.3082
 30
0.0
 10
5.2298
 20
-3.1573
 30
0.0
 10
5.2298
 20
-3.1573
 30
0.0
 10
5.2298
 20
-3.1573
 30
0.0
 10
5.2298
 20
-3.1573
 30
0.0
 10
5.143
 20
-3.0339
 30
0.0
 10
5.143
 20
-3.0339
 30
0.0
 10
5.143
 20
-3.0339
 30
0.0
 10
5.143
 20
-3.0339
 30
0.0
 10
4.9983
 20
-2.9653
 30
0.0
 10
4.9983
 20
-2.9653
 30
0.0
 10
4.9983
 20
-2.9653
 30
0.0
 10
4.9983
 20
-2.9653
 30
0.0
 10
4.8247
 20
-2.9653
 30
0.0
 10
4.8247
 20
-2.9653
 30
0.0
 10
4.8247
 20
-2.9653
 30
0.0
 10
4.8247
 20
-2.9653
 30
0.0
 10
4.6944
 20
-3.0201
 30
0.0
 10
4.6944
 20
-3.0201
 30
0.0
 10
4.6944
 20
-3.0201
 30
0.0
 10
4.6944
 20
-3.0201
 30
0.0
 10
4.5932
 20
-3.1299
 30
0.0
 10
4.5932
 20
-3.1299
 30
0.0
 10
4.5932
 20
-3.1299
 30
0.0
 10
4.5932
 20
-3.1299
 30
0.0
 10
4.5498
 20
-3.2671
 30
0.0
 10
4.5498
 20
-3.2671
 30
0.0
 10
4.5498
 20
-3.2671
 30
0.0
 10
4.5498
 20
-3.2671
 30
0.0
 10
4.5642
 20
-4.8859
 30
0.0
 10
4.5642
 20
-4.8859
 30
0.0
 10
4.5642
 20
-4.8859
 30
0.0
 10
4.5642
 20
-4.8859
 30
0.0
 10
1.5403
 20
-4.8996
 30
0.0
 10
1.5403
 20
-4.8996
 30
0.0
 10
1.5403
 20
-4.8996
 30
0.0
 10
1.5403
 20
-4.8996
 30
0.0
 10
1.5365
 20
-3.2409
 30
0.0
 10
1.5365
 20
-3.2409
 30
0.0
 10
1.5365
 20
-3.2409
 30
0.0
 10
1.5365
 20
-3.2409
 30
0.0
 10
1.482
 20
-3.0656
 30
0.0
 10
1.482
 20
-3.0656
 30
0.0
 10
1.482
 20
-3.0656
 30
0.0
 10
1.482
 20
-3.0656
 30
0.0
 10
1.3294
 20
-2.9521
 30
0.0
 10
1.3294
 20
-2.9521
 30
0.0
 10
1.3294
 20
-2.9521
 30
0.0
 10
1.3294
 20
-2.9521
 30
0.0
 10
1.2096
 20
-2.9521
 30
0.0
 10
1.2096
 20
-2.9521
 30
0.0
 10
1.2096
 20
-2.9521
 30
0.0
 10
1.2096
 20
-2.9521
 30
0.0
 10
1.1006
 20
-3.0037
 30
0.0
 10
1.1006
 20
-3.0037
 30
0.0
 10
1.1006
 20
-3.0037
 30
0.0
 10
1.1006
 20
-3.0037
 30
0.0
 10
1.0352
 20
-3.1687
 30
0.0
 10
1.0352
 20
-3.1687
 30
0.0
 10
1.0352
 20
-3.1687
 30
0.0
 10
1.0352
 20
-3.1687
 30
0.0
 10
1.0134
 20
-3.2822
 30
0.0
 10
1.0134
 20
-3.2822
 30
0.0
 10
1.0134
 20
-3.2822
 30
0.0
 10
1.0134
 20
-3.2822
 30
0.0
 10
1.0134
 20
-4.9013
 30
0.0
 10
1.0134
 20
-4.9013
 30
0.0
 10
1.0134
 20
-4.9013
 30
0.0
 10
1.0134
 20
-4.9013
 30
0.0
 10
-0.2509
 20
-4.9013
 30
0.0
 10
-0.2509
 20
-4.9013
 30
0.0
  0
SPLINE
  5
55
330
1F
100
AcDbEntity
  8
ROUND
 62
   250
100
AcDbSpline
210
0.0
220
0.0
230
1.0
 70
     8
 71
     3
 72
    36
 73
    32
 74
     0
 42
0.0000000001
 43
0.0000000001
 40
0.0
 40
0.0
 40
0.0
 40
0.0
 40
0.1111111111111111
 40
0.1111111111111111
 40
0.1111111111111111
 40
0.1111111111111111
 40
0.2222222222222222
 40
0.2222222222222222
 40
0.2222222222222222
 40
0.2222222222222222
 40
0.3333333333333333
 40
0.3333333333333333
 40
0.3333333333333333
 40
0.3333333333333333
 40
0.4444444444444444
 40
0.4444444444444444
 40
0.4444444444444444
 40
0.4444444444444444
 40
0.5555555555555556
 40
0.5555555555555556
 40
0.5555555555555556
 40
0.5555555555555556
 40
0.6666666666666666
 40
0.6666666666666666
 40
0.6666666666666666
 40
0.6666666666666666
 40
0.7777777777777778
 40
0.7777777777777778
 40
0.7777777777777778
 40
0.7777777777777778
 40
1.0
 40
1.0
 40
1.0
 40
1.0
 10
-0.1419
 20
-4.9069
 30
0.0
 10
-0.1419
 20
-4.9069
 30
0.0
 10
-0.1399
 20
-2.7055
 30
0.0
 10
-0.1399
 20
-2.5097
 30
0.0
 10
-0.1399
 20
-2.5097
 30
0.0
 10
-0.1399
 20
-2.314
 30
0.0
 10
0.0278
 20
-2.1552
 30
0.0
 10
0.2342
 20
-2.1552
 30
0.0
 10
0.2342
 20
-2.1552
 30
0.0
 10
0.4406
 20
-2.1552
 30
0.0
 10
9.578
 20
-2.1485
 30
0.0
 10
9.578
 20
-2.1485
 30
0.0
 10
9.578
 20
-2.1485
 30
0.0
 10
9.578
 20
-2.1485
 30
0.0
 10
9.7258
 20
-2.1994
 30
0.0
 10
9.7258
 20
-2.1994
 30
0.0
 10
9.7258
 20
-2.1994
 30
0.0
 10
9.7258
 20
-2.1994
 30
0.0
 10
9.8559
 20
-2.2635
 30
0.0
 10
9.8559
 20
-2.2635
 30
0.0
 10
9.8559
 20
-2.2635
 30
0.0
 10
9.8559
 20
-2.2635
 30
0.0
 10
9.934
 20
-2.3671
 30
0.0
 10
9.934
 20
-2.3671
 30
0.0
 10
9.934
 20
-2.3671
 30
0.0
 10
9.934
 20
-2.3671
 30
0.0
 10
9.9548
 20
-2.4806
 30
0.0
 10
9.9548
 20
-2.4806
 30
0.0
 10
9.9548
 20
-2.4806
 30
0.0
 10
9.9548
 20
-2.4806
 30
0.0
 10
9.9496
 20
-4.9132
 30
0.0
 10
9.9496
 20
-4.9132
 30
0.0
  0
SPLINE
  5
56
330
1F
100
AcDbEntity
  8
ROUND
 62
   250
100
AcDbSpline
210
0.0
220
0.0
230
1.0
 70
     8
 71
     3
 72
    16
 73
    12
 74
     0
 42
0.0000000001
 43
0.0000000001
 40
0.0
 40
0.0
 40
0.0
 40
0.0
 40
0.25
 40
0.25
 40
0.25
 40
0.25
 40
0.5
 40
0.5
 40
0.5
 40
0.5
 40
1.0
 40
1.0
 40
1.0
 40
1.0
 10
26.7538
 20
-5.6063
 30
0.0
 10
26.7538
 20
-5.6063
 30
0.0
 10
26.7538
 20
-3.1251
 30
0.0
 10
26.7538
 20
-3.1251
 30
0.0
 10
26.7538
 20
-3.1251
 30
0.0
 10
26.7538
 20
-3.1251
 30
0.0
 10
16.4346
 20
-3.1178
 30
0.0
 10
16.4346
 20
-3.1178
 30
0.0
 10
16.4346
 20
-3.1178
 30
0.0
 10
16.4346
 20
-3.1178
 30
0.0
 10
16.4346
 20
-5.6318
 30
0.0
 10
16.4346
 20
-5.6318
 30
0.0
  0
SPLINE
  5
57
330
1F
100
AcDbEntity
  8
ROUND
 62
   250
100
AcDbSpline
210
0.0
220
0.0
230
1.0
 70
     8
 71
     3
 72
   124
 73
   120
 74
     0
 42
0.0000000001
 43
0.0000000001
 40
0.0
 40
0.0
 40
0.0
 40
0.0
 40
0.032258064516129
 40
0.032258064516129
 40
0.032258064516129
 40
0.032258064516129
 40
0.0645161290322581
 40
0.0645161290322581
 40
0.0645161290322581
 40
0.0645161290322581
 40
0.0967741935483871
 40
0.0967741935483871
 40
0.0967741935483871
 40
0.0967741935483871
 40
0.1290322580645161
 40
0.1290322580645161
 40
0.1290322580645161
 40
0.1290322580645161
 40
0.1612903225806452
 40
0.1612903225806452
 40
0.1612903225806452
 40
0.1612903225806452
 40
0.1935483870967742
 40
0.1935483870967742
 40
0.1935483870967742
 40
0.1935483870967742
 40
0.2258064516129032
 40
0.2258064516129032
 40
0.2258064516129032
 40
0.2258064516129032
 40
0.2580645161290323
 40
0.2580645161290323
 40
0.2580645161290323
 40
0.2580645161290323
 40
0.2903225806451613
 40
0.2903225806451613
 40
0.2903225806451613
 40
0.2903225806451613
 40
0.3225806451612903
 40
0.3225806451612903
 40
0.3225806451612903
 40
0.3225806451612903
 40
0.3548387096774194
 40
0.3548387096774194
 40
0.3548387096774194
 40
0.3548387096774194
 40
0.3870967741935484
 40
0.3870967741935484
 40
0.3870967741935484
 40
0.3870967741935484
 40
0.4193548387096774
 40
0.4193548387096774
 40
0.4193548387096774
 40
0.4193548387096774
 40
0.4516129032258064
 40
0.4516129032258064
 40
0.4516129032258064
 40
0.4516129032258064
 40
0.4838709677419355
 40
0.4838709677419355
 40
0.4838709677419355
 40
0.4838709677419355
 40
0.5161290322580645
 40
0.5161290322580645
 40
0.5161290322580645
 40
0.5161290322580645
 40
0.5483870967741935
 40
0.5483870967741935
 40
0.5483870967741935
 40
0.5483870967741935
 40
0.5806451612903226
 40
0.5806451612903226
 40
0.5806451612903226
 40
0.5806451612903226
 40
0.6129032258064516
 40
0.6129032258064516
 40
0.6129032258064516
 40
0.6129032258064516
 40
0.6451612903225806
 40
0.6451612903225806
 40
0.6451612903225806
 40
0.6451612903225806
 40
0.6774193548387096
 40
0.6774193548387096
 40
0.6774193548387096
 40
0.6774193548387096
 40
0.7096774193548387
 40
0.7096774193548387
 40
0.7096774193548387
 40
0.7096774193548387
 40
0.7419354838709677
 40
0.7419354838709677
 40
0.7419354838709677
 40
0.7419354838709677
 40
0.7741935483870968
 40
0.7741935483870968
 40
0.7741935483870968
 40
0.7741935483870968
 40
0.8064516129032258
 40
0.8064516129032258
 40
0.8064516129032258
 40
0.8064516129032258
 40
0.8387096774193549
 40
0.8387096774193549
 40
0.8387096774193549
 40
0.8387096774193549
 40
0.8709677419354839
 40
0.8709677419354839
 40
0.8709677419354839
 40
0.8709677419354839
 40
0.9032258064516129
 40
0.9032258064516129
 40
0.9032258064516129
 40
0.9032258064516129
 40
0.9354838709677419
 40
0.9354838709677419
 40
0.9354838709677419
 40
0.9354838709677419
 40
1.0
 40
1.0
 40
1.0
 40
1.0
 10
16.487
 20
-5.2519
 30
0.0
 10
16.487
 20
-5.2519
 30
0.0
 10
16.487
 20
-3.6568
 30
0.0
 10
16.487
 20
-3.6568
 30
0.0
 10
16.487
 20
-3.6568
 30
0.0
 10
16.487
 20
-3.6568
 30
0.0
 10
17.6881
 20
-3.6594
 30
0.0
 10
17.6881
 20
-3.6594
 30
0.0
 10
17.6881
 20
-3.6594
 30
0.0
 10
17.6881
 20
-3.6594
 30
0.0
 10
17.7026
 20
-5.3605
 30
0.0
 10
17.7026
 20
-5.3605
 30
0.0
 10
17.7026
 20
-5.3605
 30
0.0
 10
17.7026
 20
-5.3605
 30
0.0
 10
17.775
 20
-5.484
 30
0.0
 10
17.775
 20
-5.484
 30
0.0
 10
17.775
 20
-5.484
 30
0.0
 10
17.775
 20
-5.484
 30
0.0
 10
17.9196
 20
-5.6075
 30
0.0
 10
17.9196
 20
-5.6075
 30
0.0
 10
17.9196
 20
-5.6075
 30
0.0
 10
17.9196
 20
-5.6075
 30
0.0
 10
18.0499
 20
-5.6075
 30
0.0
 10
18.0499
 20
-5.6075
 30
0.0
 10
18.0499
 20
-5.6075
 30
0.0
 10
18.0499
 20
-5.6075
 30
0.0
 10
18.1367
 20
-5.5389
 30
0.0
 10
18.1367
 20
-5.5389
 30
0.0
 10
18.1367
 20
-5.5389
 30
0.0
 10
18.1367
 20
-5.5389
 30
0.0
 10
18.2235
 20
-5.4565
 30
0.0
 10
18.2235
 20
-5.4565
 30
0.0
 10
18.2235
 20
-5.4565
 30
0.0
 10
18.2235
 20
-5.4565
 30
0.0
 10
18.238
 20
-5.2645
 30
0.0
 10
18.238
 20
-5.2645
 30
0.0
 10
18.238
 20
-5.2645
 30
0.0
 10
18.238
 20
-5.2645
 30
0.0
 10
18.2524
 20
-3.6869
 30
0.0
 10
18.2524
 20
-3.6869
 30
0.0
 10
18.2524
 20
-3.6869
 30
0.0
 10
18.2524
 20
-3.6869
 30
0.0
 10
21.2619
 20
-3.6594
 30
0.0
 10
21.2619
 20
-3.6594
 30
0.0
 10
21.2619
 20
-3.6594
 30
0.0
 10
21.2619
 20
-3.6594
 30
0.0
 10
21.2474
 20
-5.2508
 30
0.0
 10
21.2474
 20
-5.2508
 30
0.0
 10
21.2474
 20
-5.2508
 30
0.0
 10
21.2474
 20
-5.2508
 30
0.0
 10
21.2908
 20
-5.4017
 30
0.0
 10
21.2908
 20
-5.4017
 30
0.0
 10
21.2908
 20
-5.4017
 30
0.0
 10
21.2908
 20
-5.4017
 30
0.0
 10
21.3776
 20
-5.5251
 30
0.0
 10
21.3776
 20
-5.5251
 30
0.0
 10
21.3776
 20
-5.5251
 30
0.0
 10
21.3776
 20
-5.5251
 30
0.0
 10
21.5223
 20
-5.5937
 30
0.0
 10
21.5223
 20
-5.5937
 30
0.0
 10
21.5223
 20
-5.5937
 30
0.0
 10
21.5223
 20
-5.5937
 30
0.0
 10
21.6959
 20
-5.5937
 30
0.0
 10
21.6959
 20
-5.5937
 30
0.0
 10
21.6959
 20
-5.5937
 30
0.0
 10
21.6959
 20
-5.5937
 30
0.0
 10
21.8262
 20
-5.5389
 30
0.0
 10
21.8262
 20
-5.5389
 30
0.0
 10
21.8262
 20
-5.5389
 30
0.0
 10
21.8262
 20
-5.5389
 30
0.0
 10
21.9274
 20
-5.4291
 30
0.0
 10
21.9274
 20
-5.4291
 30
0.0
 10
21.9274
 20
-5.4291
 30
0.0
 10
21.9274
 20
-5.4291
 30
0.0
 10
21.9708
 20
-5.2919
 30
0.0
 10
21.9708
 20
-5.2919
 30
0.0
 10
21.9708
 20
-5.2919
 30
0.0
 10
21.9708
 20
-5.2919
 30
0.0
 10
21.9564
 20
-3.6731
 30
0.0
 10
21.9564
 20
-3.6731
 30
0.0
 10
21.9564
 20
-3.6731
 30
0.0
 10
21.9564
 20
-3.6731
 30
0.0
 10
24.9803
 20
-3.6594
 30
0.0
 10
24.9803
 20
-3.6594
 30
0.0
 10
24.9803
 20
-3.6594
 30
0.0
 10
24.9803
 20
-3.6594
 30
0.0
 10
24.9841
 20
-5.3181
 30
0.0
 10
24.9841
 20
-5.3181
 30
0.0
 10
24.9841
 20
-5.3181
 30
0.0
 10
24.9841
 20
-5.3181
 30
0.0
 10
25.0386
 20
-5.4934
 30
0.0
 10
25.0386
 20
-5.4934
 30
0.0
 10
25.0386
 20
-5.4934
 30
0.0
 10
25.0386
 20
-5.4934
 30
0.0
 10
25.1912
 20
-5.6069
 30
0.0
 10
25.1912
 20
-5.6069
 30
0.0
 10
25.1912
 20
-5.6069
 30
0.0
 10
25.1912
 20
-5.6069
 30
0.0
 10
25.311
 20
-5.6069
 30
0.0
 10
25.311
 20
-5.6069
 30
0.0
 10
25.311
 20
-5.6069
 30
0.0
 10
25.311
 20
-5.6069
 30
0.0
 10
25.42
 20
-5.5553
 30
0.0
 10
25.42
 20
-5.5553
 30
0.0
 10
25.42
 20
-5.5553
 30
0.0
 10
25.42
 20
-5.5553
 30
0.0
 10
25.4854
 20
-5.3903
 30
0.0
 10
25.4854
 20
-5.3903
 30
0.0
 10
25.4854
 20
-5.3903
 30
0.0
 10
25.4854
 20
-5.3903
 30
0.0
 10
25.5072
 20
-5.2768
 30
0.0
 10
25.5072
 20
-5.2768
 30
0.0
 10
25.5072
 20
-5.2768
 30
0.0
 10
25.5072
 20
-5.2768
 30
0.0
 10
25.5072
 20
-3.6577
 30
0.0
 10
25.5072
 20
-3.6577
 30
0.0
 10
25.5072
 20
-3.6577
 30
0.0
 10
25.5072
 20
-3.6577
 30
0.0
 10
26.7715
 20
-3.6577
 30
0.0
 10
26.7715
 20
-3.6577
 30
0.0
  0
SPLINE
  5
58
330
1F
100
AcDbEntity
  8
ROUND
 62
   250
100
AcDbSpline
210
0.0
220
0.0
230
1.0
 70
     8
 71
     3
 72
    36
 73
    32
 74
     0
 42
0.0000000001
 43
0.0000000001
 40
0.0
 40
0.0
 40
0.0
 40
0.0
 40
0.1111111111111111
 40
0.1111111111111111
 40
0.1111111111111111
 40
0.1111111111111111
 40
0.2222222222222222
 40
0.2222222222222222
 40
0.2222222222222222
 40
0.2222222222222222
 40
0.3333333333333333
 40
0.3333333333333333
 40
0.3333333333333333
 40
0.3333333333333333
 40
0.4444444444444444
 40
0.4444444444444444
 40
0.4444444444444444
 40
0.4444444444444444
 40
0.5555555555555556
 40
0.5555555555555556
 40
0.5555555555555556
 40
0.5555555555555556
 40
0.6666666666666666
 40
0.6666666666666666
 40
0.6666666666666666
 40
0.6666666666666666
 40
0.7777777777777778
 40
0.7777777777777778
 40
0.7777777777777778
 40
0.7777777777777778
 40
1.0
 40
1.0
 40
1.0
 40
1.0
 10
26.6625
 20
-3.6521
 30
0.0
 10
26.6625
 20
-3.6521
 30
0.0
 10
26.6605
 20
-5.8535
 30
0.0
 10
26.6605
 20
-6.0493
 30
0.0
 10
26.6605
 20
-6.0493
 30
0.0
 10
26.6605
 20
-6.245
 30
0.0
 10
26.4928
 20
-6.4038
 30
0.0
 10
26.2864
 20
-6.4038
 30
0.0
 10
26.2864
 20
-6.4038
 30
0.0
 10
26.08
 20
-6.4038
 30
0.0
 10
16.9426
 20
-6.4105
 30
0.0
 10
16.9426
 20
-6.4105
 30
0.0
 10
16.9426
 20
-6.4105
 30
0.0
 10
16.9426
 20
-6.4105
 30
0.0
 10
16.7948
 20
-6.3596
 30
0.0
 10
16.7948
 20
-6.3596
 30
0.0
 10
16.7948
 20
-6.3596
 30
0.0
 10
16.7948
 20
-6.3596
 30
0.0
 10
16.6647
 20
-6.2955
 30
0.0
 10
16.6647
 20
-6.2955
 30
0.0
 10
16.6647
 20
-6.2955
 30
0.0
 10
16.6647
 20
-6.2955
 30
0.0
 10
16.5866
 20
-6.1919
 30
0.0
 10
16.5866
 20
-6.1919
 30
0.0
 10
16.5866
 20
-6.1919
 30
0.0
 10
16.5866
 20
-6.1919
 30
0.0
 10
16.5658
 20
-6.0784
 30
0.0
 10
16.5658
 20
-6.0784
 30
0.0
 10
16.5658
 20
-6.0784
 30
0.0
 10
16.5658
 20
-6.0784
 30
0.0
 10
16.571
 20
-3.6458
 30
0.0
 10
16.571
 20
-3.6458
 30
0.0
  0
SPLINE
  5
59
330
1F
100
AcDbEntity
  8
ROUND
 62
   250
100
AcDbSpline
210
0.0
220
0.0
230
1.0
 70
     8
 71
     3
 72
    80
 73
    76
 74
     0
 42
0.0000000001
 43
0.0000000001
 40
0.0
 40
0.0
 40
0.0
 40
0.0
 40
0.05
 40
0.05
 40
0.05
 40
0.05
 40
0.1
 40
0.1
 40
0.1
 40
0.1
 40
0.15
 40
0.15
 40
0.15
 40
0.15
 40
0.2
 40
0.2
 40
0.2
 40
0.2
 40
0.25
 40
0.25
 40
0.25
 40
0.25
 40
0.3
 40
0.3
 40
0.3
 40
0.3
 40
0.35
 40
0.35
 40
0.35
 40
0.35
 40
0.4
 40
0.4
 40
0.4
 40
0.4
 40
0.45
 40
0.45
 40
0.45
 40
0.45
 40
0.5
 40
0.5
 40
0.5
 40
0.5
 40
0.55
 40
0.55
 40
0.55
 40
0.55
 40
0.6
 40
0.6
 40
0.6
 40
0.6
 40
0.65
 40
0.65
 40
0.65
 40
0.65
 40
0.7
 40
0.7
 40
0.7
 40
0.7
 40
0.75
 40
0.75
 40
0.75
 40
0.75
 40
0.8
 40
0.8
 40
0.8
 40
0.8
 40
0.85
 40
0.85
 40
0.85
 40
0.85
 40
0.9
 40
0.9
 40
0.9
 40
0.9
 40
1.0
 40
1.0
 40
1.0
 40
1.0
 10
0.2204
 20
-9.3253
 30
0.0
 10
0.2204
 20
-9.3253
 30
0.0
 10
0.2204
 20
-9.7164
 30
0.0
 10
0.2204
 20
-9.7164
 30
0.0
 10
0.2204
 20
-9.7164
 30
0.0
 10
0.2204
 20
-9.7164
 30
0.0
 10
0.2736
 20
-10.0186
 30
0.0
 10
0.2736
 20
-10.0186
 30
0.0
 10
0.2736
 20
-10.0186
 30
0.0
 10
0.2736
 20
-10.0186
 30
0.0
 10
0.3446
 20
-10.4452
 30
0.0
 10
0.3446
 20
-10.4452
 30
0.0
 10
0.3446
 20
-10.4452
 30
0.0
 10
0.3446
 20
-10.4452
 30
0.0
 10
0.5929
 20
-11.0496
 30
0.0
 10
0.5929
 20
-11.0496
 30
0.0
 10
0.5929
 20
-11.0496
 30
0.0
 10
0.5929
 20
-11.0496
 30
0.0
 10
0.9655
 20
-11.5296
 30
0.0
 10
0.9655
 20
-11.5296
 30
0.0
 10
0.9655
 20
-11.5296
 30
0.0
 10
0.9655
 20
-11.5296
 30
0.0
 10
1.4445
 20
-11.974
 30
0.0
 10
1.4445
 20
-11.974
 30
0.0
 10
1.4445
 20
-11.974
 30
0.0
 10
1.4445
 20
-11.974
 30
0.0
 10
1.959
 20
-12.2051
 30
0.0
 10
1.959
 20
-12.2051
 30
0.0
 10
1.959
 20
-12.2051
 30
0.0
 10
1.959
 20
-12.2051
 30
0.0
 10
2.4557
 20
-12.4007
 30
0.0
 10
2.4557
 20
-12.4007
 30
0.0
 10
2.4557
 20
-12.4007
 30
0.0
 10
2.4557
 20
-12.4007
 30
0.0
 10
3.034
 20
-12.4468
 30
0.0
 10
3.034
 20
-12.4468
 30
0.0
 10
3.034
 20
-12.4468
 30
0.0
 10
3.034
 20
-12.4468
 30
0.0
 10
23.4253
 20
-12.4468
 30
0.0
 10
23.4253
 20
-12.4468
 30
0.0
 10
23.4253
 20
-12.4468
 30
0.0
 10
23.4253
 20
-12.4468
 30
0.0
 10
23.9943
 20
-12.387
 30
0.0
 10
23.9943
 20
-12.387
 30
0.0
 10
23.9943
 20
-12.387
 30
0.0
 10
23.9943
 20
-12.387
 30
0.0
 10
24.5043
 20
-12.217
 30
0.0
 10
24.5043
 20
-12.217
 30
0.0
 10
24.5043
 20
-12.217
 30
0.0
 10
24.5043
 20
-12.217
 30
0.0
 10
24.9293
 20
-12.013
 30
0.0
 10
24.9293
 20
-12.013
 30
0.0
 10
24.9293
 20
-12.013
 30
0.0
 10
24.9293
 20
-12.013
 30
0.0
 10
25.3543
 20
-11.69
 30
0.0
 10
25.3543
 20
-11.69
 30
0.0
 10
25.3543
 20
-11.69
 30
0.0
 10
25.3543
 20
-11.69
 30
0.0
 10
25.7453
 20
-11.248
 30
0.0
 10
25.7453
 20
-11.248
 30
0.0
 10
25.7453
 20
-11.248
 30
0.0
 10
25.7453
 20
-11.248
 30
0.0
 10
26.0003
 20
-10.721
 30
0.0
 10
26.0003
 20
-10.721
 30
0.0
 10
26.0003
 20
-10.721
 30
0.0
 10
26.0003
 20
-10.721
 30
0.0
 10
26.1363
 20
-10.228
 30
0.0
 10
26.1363
 20
-10.228
 30
0.0
 10
26.1363
 20
-10.228
 30
0.0
 10
26.1363
 20
-10.228
 30
0.0
 10
26.1873
 20
-9.735
 30
0.0
 10
26.1873
 20
-9.735
 30
0.0
 10
26.1873
 20
-9.735
 30
0.0
 10
26.1873
 20
-9.735
 30
0.0
 10
26.1873
 20
-9.31
 30
0.0
 10
26.1873
 20
-9.31
 30
0.0
  0
SPLINE
  5
5A
330
1F
100
AcDbEntity
  8
ROUND
 62
   250
100
AcDbSpline
210
0.0
220
0.0
230
1.0
 70
     8
 71
     3
 72
    16
 73
    12
 74
     0
 42
0.0000000001
 43
0.0000000001
 40
0.0
 40
0.0
 40
0.0
 40
0.0
 40
0.25
 40
0.25
 40
0.25
 40
0.25
 40
0.5
 40
0.5
 40
0.5
 40
0.5
 40
1.0
 40
1.0
 40
1.0
 40
1.0
 10
17.8641
 20
-1.1204
 30
0.0
 10
17.8641
 20
-1.1204
 30
0.0
 10
17.8641
 20
-0.3789
 30
0.0
 10
17.8641
 20
-0.3789
 30
0.0
 10
17.8641
 20
-0.3789
 30
0.0
 10
17.8641
 20
-0.3789
 30
0.0
 10
25.2838
 20
-0.3806
 30
0.0
 10
25.2838
 20
-0.3806
 30
0.0
 10
25.2838
 20
-0.3806
 30
0.0
 10
25.2838
 20
-0.3806
 30
0.0
 10
25.2838
 20
-1.2124
 30
0.0
 10
25.2838
 20
-1.2124
 30
0.0
  0
SPLINE
  5
5B
330
1F
100
AcDbEntity
  8
ROUND
 62
   250
100
AcDbSpline
210
0.0
220
0.0
230
1.0
 70
     8
 71
     3
 72
    24
 73
    20
 74
     0
 42
0.0000000001
 43
0.0000000001
 40
0.0
 40
0.0
 40
0.0
 40
0.0
 40
0.1666666666666667
 40
0.1666666666666667
 40
0.1666666666666667
 40
0.1666666666666667
 40
0.3333333333333333
 40
0.3333333333333333
 40
0.3333333333333333
 40
0.3333333333333333
 40
0.5
 40
0.5
 40
0.5
 40
0.5
 40
0.6666666666666666
 40
0.6666666666666666
 40
0.6666666666666666
 40
0.6666666666666666
 40
1.0
 40
1.0
 40
1.0
 40
1.0
 10
17.5869
 20
-2.2494
 30
0.0
 10
17.5869
 20
-2.2494
 30
0.0
 10
17.586
 20
-2.6034
 30
0.0
 10
17.586
 20
-2.6034
 30
0.0
 10
17.586
 20
-2.6034
 30
0.0
 10
17.586
 20
-2.6034
 30
0.0
 10
17.8642
 20
-2.6034
 30
0.0
 10
17.8642
 20
-2.6034
 30
0.0
 10
17.8642
 20
-2.6034
 30
0.0
 10
17.8642
 20
-2.6034
 30
0.0
 10
25.279
 20
-2.6034
 30
0.0
 10
25.279
 20
-2.6034
 30
0.0
 10
25.279
 20
-2.6034
 30
0.0
 10
25.279
 20
-2.6034
 30
0.0
 10
25.5572
 20
-2.6034
 30
0.0
 10
25.5572
 20
-2.6034
 30
0.0
 10
25.5572
 20
-2.6034
 30
0.0
 10
25.5572
 20
-2.6034
 30
0.0
 10
25.552
 20
-2.1922
 30
0.0
 10
25.552
 20
-2.1922
 30
0.0
  0
SPLINE
  5
5C
330
1F
100
AcDbEntity
  8
ROUND
 62
   250
100
AcDbSpline
210
0.0
220
0.0
230
1.0
 70
     8
 71
     3
 72
    16
 73
    12
 74
     0
 42
0.0000000001
 43
0.0000000001
 40
0.0
 40
0.0
 40
0.0
 40
0.0
 40
0.25
 40
0.25
 40
0.25
 40
0.25
 40
0.5
 40
0.5
 40
0.5
 40
0.5
 40
1.0
 40
1.0
 40
1.0
 40
1.0
 10
26.2051
 20
-8.4818
 30
0.0
 10
26.1892
 20
-8.044
 30
0.0
 10
25.9808
 20
-7.6359
 30
0.0
 10
25.6356
 20
-7.3665
 30
0.0
 10
25.6356
 20
-7.3665
 30
0.0
 10
25.2904
 20
-7.0971
 30
0.0
 10
25.2189
 20
-6.8244
 30
0.0
 10
25.2189
 20
-6.8244
 30
0.0
 10
25.2189
 20
-6.8244
 30
0.0
 10
25.2189
 20
-6.8244
 30
0.0
 10
25.144
 20
-6.3825
 30
0.0
 10
25.144
 20
-6.3825
 30
0.0
  0
SPLINE
  5
5D
330
1F
100
AcDbEntity
  8
ROUND
 62
   250
100
AcDbSpline
210
0.0
220
0.0
230
1.0
 70
     8
 71
     3
 72
     8
 73
     4
 74
     0
 42
0.0000000001
 43
0.0000000001
 40
0.0
 40
0.0
 40
0.0
 40
0.0
 40
1.0
 40
1.0
 40
1.0
 40
1.0
 10
16.9373
 20
-7.0523
 30
0.0
 10
17.3776
 20
-7.0523
 30
0.0
 10
17.757
 20
-6.7425
 30
0.0
 10
17.8455
 20
-6.3109
 30
0.0
  0
SPLINE
  5
5E
330
1F
100
AcDbEntity
  8
ROUND
 62
   250
100
AcDbSpline
210
0.0
220
0.0
230
1.0
 70
     8
 71
     3
 72
    52
 73
    48
 74
     0
 42
0.0000000001
 43
0.0000000001
 40
0.0
 40
0.0
 40
0.0
 40
0.0
 40
0.0769230769230769
 40
0.0769230769230769
 40
0.0769230769230769
 40
0.0769230769230769
 40
0.1538461538461539
 40
0.1538461538461539
 40
0.1538461538461539
 40
0.1538461538461539
 40
0.2307692307692308
 40
0.2307692307692308
 40
0.2307692307692308
 40
0.2307692307692308
 40
0.3076923076923077
 40
0.3076923076923077
 40
0.3076923076923077
 40
0.3076923076923077
 40
0.3846153846153846
 40
0.3846153846153846
 40
0.3846153846153846
 40
0.3846153846153846
 40
0.4615384615384616
 40
0.4615384615384616
 40
0.4615384615384616
 40
0.4615384615384616
 40
0.5384615384615384
 40
0.5384615384615384
 40
0.5384615384615384
 40
0.5384615384615384
 40
0.6153846153846154
 40
0.6153846153846154
 40
0.6153846153846154
 40
0.6153846153846154
 40
0.6923076923076923
 40
0.6923076923076923
 40
0.6923076923076923
 40
0.6923076923076923
 40
0.7692307692307693
 40
0.7692307692307693
 40
0.7692307692307693
 40
0.7692307692307693
 40
0.8461538461538461
 40
0.8461538461538461
 40
0.8461538461538461
 40
0.8461538461538461
 40
1.0
 40
1.0
 40
1.0
 40
1.0
 10
0.5911
 20
-7.5648
 30
0.0
 10
0.5911
 20
-7.5648
 30
0.0
 10
4.7722
 20
-7.5648
 30
0.0
 10
4.7722
 20
-7.5648
 30
0.0
 10
4.7722
 20
-7.5648
 30
0.0
 10
4.7722
 20
-7.5648
 30
0.0
 10
5.3139
 20
-7.5817
 30
0.0
 10
5.3139
 20
-7.5817
 30
0.0
 10
5.3139
 20
-7.5817
 30
0.0
 10
5.3139
 20
-7.5817
 30
0.0
 10
6.1264
 20
-7.463
 30
0.0
 10
6.1264
 20
-7.463
 30
0.0
 10
6.1264
 20
-7.463
 30
0.0
 10
6.1264
 20
-7.463
 30
0.0
 10
6.9389
 20
-7.3103
 30
0.0
 10
6.9389
 20
-7.3103
 30
0.0
 10
6.9389
 20
-7.3103
 30
0.0
 10
6.9389
 20
-7.3103
 30
0.0
 10
8.2424
 20
-7.0898
 30
0.0
 10
8.2424
 20
-7.0898
 30
0.0
 10
8.2424
 20
-7.0898
 30
0.0
 10
8.2424
 20
-7.0898
 30
0.0
 10
8.7164
 20
-7.0524
 30
0.0
 10
8.7164
 20
-7.0524
 30
0.0
 10
8.7164
 20
-7.0524
 30
0.0
 10
8.7164
 20
-7.0524
 30
0.0
 10
18.1736
 20
-7.0524
 30
0.0
 10
18.1736
 20
-7.0524
 30
0.0
 10
18.1736
 20
-7.0524
 30
0.0
 10
18.1736
 20
-7.0524
 30
0.0
 10
18.9624
 20
-7.1029
 30
0.0
 10
18.9624
 20
-7.1029
 30
0.0
 10
18.9624
 20
-7.1029
 30
0.0
 10
18.9624
 20
-7.1029
 30
0.0
 10
20.0114
 20
-7.2323
 30
0.0
 10
20.0114
 20
-7.2323
 30
0.0
 10
20.0114
 20
-7.2323
 30
0.0
 10
20.0114
 20
-7.2323
 30
0.0
 10
20.9312
 20
-7.3617
 30
0.0
 10
20.9312
 20
-7.3617
 30
0.0
 10
20.9312
 20
-7.3617
 30
0.0
 10
20.9312
 20
-7.3617
 30
0.0
 10
21.8349
 20
-7.3617
 30
0.0
 10
21.8349
 20
-7.3617
 30
0.0
 10
21.8349
 20
-7.3617
 30
0.0
 10
21.8349
 20
-7.3617
 30
0.0
 10
25.6112
 20
-7.3455
 30
0.0
 10
25.6112
 20
-7.3455
 30
0.0
  0
SPLINE
  5
5F
330
1F
100
AcDbEntity
  8
ROUND
 62
   250
100
AcDbSpline
210
0.0
220
0.0
230
1.0
 70
     8
 71
     3
 72
    44
 73
    40
 74
     0
 42
0.0000000001
 43
0.0000000001
 40
0.0
 40
0.0
 40
0.0
 40
0.0
 40
0.0909090909090909
 40
0.0909090909090909
 40
0.0909090909090909
 40
0.0909090909090909
 40
0.1818181818181818
 40
0.1818181818181818
 40
0.1818181818181818
 40
0.1818181818181818
 40
0.2727272727272727
 40
0.2727272727272727
 40
0.2727272727272727
 40
0.2727272727272727
 40
0.3636363636363636
 40
0.3636363636363636
 40
0.3636363636363636
 40
0.3636363636363636
 40
0.4545454545454545
 40
0.4545454545454545
 40
0.4545454545454545
 40
0.4545454545454545
 40
0.5454545454545454
 40
0.5454545454545454
 40
0.5454545454545454
 40
0.5454545454545454
 40
0.6363636363636364
 40
0.6363636363636364
 40
0.6363636363636364
 40
0.6363636363636364
 40
0.7272727272727273
 40
0.7272727272727273
 40
0.7272727272727273
 40
0.7272727272727273
 40
0.8181818181818182
 40
0.8181818181818182
 40
0.8181818181818182
 40
0.8181818181818182
 40
1.0
 40
1.0
 40
1.0
 40
1.0
 10
9.3152
 20
-5.3764
 30
0.0
 10
9.3152
 20
-5.3764
 30
0.0
 10
9.3368
 20
-5.5901
 30
0.0
 10
9.3368
 20
-5.5901
 30
0.0
 10
9.3368
 20
-5.5901
 30
0.0
 10
9.3368
 20
-5.5901
 30
0.0
 10
8.9197
 20
-5.9401
 30
0.0
 10
8.9197
 20
-5.9401
 30
0.0
 10
8.9197
 20
-5.9401
 30
0.0
 10
8.9197
 20
-5.9401
 30
0.0
 10
8.9254
 20
-6.2493
 30
0.0
 10
8.9254
 20
-6.2493
 30
0.0
 10
8.9254
 20
-6.2493
 30
0.0
 10
8.9254
 20
-6.2493
 30
0.0
 10
8.9713
 20
-6.4331
 30
0.0
 10
8.9713
 20
-6.4331
 30
0.0
 10
8.9713
 20
-6.4331
 30
0.0
 10
8.9713
 20
-6.4331
 30
0.0
 10
9.063
 20
-6.6054
 30
0.0
 10
9.063
 20
-6.6054
 30
0.0
 10
9.063
 20
-6.6054
 30
0.0
 10
9.063
 20
-6.6054
 30
0.0
 10
9.1891
 20
-6.7776
 30
0.0
 10
9.1891
 20
-6.7776
 30
0.0
 10
9.1891
 20
-6.7776
 30
0.0
 10
9.1891
 20
-6.7776
 30
0.0
 10
9.2922
 20
-6.881
 30
0.0
 10
9.2922
 20
-6.881
 30
0.0
 10
9.2922
 20
-6.881
 30
0.0
 10
9.2922
 20
-6.881
 30
0.0
 10
9.4642
 20
-6.9614
 30
0.0
 10
9.4642
 20
-6.9614
 30
0.0
 10
9.4642
 20
-6.9614
 30
0.0
 10
9.4642
 20
-6.9614
 30
0.0
 10
9.659
 20
-7.0418
 30
0.0
 10
9.659
 20
-7.0418
 30
0.0
 10
9.659
 20
-7.0418
 30
0.0
 10
9.659
 20
-7.0418
 30
0.0
 10
9.831
 20
-7.0533
 30
0.0
 10
9.831
 20
-7.0533
 30
0.0
  0
SPLINE
  5
60
330
1F
100
AcDbEntity
  8
ROUND
 62
   250
100
AcDbSpline
210
0.0
220
0.0
230
1.0
 70
     8
 71
     3
 72
    28
 73
    24
 74
     0
 42
0.0000000001
 43
0.0000000001
 40
0.0
 40
0.0
 40
0.0
 40
0.0
 40
0.1428571428571428
 40
0.1428571428571428
 40
0.1428571428571428
 40
0.1428571428571428
 40
0.2857142857142857
 40
0.2857142857142857
 40
0.2857142857142857
 40
0.2857142857142857
 40
0.4285714285714285
 40
0.4285714285714285
 40
0.4285714285714285
 40
0.4285714285714285
 40
0.5714285714285714
 40
0.5714285714285714
 40
0.5714285714285714
 40
0.5714285714285714
 40
0.7142857142857143
 40
0.7142857142857143
 40
0.7142857142857143
 40
0.7142857142857143
 40
1.0
 40
1.0
 40
1.0
 40
1.0
 10
0.2544
 20
-8.4818
 30
0.0
 10
0.2668
 20
-8.1393
 30
0.0
 10
0.3974
 20
-7.8116
 30
0.0
 10
0.6242
 20
-7.5545
 30
0.0
 10
0.6242
 20
-7.5545
 30
0.0
 10
0.851
 20
-7.2974
 30
0.0
 10
0.8443
 20
-7.247
 30
0.0
 10
0.8443
 20
-7.247
 30
0.0
 10
0.8443
 20
-7.247
 30
0.0
 10
0.8443
 20
-7.247
 30
0.0
 10
0.8702
 20
-6.951
 30
0.0
 10
0.8702
 20
-6.951
 30
0.0
 10
0.8702
 20
-6.951
 30
0.0
 10
0.8702
 20
-6.951
 30
0.0
 10
0.8831
 20
-5.9471
 30
0.0
 10
0.8831
 20
-5.9471
 30
0.0
 10
0.8831
 20
-5.9471
 30
0.0
 10
0.8831
 20
-5.9471
 30
0.0
 10
0.395
 20
-5.6124
 30
0.0
 10
0.395
 20
-5.6124
 30
0.0
 10
0.395
 20
-5.6124
 30
0.0
 10
0.395
 20
-5.6124
 30
0.0
 10
0.395
 20
-5.4193
 30
0.0
 10
0.395
 20
-5.4193
 30
0.0
  0
SPLINE
  5
61
330
1F
100
AcDbEntity
  8
ROUND
 62
   250
100
AcDbSpline
210
0.0
220
0.0
230
1.0
 70
    11
 71
     3
 72
    36
 73
    32
 74
     0
 42
0.0000000001
 43
0.0000000001
 40
0.0
 40
0.0
 40
0.0
 40
0.0
 40
0.1111111111111111
 40
0.1111111111111111
 40
0.1111111111111111
 40
0.1111111111111111
 40
0.2222222222222222
 40
0.2222222222222222
 40
0.2222222222222222
 40
0.2222222222222222
 40
0.3333333333333333
 40
0.3333333333333333
 40
0.3333333333333333
 40
0.3333333333333333
 40
0.4444444444444444
 40
0.4444444444444444
 40
0.4444444444444444
 40
0.4444444444444444
 40
0.5555555555555556
 40
0.5555555555555556
 40
0.5555555555555556
 40
0.5555555555555556
 40
0.6666666666666666
 40
0.6666666666666666
 40
0.6666666666666666
 40
0.6666666666666666
 40
0.7777777777777778
 40
0.7777777777777778
 40
0.7777777777777778
 40
0.7777777777777778
 40
1.0
 40
1.0
 40
1.0
 40
1.0
 10
0.001
 20
-8.499
 30
0.0
 10
0.001
 20
-8.499
 30
0.0
 10
26.4298
 20
-8.499
 30
0.0
 10
26.4298
 20
-8.499
 30
0.0
 10
26.4298
 20
-8.499
 30
0.0
 10
26.5086
 20
-8.499
 30
0.0
 10
26.5729
 20
-8.5633
 30
0.0
 10
26.5729
 20
-8.6421
 30
0.0
 10
26.5729
 20
-8.6421
 30
0.0
 10
26.5729
 20
-8.6421
 30
0.0
 10
26.5729
 20
-9.1505
 30
0.0
 10
26.5729
 20
-9.1505
 30
0.0
 10
26.5729
 20
-9.1505
 30
0.0
 10
26.5729
 20
-9.2293
 30
0.0
 10
26.5086
 20
-9.2936
 30
0.0
 10
26.4298
 20
-9.2936
 30
0.0
 10
26.4298
 20
-9.2936
 30
0.0
 10
26.4298
 20
-9.2936
 30
0.0
 10
0.001
 20
-9.2936
 30
0.0
 10
0.001
 20
-9.2936
 30
0.0
 10
0.001
 20
-9.2936
 30
0.0
 10
-0.0778
 20
-9.2936
 30
0.0
 10
-0.1421
 20
-9.2293
 30
0.0
 10
-0.1421
 20
-9.1505
 30
0.0
 10
-0.1421
 20
-9.1505
 30
0.0
 10
-0.1421
 20
-9.1505
 30
0.0
 10
-0.1421
 20
-8.6421
 30
0.0
 10
-0.1421
 20
-8.6421
 30
0.0
 10
-0.1421
 20
-8.6421
 30
0.0
 10
-0.1421
 20
-8.5633
 30
0.0
 10
-0.0778
 20
-8.499
 30
0.0
 10
0.001
 20
-8.499
 30
0.0
  0
SPLINE
  5
62
330
1F
100
AcDbEntity
  8
ROUND
 62
   250
100
AcDbSpline
210
0.0
220
0.0
230
1.0
 70
    27
 71
     3
 72
    12
 73
     8
 74
     0
 42
0.0000000001
 43
0.0000000001
 40
0.0
 40
0.0
 40
0.0
 40
0.0
 40
0.3333333333333333
 40
0.3333333333333333
 40
0.3333333333333333
 40
0.3333333333333333
 40
1.0
 40
1.0
 40
1.0
 40
1.0
 10
25.279
 20
-2.6034
 30
0.0
 10
25.279
 20
-2.6034
 30
0.0
 10
25.279
 20
-3.1595
 30
0.0
 10
25.279
 20
-3.1595
 30
0.0
 10
25.279
 20
-3.1595
 30
0.0
 10
25.279
 20
-3.1595
 30
0.0
 10
25.279
 20
-2.6034
 30
0.0
 10
25.279
 20
-2.6034
 30
0.0
  0
SPLINE
  5
63
330
1F
100
AcDbEntity
  8
ROUND
 62
   250
100
AcDbSpline
210
0.0
220
0.0
230
1.0
 70
    27
 71
     3
 72
    12
 73
     8
 74
     0
 42
0.0000000001
 43
0.0000000001
 40
0.0
 40
0.0
 40
0.0
 40
0.0
 40
0.3333333333333333
 40
0.3333333333333333
 40
0.3333333333333333
 40
0.3333333333333333
 40
1.0
 40
1.0
 40
1.0
 40
1.0
 10
17.8642
 20
-2.6034
 30
0.0
 10
17.8642
 20
-2.6034
 30
0.0
 10
17.8642
 20
-3.1595
 30
0.0
 10
17.8642
 20
-3.1595
 30
0.0
 10
17.8642
 20
-3.1595
 30
0.0
 10
17.8642
 20
-3.1595
 30
0.0
 10
17.8642
 20
-2.6034
 30
0.0
 10
17.8642
 20
-2.6034
 30
0.0
  0
SPLINE
  5
64
330
1F
100
AcDbEntity
  8
ROUND
 62
   250
100
AcDbSpline
210
0.0
220
0.0
230
1.0
 70
    27
 71
     3
 72
    12
 73
     8
 74
     0
 42
0.0000000001
 43
0.0000000001
 40
0.0
 40
0.0
 40
0.0
 40
0.0
 40
0.3333333333333333
 40
0.3333333333333333
 40
0.3333333333333333
 40
0.3333333333333333
 40
1.0
 40
1.0
 40
1.0
 40
1.0
 10
8.9196
 20
-5.9402
 30
0.0
 10
8.9196
 20
-5.9402
 30
0.0
 10
0.8557
 20
-5.9402
 30
0.0
 10
0.8557
 20
-5.9402
 30
0.0
 10
0.8557
 20
-5.9402
 30
0.0
 10
0.8557
 20
-5.9402
 30
0.0
 10
8.9196
 20
-5.9402
 30
0.0
 10
8.9196
 20
-5.9402
 30
0.0
  0
SPLINE
  5
65
330
1F
100
AcDbEntity
  8
ROUND
  6
NEW_LINE1
 62
   250
100
AcDbSpline
210
0.0
220
0.0
230
1.0
 70
    24
 71
     3
 72
     8
 73
     4
 74
     0
 42
0.0000000001
 43
0.0000000001
 40
0.0
 40
0.0
 40
0.0
 40
0.0
 40
1.0
 40
1.0
 40
1.0
 40
1.0
 10
17.441
 20
-0.1007
 30
0.0
 10
17.441
 20
-0.1007
 30
0.0
 10
17.441
 20
9.8285
 30
0.0
 10
17.441
 20
9.8285
 30
0.0
  0
SPLINE
  5
67
330
1F
100
AcDbEntity
  8
ROUND
  6
NEW_LINE2
 62
   250
100
AcDbSpline
210
0.0
220
0.0
230
1.0
 70
    24
 71
     3
 72
     8
 73
     4
 74
     0
 42
0.0000000001
 43
0.0000000001
 40
0.0
 40
0.0
 40
0.0
 40
0.0
 40
1.0
 40
1.0
 40
1.0
 40
1.0
 10
25.8082
 20
-0.1007
 30
0.0
 10
25.8082
 20
-0.1007
 30
0.0
 10
25.8082
 20
9.7724
 30
0.0
 10
25.8082
 20
9.7724
 30
0.0
  0
SPLINE
  5
69
330
1F
100
AcDbEntity
  8
ROUND
 62
   250
100
AcDbSpline
210
0.0
220
0.0
230
1.0
 70
    11
 71
     3
 72
    20
 73
    16
 74
     0
 42
0.0000000001
 43
0.0000000001
 40
0.0
 40
0.0
 40
0.0
 40
0.0
 40
0.2
 40
0.2
 40
0.2
 40
0.2
 40
0.4
 40
0.4
 40
0.4
 40
0.4
 40
0.6
 40
0.6
 40
0.6
 40
0.6
 40
1.0
 40
1.0
 40
1.0
 40
1.0
 10
25.6754
 20
-2.2169
 30
0.0
 10
25.6754
 20
-2.2169
 30
0.0
 10
17.4933
 20
-2.2326
 30
0.0
 10
17.4933
 20
-2.2326
 30
0.0
 10
17.4933
 20
-2.2326
 30
0.0
 10
17.4933
 20
-2.2326
 30
0.0
 10
17.8177
 20
-1.213
 30
0.0
 10
17.8177
 20
-1.213
 30
0.0
 10
17.8177
 20
-1.213
 30
0.0
 10
17.8177
 20
-1.213
 30
0.0
 10
25.3465
 20
-1.2124
 30
0.0
 10
25.3465
 20
-1.2124
 30
0.0
 10
25.3465
 20
-1.2124
 30
0.0
 10
25.3465
 20
-1.2124
 30
0.0
 10
25.6754
 20
-2.2169
 30
0.0
 10
25.6754
 20
-2.2169
 30
0.0
  0
SPLINE
  5
6A
330
1F
100
AcDbEntity
  8
ROUND
 62
   250
100
AcDbSpline
210
0.0
220
0.0
230
1.0
 70
    27
 71
     3
 72
    16
 73
    12
 74
     0
 42
0.0000000001
 43
0.0000000001
 40
0.0
 40
0.0
 40
0.0
 40
0.0
 40
0.25
 40
0.25
 40
0.25
 40
0.25
 40
0.5
 40
0.5
 40
0.5
 40
0.5
 40
1.0
 40
1.0
 40
1.0
 40
1.0
 10
1.1803
 20
-2.2325
 30
0.0
 10
1.1803
 20
-2.2325
 30
0.0
 10
1.1803
 20
-0.6145
 30
0.0
 10
1.1803
 20
-0.6145
 30
0.0
 10
1.1803
 20
-0.6145
 30
0.0
 10
1.1803
 20
-0.6145
 30
0.0
 10
1.1803
 20
-0.1426
 30
0.0
 10
1.1803
 20
-0.1426
 30
0.0
 10
1.1803
 20
-0.1426
 30
0.0
 10
1.1803
 20
-0.1426
 30
0.0
 10
1.1803
 20
-2.2325
 30
0.0
 10
1.1803
 20
-2.2325
 30
0.0
  0
SPLINE
  5
6B
330
1F
100
AcDbEntity
  8
ROUND
  6
NEW_LINE3
 62
   250
100
AcDbSpline
210
0.0
220
0.0
230
1.0
 70
    24
 71
     3
 72
     8
 73
     4
 74
     0
 42
0.0000000001
 43
0.0000000001
 40
0.0
 40
0.0
 40
0.0
 40
0.0
 40
1.0
 40
1.0
 40
1.0
 40
1.0
 10
-17.6986
 20
-0.5938
 30
0.0
 10
-17.6986
 20
-0.5938
 30
0.0
 10
6.1351
 20
1.4914
 30
0.0
 10
6.1351
 20
1.4914
 30
0.0
  0
SPLINE
  5
6D
330
1F
100
AcDbEntity
  8
ROUND
  6
NEW_LINE4
 62
   250
100
AcDbSpline
210
0.0
220
0.0
230
1.0
 70
    24
 71
     3
 72
     8
 73
     4
 74
     0
 42
0.0000000001
 43
0.0000000001
 40
0.0
 40
0.0
 40
0.0
 40
0.0
 40
1.0
 40
1.0
 40
1.0
 40
1.0
 10
4.888
 20
-10.4334
 30
0.0
 10
4.888
 20
-10.4334
 30
0.0
 10
4.888
 20
1.9086
 30
0.0
 10
4.888
 20
1.9086
 30
0.0
  0
SPLINE
  5
6F
330
1F
100
AcDbEntity
  8
ROUND
  6
NEW_LINE5
 62
   250
100
AcDbSpline
210
0.0
220
0.0
230
1.0
 70
    24
 71
     3
 72
     8
 73
     4
 74
     0
 42
0.0000000001
 43
0.0000000001
 40
0.0
 40
0.0
 40
0.0
 40
0.0
 40
1.0
 40
1.0
 40
1.0
 40
1.0
 10
21.5719
 20
-10.5302
 30
0.0
 10
21.5719
 20
-10.5302
 30
0.0
 10
21.5719
 20
0.5053
 30
0.0
 10
21.5719
 20
0.5053
 30
0.0
  0
SPLINE
  5
71
330
1F
100
AcDbEntity
  8
ROUND
  6
NEW_LINE6
 62
   250
100
AcDbSpline
210
0.0
220
0.0
230
1.0
 70
    24
 71
     3
 72
     8
 73
     4
 74
     0
 42
0.0000000001
 43
0.0000000001
 40
0.0
 40
0.0
 40
0.0
 40
0.0
 40
1.0
 40
1.0
 40
1.0
 40
1.0
 10
-17.4452
 20
-10.0257
 30
0.0
 10
-17.4452
 20
-10.0257
 30
0.0
 10
-19.0925
 20
8.6606
 30
0.0
 10
-19.0925
 20
8.6606
 30
0.0
  0
SPLINE
  5
73
330
1F
100
AcDbEntity
  8
ROUND
 62
   250
100
AcDbSpline
210
0.0
220
0.0
230
1.0
 70
    11
 71
     3
 72
   120
 73
   116
 74
     0
 42
0.0000000001
 43
0.0000000001
 40
0.0
 40
0.0
 40
0.0
 40
0.0
 40
0.0333333333333333
 40
0.0333333333333333
 40
0.0333333333333333
 40
0.0333333333333333
 40
0.0666666666666667
 40
0.0666666666666667
 40
0.0666666666666667
 40
0.0666666666666667
 40
0.1
 40
0.1
 40
0.1
 40
0.1
 40
0.1333333333333333
 40
0.1333333333333333
 40
0.1333333333333333
 40
0.1333333333333333
 40
0.1666666666666667
 40
0.1666666666666667
 40
0.1666666666666667
 40
0.1666666666666667
 40
0.2
 40
0.2
 40
0.2
 40
0.2
 40
0.2333333333333333
 40
0.2333333333333333
 40
0.2333333333333333
 40
0.2333333333333333
 40
0.2666666666666667
 40
0.2666666666666667
 40
0.2666666666666667
 40
0.2666666666666667
 40
0.3
 40
0.3
 40
0.3
 40
0.3
 40
0.3333333333333333
 40
0.3333333333333333
 40
0.3333333333333333
 40
0.3333333333333333
 40
0.3666666666666666
 40
0.3666666666666666
 40
0.3666666666666666
 40
0.3666666666666666
 40
0.4
 40
0.4
 40
0.4
 40
0.4
 40
0.4333333333333333
 40
0.4333333333333333
 40
0.4333333333333333
 40
0.4333333333333333
 40
0.4666666666666667
 40
0.4666666666666667
 40
0.4666666666666667
 40
0.4666666666666667
 40
0.5
 40
0.5
 40
0.5
 40
0.5
 40
0.5333333333333333
 40
0.5333333333333333
 40
0.5333333333333333
 40
0.5333333333333333
 40
0.5666666666666667
 40
0.5666666666666667
 40
0.5666666666666667
 40
0.5666666666666667
 40
0.6
 40
0.6
 40
0.6
 40
0.6
 40
0.6333333333333333
 40
0.6333333333333333
 40
0.6333333333333333
 40
0.6333333333333333
 40
0.6666666666666666
 40
0.6666666666666666
 40
0.6666666666666666
 40
0.6666666666666666
 40
0.7
 40
0.7
 40
0.7
 40
0.7
 40
0.7333333333333333
 40
0.7333333333333333
 40
0.7333333333333333
 40
0.7333333333333333
 40
0.7666666666666667
 40
0.7666666666666667
 40
0.7666666666666667
 40
0.7666666666666667
 40
0.8
 40
0.8
 40
0.8
 40
0.8
 40
0.8333333333333334
 40
0.8333333333333334
 40
0.8333333333333334
 40
0.8333333333333334
 40
0.8666666666666667
 40
0.8666666666666667
 40
0.8666666666666667
 40
0.8666666666666667
 40
0.9
 40
0.9
 40
0.9
 40
0.9
 40
0.9333333333333333
 40
0.9333333333333333
 40
0.9333333333333333
 40
0.9333333333333333
 40
1.0
 40
1.0
 40
1.0
 40
1.0
 10
-19.546
 20
-3.0606
 30
0.0
 10
-19.546
 20
-3.0606
 30
0.0
 10
-19.7817
 20
-3.0813
 30
0.0
 10
-19.7817
 20
-3.0813
 30
0.0
 10
-19.7817
 20
-3.0813
 30
0.0
 10
-19.7817
 20
-3.0813
 30
0.0
 10
-19.8576
 20
-2.229
 30
0.0
 10
-19.8576
 20
-2.229
 30
0.0
 10
-19.8576
 20
-2.229
 30
0.0
 10
-19.8576
 20
-2.229
 30
0.0
 10
-19.1112
 20
-2.1637
 30
0.0
 10
-19.1112
 20
-2.1637
 30
0.0
 10
-19.1112
 20
-2.1637
 30
0.0
 10
-18.9953
 20
-2.2853
 30
0.0
 10
-18.9052
 20
-2.4134
 30
0.0
 10
-18.8401
 20
-2.548
 30
0.0
 10
-18.8401
 20
-2.548
 30
0.0
 10
-18.7754
 20
-2.6825
 30
0.0
 10
-18.7367
 20
-2.8231
 30
0.0
 10
-18.7239
 20
-2.9693
 30
0.0
 10
-18.7239
 20
-2.9693
 30
0.0
 10
-18.7066
 20
-3.1671
 30
0.0
 10
-18.733
 20
-3.3507
 30
0.0
 10
-18.8037
 20
-3.5193
 30
0.0
 10
-18.8037
 20
-3.5193
 30
0.0
 10
-18.8739
 20
-3.6884
 30
0.0
 10
-18.986
 20
-3.8209
 30
0.0
 10
-19.1386
 20
-3.9174
 30
0.0
 10
-19.1386
 20
-3.9174
 30
0.0
 10
-19.2916
 20
-4.0139
 30
0.0
 10
-19.467
 20
-4.0708
 30
0.0
 10
-19.6648
 20
-4.0881
 30
0.0
 10
-19.6648
 20
-4.0881
 30
0.0
 10
-19.8606
 20
-4.1052
 30
0.0
 10
-20.0469
 20
-4.08
 30
0.0
 10
-20.2238
 20
-4.0127
 30
0.0
 10
-20.2238
 20
-4.0127
 30
0.0
 10
-20.401
 20
-3.9461
 30
0.0
 10
-20.5374
 20
-3.8391
 30
0.0
 10
-20.6333
 20
-3.6926
 30
0.0
 10
-20.6333
 20
-3.6926
 30
0.0
 10
-20.7288
 20
-3.5461
 30
0.0
 10
-20.7855
 20
-3.3726
 30
0.0
 10
-20.8031
 20
-3.172
 30
0.0
 10
-20.8031
 20
-3.172
 30
0.0
 10
-20.8158
 20
-3.0268
 30
0.0
 10
-20.8038
 20
-2.893
 30
0.0
 10
-20.7668
 20
-2.7712
 30
0.0
 10
-20.7668
 20
-2.7712
 30
0.0
 10
-20.7302
 20
-2.6496
 30
0.0
 10
-20.6726
 20
-2.5515
 30
0.0
 10
-20.5942
 20
-2.4776
 30
0.0
 10
-20.5942
 20
-2.4776
 30
0.0
 10
-20.5157
 20
-2.4033
 30
0.0
 10
-20.4105
 20
-2.3431
 30
0.0
 10
-20.2781
 20
-2.296
 30
0.0
 10
-20.2781
 20
-2.296
 30
0.0
 10
-20.2781
 20
-2.296
 30
0.0
 10
-20.191
 20
-2.5306
 30
0.0
 10
-20.191
 20
-2.5306
 30
0.0
 10
-20.191
 20
-2.5306
 30
0.0
 10
-20.291
 20
-2.5701
 30
0.0
 10
-20.3683
 20
-2.6146
 30
0.0
 10
-20.423
 20
-2.6643
 30
0.0
 10
-20.423
 20
-2.6643
 30
0.0
 10
-20.4776
 20
-2.7143
 30
0.0
 10
-20.5188
 20
-2.7827
 30
0.0
 10
-20.5467
 20
-2.8691
 30
0.0
 10
-20.5467
 20
-2.8691
 30
0.0
 10
-20.5746
 20
-2.9552
 30
0.0
 10
-20.5843
 20
-3.0495
 30
0.0
 10
-20.5754
 20
-3.1507
 30
0.0
 10
-20.5754
 20
-3.1507
 30
0.0
 10
-20.5648
 20
-3.2725
 30
0.0
 10
-20.5367
 20
-3.3763
 30
0.0
 10
-20.492
 20
-3.4616
 30
0.0
 10
-20.492
 20
-3.4616
 30
0.0
 10
-20.4472
 20
-3.5474
 30
0.0
 10
-20.3922
 20
-3.6144
 30
0.0
 10
-20.327
 20
-3.6639
 30
0.0
 10
-20.327
 20
-3.6639
 30
0.0
 10
-20.2618
 20
-3.713
 30
0.0
 10
-20.192
 20
-3.7494
 30
0.0
 10
-20.1167
 20
-3.7735
 30
0.0
 10
-20.1167
 20
-3.7735
 30
0.0
 10
-19.9881
 20
-3.8136
 30
0.0
 10
-19.8509
 20
-3.8276
 30
0.0
 10
-19.7052
 20
-3.8149
 30
0.0
 10
-19.7052
 20
-3.8149
 30
0.0
 10
-19.5257
 20
-3.7992
 30
0.0
 10
-19.3785
 20
-3.7552
 30
0.0
 10
-19.263
 20
-3.6827
 30
0.0
 10
-19.263
 20
-3.6827
 30
0.0
 10
-19.1476
 20
-3.6103
 30
0.0
 10
-19.0659
 20
-3.5125
 30
0.0
 10
-19.0176
 20
-3.3893
 30
0.0
 10
-19.0176
 20
-3.3893
 30
0.0
 10
-18.9694
 20
-3.2661
 30
0.0
 10
-18.9508
 20
-3.1384
 30
0.0
 10
-18.9624
 20
-3.0058
 30
0.0
 10
-18.9624
 20
-3.0058
 30
0.0
 10
-18.9726
 20
-2.89
 30
0.0
 10
-19.0049
 20
-2.7796
 30
0.0
 10
-19.059
 20
-2.6738
 30
0.0
 10
-19.059
 20
-2.6738
 30
0.0
 10
-19.1127
 20
-2.5675
 30
0.0
 10
-19.1673
 20
-2.4888
 30
0.0
 10
-19.2228
 20
-2.4365
 30
0.0
 10
-19.2228
 20
-2.4365
 30
0.0
 10
-19.2228
 20
-2.4365
 30
0.0
 10
-19.5977
 20
-2.4693
 30
0.0
 10
-19.5977
 20
-2.4693
 30
0.0
 10
-19.5977
 20
-2.4693
 30
0.0
 10
-19.5977
 20
-2.4693
 30
0.0
 10
-19.546
 20
-3.0606
 30
0.0
 10
-19.546
 20
-3.0606
 30
0.0
  0
SPLINE
  5
74
330
1F
100
AcDbEntity
  8
ROUND
 62
   250
100
AcDbSpline
210
0.0
220
0.0
230
1.0
 70
    11
 71
     3
 72
    80
 73
    76
 74
     0
 42
0.0000000001
 43
0.0000000001
 40
0.0
 40
0.0
 40
0.0
 40
0.0
 40
0.05
 40
0.05
 40
0.05
 40
0.05
 40
0.1
 40
0.1
 40
0.1
 40
0.1
 40
0.15
 40
0.15
 40
0.15
 40
0.15
 40
0.2
 40
0.2
 40
0.2
 40
0.2
 40
0.25
 40
0.25
 40
0.25
 40
0.25
 40
0.3
 40
0.3
 40
0.3
 40
0.3
 40
0.35
 40
0.35
 40
0.35
 40
0.35
 40
0.4
 40
0.4
 40
0.4
 40
0.4
 40
0.45
 40
0.45
 40
0.45
 40
0.45
 40
0.5
 40
0.5
 40
0.5
 40
0.5
 40
0.55
 40
0.55
 40
0.55
 40
0.55
 40
0.6
 40
0.6
 40
0.6
 40
0.6
 40
0.65
 40
0.65
 40
0.65
 40
0.65
 40
0.7
 40
0.7
 40
0.7
 40
0.7
 40
0.75
 40
0.75
 40
0.75
 40
0.75
 40
0.8
 40
0.8
 40
0.8
 40
0.8
 40
0.85
 40
0.85
 40
0.85
 40
0.85
 40
0.9
 40
0.9
 40
0.9
 40
0.9
 40
1.0
 40
1.0
 40
1.0
 40
1.0
 10
-20.5566
 20
0.0833
 30
0.0
 10
-20.5566
 20
0.0833
 30
0.0
 10
-20.5159
 20
-0.1604
 30
0.0
 10
-20.5159
 20
-0.1604
 30
0.0
 10
-20.5159
 20
-0.1604
 30
0.0
 10
-20.611
 20
-0.1909
 30
0.0
 10
-20.6791
 20
-0.2281
 30
0.0
 10
-20.7191
 20
-0.2722
 30
0.0
 10
-20.7191
 20
-0.2722
 30
0.0
 10
-20.784
 20
-0.3454
 30
0.0
 10
-20.812
 20
-0.431
 30
0.0
 10
-20.8034
 20
-0.5289
 30
0.0
 10
-20.8034
 20
-0.5289
 30
0.0
 10
-20.7965
 20
-0.6076
 30
0.0
 10
-20.7684
 20
-0.6745
 30
0.0
 10
-20.7192
 20
-0.7302
 30
0.0
 10
-20.7192
 20
-0.7302
 30
0.0
 10
-20.6557
 20
-0.8031
 30
0.0
 10
-20.5674
 20
-0.8572
 30
0.0
 10
-20.4547
 20
-0.8926
 30
0.0
 10
-20.4547
 20
-0.8926
 30
0.0
 10
-20.3421
 20
-0.9276
 30
0.0
 10
-20.185
 20
-0.9375
 30
0.0
 10
-19.9834
 20
-0.9217
 30
0.0
 10
-19.9834
 20
-0.9217
 30
0.0
 10
-20.0789
 20
-0.8702
 30
0.0
 10
-20.1528
 20
-0.8034
 30
0.0
 10
-20.2044
 20
-0.721
 30
0.0
 10
-20.2044
 20
-0.721
 30
0.0
 10
-20.2554
 20
-0.6392
 30
0.0
 10
-20.2854
 20
-0.5506
 30
0.0
 10
-20.2936
 20
-0.4564
 30
0.0
 10
-20.2936
 20
-0.4564
 30
0.0
 10
-20.308
 20
-0.2915
 30
0.0
 10
-20.2599
 20
-0.1461
 30
0.0
 10
-20.1486
 20
-0.0197
 30
0.0
 10
-20.1486
 20
-0.0197
 30
0.0
 10
-20.0374
 20
0.1066
 30
0.0
 10
-19.886
 20
0.1784
 30
0.0
 10
-19.6939
 20
0.1953
 30
0.0
 10
-19.6939
 20
0.1953
 30
0.0
 10
-19.5674
 20
0.2063
 30
0.0
 10
-19.4478
 20
0.1889
 30
0.0
 10
-19.3343
 20
0.144
 30
0.0
 10
-19.3343
 20
0.144
 30
0.0
 10
-19.2213
 20
0.0992
 30
0.0
 10
-19.1314
 20
0.0315
 30
0.0
 10
-19.0654
 20
-0.0586
 30
0.0
 10
-19.0654
 20
-0.0586
 30
0.0
 10
-18.9995
 20
-0.1486
 30
0.0
 10
-18.9615
 20
-0.2539
 30
0.0
 10
-18.9509
 20
-0.3749
 30
0.0
 10
-18.9509
 20
-0.3749
 30
0.0
 10
-18.9329
 20
-0.581
 30
0.0
 10
-18.9936
 20
-0.7553
 30
0.0
 10
-19.1341
 20
-0.8984
 30
0.0
 10
-19.1341
 20
-0.8984
 30
0.0
 10
-19.274
 20
-1.042
 30
0.0
 10
-19.5181
 20
-1.1285
 30
0.0
 10
-19.8657
 20
-1.1589
 30
0.0
 10
-19.8657
 20
-1.1589
 30
0.0
 10
-20.2547
 20
-1.1929
 30
0.0
 10
-20.5436
 20
-1.1459
 30
0.0
 10
-20.7328
 20
-1.0175
 30
0.0
 10
-20.7328
 20
-1.0175
 30
0.0
 10
-20.8974
 20
-0.9058
 30
0.0
 10
-20.9895
 20
-0.7439
 30
0.0
 10
-21.0081
 20
-0.5312
 30
0.0
 10
-21.0081
 20
-0.5312
 30
0.0
 10
-21.0219
 20
-0.3733
 30
0.0
 10
-20.9887
 20
-0.2397
 30
0.0
 10
-20.9085
 20
-0.1306
 30
0.0
 10
-20.9085
 20
-0.1306
 30
0.0
 10
-20.8288
 20
-0.0217
 30
0.0
 10
-20.7114
 20
0.0495
 30
0.0
 10
-20.5566
 20
0.0833
 30
0.0
  0
SPLINE
  5
75
330
1F
100
AcDbEntity
  8
ROUND
 62
   250
100
AcDbSpline
210
0.0
220
0.0
230
1.0
 70
    11
 71
     3
 72
    40
 73
    36
 74
     0
 42
0.0000000001
 43
0.0000000001
 40
0.0
 40
0.0
 40
0.0
 40
0.0
 40
0.1
 40
0.1
 40
0.1
 40
0.1
 40
0.2
 40
0.2
 40
0.2
 40
0.2
 40
0.3
 40
0.3
 40
0.3
 40
0.3
 40
0.4
 40
0.4
 40
0.4
 40
0.4
 40
0.5
 40
0.5
 40
0.5
 40
0.5
 40
0.6
 40
0.6
 40
0.6
 40
0.6
 40
0.7
 40
0.7
 40
0.7
 40
0.7
 40
0.8
 40
0.8
 40
0.8
 40
0.8
 40
1.0
 40
1.0
 40
1.0
 40
1.0
 10
-19.6011
 20
-0.8496
 30
0.0
 10
-19.5157
 20
-0.8422
 30
0.0
 10
-19.4358
 20
-0.8167
 30
0.0
 10
-19.3612
 20
-0.7738
 30
0.0
 10
-19.3612
 20
-0.7738
 30
0.0
 10
-19.2865
 20
-0.731
 30
0.0
 10
-19.232
 20
-0.6752
 30
0.0
 10
-19.1969
 20
-0.607
 30
0.0
 10
-19.1969
 20
-0.607
 30
0.0
 10
-19.1618
 20
-0.5383
 30
0.0
 10
-19.1471
 20
-0.468
 30
0.0
 10
-19.1534
 20
-0.3968
 30
0.0
 10
-19.1534
 20
-0.3968
 30
0.0
 10
-19.1625
 20
-0.2923
 30
0.0
 10
-19.2126
 20
-0.2065
 30
0.0
 10
-19.3034
 20
-0.1389
 30
0.0
 10
-19.3034
 20
-0.1389
 30
0.0
 10
-19.3943
 20
-0.0714
 30
0.0
 10
-19.512
 20
-0.0438
 30
0.0
 10
-19.6562
 20
-0.0564
 30
0.0
 10
-19.6562
 20
-0.0564
 30
0.0
 10
-19.7954
 20
-0.0686
 30
0.0
 10
-19.9018
 20
-0.1153
 30
0.0
 10
-19.9755
 20
-0.1963
 30
0.0
 10
-19.9755
 20
-0.1963
 30
0.0
 10
-20.0492
 20
-0.2773
 30
0.0
 10
-20.0809
 20
-0.374
 30
0.0
 10
-20.071
 20
-0.4865
 30
0.0
 10
-20.071
 20
-0.4865
 30
0.0
 10
-20.0612
 20
-0.5985
 30
0.0
 10
-20.0131
 20
-0.6897
 30
0.0
 10
-19.9261
 20
-0.7604
 30
0.0
 10
-19.9261
 20
-0.7604
 30
0.0
 10
-19.8392
 20
-0.8312
 30
0.0
 10
-19.7308
 20
-0.861
 30
0.0
 10
-19.6011
 20
-0.8496
 30
0.0
  0
SPLINE
  5
76
330
1F
100
AcDbEntity
  8
ROUND
 62
   250
100
AcDbSpline
210
0.0
220
0.0
230
1.0
 70
    11
 71
     3
 72
    20
 73
    16
 74
     0
 42
0.0000000001
 43
0.0000000001
 40
0.0
 40
0.0
 40
0.0
 40
0.0
 40
0.2
 40
0.2
 40
0.2
 40
0.2
 40
0.4
 40
0.4
 40
0.4
 40
0.4
 40
0.6
 40
0.6
 40
0.6
 40
0.6
 40
1.0
 40
1.0
 40
1.0
 40
1.0
 10
-19.0173
 20
0.3842
 30
0.0
 10
-19.0173
 20
0.3842
 30
0.0
 10
-21.1493
 20
0.7856
 30
0.0
 10
-21.1493
 20
0.7856
 30
0.0
 10
-21.1493
 20
0.7856
 30
0.0
 10
-21.1493
 20
0.7856
 30
0.0
 10
-21.1666
 20
0.9833
 30
0.0
 10
-21.1666
 20
0.9833
 30
0.0
 10
-21.1666
 20
0.9833
 30
0.0
 10
-21.1666
 20
0.9833
 30
0.0
 10
-19.0347
 20
0.5834
 30
0.0
 10
-19.0347
 20
0.5834
 30
0.0
 10
-19.0347
 20
0.5834
 30
0.0
 10
-19.0347
 20
0.5834
 30
0.0
 10
-19.0173
 20
0.3842
 30
0.0
 10
-19.0173
 20
0.3842
 30
0.0
  0
SPLINE
  5
77
330
1F
100
AcDbEntity
  8
ROUND
 62
   250
100
AcDbSpline
210
0.0
220
0.0
230
1.0
 70
    11
 71
     3
 72
    48
 73
    44
 74
     0
 42
0.0000000001
 43
0.0000000001
 40
0.0
 40
0.0
 40
0.0
 40
0.0
 40
0.0833333333333333
 40
0.0833333333333333
 40
0.0833333333333333
 40
0.0833333333333333
 40
0.1666666666666667
 40
0.1666666666666667
 40
0.1666666666666667
 40
0.1666666666666667
 40
0.25
 40
0.25
 40
0.25
 40
0.25
 40
0.3333333333333333
 40
0.3333333333333333
 40
0.3333333333333333
 40
0.3333333333333333
 40
0.4166666666666667
 40
0.4166666666666667
 40
0.4166666666666667
 40
0.4166666666666667
 40
0.5
 40
0.5
 40
0.5
 40
0.5
 40
0.5833333333333334
 40
0.5833333333333334
 40
0.5833333333333334
 40
0.5833333333333334
 40
0.6666666666666666
 40
0.6666666666666666
 40
0.6666666666666666
 40
0.6666666666666666
 40
0.75
 40
0.75
 40
0.75
 40
0.75
 40
0.8333333333333334
 40
0.8333333333333334
 40
0.8333333333333334
 40
0.8333333333333334
 40
1.0
 40
1.0
 40
1.0
 40
1.0
 10
-19.1993
 20
2.0709
 30
0.0
 10
-19.1993
 20
2.0709
 30
0.0
 10
-19.681
 20
2.0288
 30
0.0
 10
-19.681
 20
2.0288
 30
0.0
 10
-19.681
 20
2.0288
 30
0.0
 10
-19.681
 20
2.0288
 30
0.0
 10
-19.6046
 20
1.1558
 30
0.0
 10
-19.6046
 20
1.1558
 30
0.0
 10
-19.6046
 20
1.1558
 30
0.0
 10
-19.6046
 20
1.1558
 30
0.0
 10
-19.8314
 20
1.1359
 30
0.0
 10
-19.8314
 20
1.1359
 30
0.0
 10
-19.8314
 20
1.1359
 30
0.0
 10
-19.8314
 20
1.1359
 30
0.0
 10
-21.2158
 20
1.9404
 30
0.0
 10
-21.2158
 20
1.9404
 30
0.0
 10
-21.2158
 20
1.9404
 30
0.0
 10
-21.2158
 20
1.9404
 30
0.0
 10
-21.2335
 20
2.1423
 30
0.0
 10
-21.2335
 20
2.1423
 30
0.0
 10
-21.2335
 20
2.1423
 30
0.0
 10
-21.2335
 20
2.1423
 30
0.0
 10
-19.9294
 20
2.2564
 30
0.0
 10
-19.9294
 20
2.2564
 30
0.0
 10
-19.9294
 20
2.2564
 30
0.0
 10
-19.9294
 20
2.2564
 30
0.0
 10
-19.9532
 20
2.5281
 30
0.0
 10
-19.9532
 20
2.5281
 30
0.0
 10
-19.9532
 20
2.5281
 30
0.0
 10
-19.9532
 20
2.5281
 30
0.0
 10
-19.7264
 20
2.548
 30
0.0
 10
-19.7264
 20
2.548
 30
0.0
 10
-19.7264
 20
2.548
 30
0.0
 10
-19.7264
 20
2.548
 30
0.0
 10
-19.7026
 20
2.2762
 30
0.0
 10
-19.7026
 20
2.2762
 30
0.0
 10
-19.7026
 20
2.2762
 30
0.0
 10
-19.7026
 20
2.2762
 30
0.0
 10
-19.221
 20
2.3184
 30
0.0
 10
-19.221
 20
2.3184
 30
0.0
 10
-19.221
 20
2.3184
 30
0.0
 10
-19.221
 20
2.3184
 30
0.0
 10
-19.1993
 20
2.0709
 30
0.0
 10
-19.1993
 20
2.0709
 30
0.0
  0
SPLINE
  5
78
330
1F
100
AcDbEntity
  8
ROUND
 62
   250
100
AcDbSpline
210
0.0
220
0.0
230
1.0
 70
    11
 71
     3
 72
    16
 73
    12
 74
     0
 42
0.0000000001
 43
0.0000000001
 40
0.0
 40
0.0
 40
0.0
 40
0.0
 40
0.25
 40
0.25
 40
0.25
 40
0.25
 40
0.5
 40
0.5
 40
0.5
 40
0.5
 40
1.0
 40
1.0
 40
1.0
 40
1.0
 10
-19.9078
 20
2.0089
 30
0.0
 10
-19.9078
 20
2.0089
 30
0.0
 10
-20.8149
 20
1.9295
 30
0.0
 10
-20.8149
 20
1.9295
 30
0.0
 10
-20.8149
 20
1.9295
 30
0.0
 10
-20.8149
 20
1.9295
 30
0.0
 10
-19.8527
 20
1.3792
 30
0.0
 10
-19.8527
 20
1.3792
 30
0.0
 10
-19.8527
 20
1.3792
 30
0.0
 10
-19.8527
 20
1.3792
 30
0.0
 10
-19.9078
 20
2.0089
 30
0.0
 10
-19.9078
 20
2.0089
 30
0.0
  0
SPLINE
  5
79
330
1F
100
AcDbEntity
  8
ROUND
 62
   250
100
AcDbSpline
210
0.0
220
0.0
230
1.0
 70
    11
 71
     3
 72
    28
 73
    24
 74
     0
 42
0.0000000001
 43
0.0000000001
 40
0.0
 40
0.0
 40
0.0
 40
0.0
 40
0.1428571428571428
 40
0.1428571428571428
 40
0.1428571428571428
 40
0.1428571428571428
 40
0.2857142857142857
 40
0.2857142857142857
 40
0.2857142857142857
 40
0.2857142857142857
 40
0.4285714285714285
 40
0.4285714285714285
 40
0.4285714285714285
 40
0.4285714285714285
 40
0.5714285714285714
 40
0.5714285714285714
 40
0.5714285714285714
 40
0.5714285714285714
 40
0.7142857142857143
 40
0.7142857142857143
 40
0.7142857142857143
 40
0.7142857142857143
 40
1.0
 40
1.0
 40
1.0
 40
1.0
 10
-20.5738
 20
2.81
 30
0.0
 10
-20.5738
 20
2.81
 30
0.0
 10
-20.9511
 20
2.7076
 30
0.0
 10
-20.9511
 20
2.7076
 30
0.0
 10
-20.9511
 20
2.7076
 30
0.0
 10
-20.9511
 20
2.7076
 30
0.0
 10
-21.2804
 20
2.6788
 30
0.0
 10
-21.2804
 20
2.6788
 30
0.0
 10
-21.2804
 20
2.6788
 30
0.0
 10
-21.2804
 20
2.6788
 30
0.0
 10
-21.305
 20
2.9604
 30
0.0
 10
-21.305
 20
2.9604
 30
0.0
 10
-21.305
 20
2.9604
 30
0.0
 10
-21.305
 20
2.9604
 30
0.0
 10
-20.9757
 20
2.9892
 30
0.0
 10
-20.9757
 20
2.9892
 30
0.0
 10
-20.9757
 20
2.9892
 30
0.0
 10
-20.9757
 20
2.9892
 30
0.0
 10
-20.587
 20
2.9609
 30
0.0
 10
-20.587
 20
2.9609
 30
0.0
 10
-20.587
 20
2.9609
 30
0.0
 10
-20.587
 20
2.9609
 30
0.0
 10
-20.5738
 20
2.81
 30
0.0
 10
-20.5738
 20
2.81
 30
0.0
  0
SPLINE
  5
7A
330
1F
100
AcDbEntity
  8
ROUND
 62
   250
100
AcDbSpline
210
0.0
220
0.0
230
1.0
 70
    11
 71
     3
 72
    28
 73
    24
 74
     0
 42
0.0000000001
 43
0.0000000001
 40
0.0
 40
0.0
 40
0.0
 40
0.0
 40
0.1428571428571428
 40
0.1428571428571428
 40
0.1428571428571428
 40
0.1428571428571428
 40
0.2857142857142857
 40
0.2857142857142857
 40
0.2857142857142857
 40
0.2857142857142857
 40
0.4285714285714285
 40
0.4285714285714285
 40
0.4285714285714285
 40
0.4285714285714285
 40
0.5714285714285714
 40
0.5714285714285714
 40
0.5714285714285714
 40
0.5714285714285714
 40
0.7142857142857143
 40
0.7142857142857143
 40
0.7142857142857143
 40
0.7142857142857143
 40
1.0
 40
1.0
 40
1.0
 40
1.0
 10
-20.6135
 20
3.2646
 30
0.0
 10
-20.6135
 20
3.2646
 30
0.0
 10
-20.991
 20
3.1635
 30
0.0
 10
-20.991
 20
3.1635
 30
0.0
 10
-20.991
 20
3.1635
 30
0.0
 10
-20.991
 20
3.1635
 30
0.0
 10
-21.3203
 20
3.1347
 30
0.0
 10
-21.3203
 20
3.1347
 30
0.0
 10
-21.3203
 20
3.1347
 30
0.0
 10
-21.3203
 20
3.1347
 30
0.0
 10
-21.3449
 20
3.4163
 30
0.0
 10
-21.3449
 20
3.4163
 30
0.0
 10
-21.3449
 20
3.4163
 30
0.0
 10
-21.3449
 20
3.4163
 30
0.0
 10
-21.0156
 20
3.4451
 30
0.0
 10
-21.0156
 20
3.4451
 30
0.0
 10
-21.0156
 20
3.4451
 30
0.0
 10
-21.0156
 20
3.4451
 30
0.0
 10
-20.6265
 20
3.4126
 30
0.0
 10
-20.6265
 20
3.4126
 30
0.0
 10
-20.6265
 20
3.4126
 30
0.0
 10
-20.6265
 20
3.4126
 30
0.0
 10
-20.6135
 20
3.2646
 30
0.0
 10
-20.6135
 20
3.2646
 30
0.0
  0
SPLINE
  5
7B
330
1F
100
AcDbEntity
  8
ROUND
 62
   250
100
AcDbSpline
210
0.0
220
0.0
230
1.0
 70
    11
 71
     3
 72
    20
 73
    16
 74
     0
 42
0.0000000001
 43
0.0000000001
 40
0.0
 40
0.0
 40
0.0
 40
0.0
 40
0.2
 40
0.2
 40
0.2
 40
0.2
 40
0.4
 40
0.4
 40
0.4
 40
0.4
 40
0.6
 40
0.6
 40
0.6
 40
0.6
 40
1.0
 40
1.0
 40
1.0
 40
1.0
 10
-18.0875
 20
-8.2265
 30
0.0
 10
-18.0875
 20
-8.2265
 30
0.0
 10
-17.929
 20
-5.2346
 30
0.0
 10
-17.929
 20
-5.2346
 30
0.0
 10
-17.929
 20
-5.2346
 30
0.0
 10
-17.929
 20
-5.2346
 30
0.0
 10
-17.8363
 20
-5.2265
 30
0.0
 10
-17.8363
 20
-5.2265
 30
0.0
 10
-17.8363
 20
-5.2265
 30
0.0
 10
-17.8363
 20
-5.2265
 30
0.0
 10
-17.1329
 20
-8.143
 30
0.0
 10
-17.1329
 20
-8.143
 30
0.0
 10
-17.1329
 20
-8.143
 30
0.0
 10
-17.1329
 20
-8.143
 30
0.0
 10
-18.0875
 20
-8.2265
 30
0.0
 10
-18.0875
 20
-8.2265
 30
0.0
  0
SPLINE
  5
7C
330
1F
100
AcDbEntity
  8
ROUND
 62
   250
100
AcDbSpline
210
0.0
220
0.0
230
1.0
 70
    11
 71
     3
 72
    20
 73
    16
 74
     0
 42
0.0000000001
 43
0.0000000001
 40
0.0
 40
0.0
 40
0.0
 40
0.0
 40
0.2
 40
0.2
 40
0.2
 40
0.2
 40
0.4
 40
0.4
 40
0.4
 40
0.4
 40
0.6
 40
0.6
 40
0.6
 40
0.6
 40
1.0
 40
1.0
 40
1.0
 40
1.0
 10
-18.4765
 20
6.8287
 30
0.0
 10
-18.4765
 20
6.8287
 30
0.0
 10
-18.635
 20
3.8368
 30
0.0
 10
-18.635
 20
3.8368
 30
0.0
 10
-18.635
 20
3.8368
 30
0.0
 10
-18.635
 20
3.8368
 30
0.0
 10
-18.7277
 20
3.8287
 30
0.0
 10
-18.7277
 20
3.8287
 30
0.0
 10
-18.7277
 20
3.8287
 30
0.0
 10
-18.7277
 20
3.8287
 30
0.0
 10
-19.4311
 20
6.7452
 30
0.0
 10
-19.4311
 20
6.7452
 30
0.0
 10
-19.4311
 20
6.7452
 30
0.0
 10
-19.4311
 20
6.7452
 30
0.0
 10
-18.4765
 20
6.8287
 30
0.0
 10
-18.4765
 20
6.8287
 30
0.0
  0
SPLINE
  5
7D
330
1F
100
AcDbEntity
  8
ROUND
  6
NEW_LINE7
 62
   250
100
AcDbSpline
210
0.0
220
0.0
230
1.0
 70
    24
 71
     3
 72
     8
 73
     4
 74
     0
 42
0.0000000001
 43
0.0000000001
 40
0.0
 40
0.0
 40
0.0
 40
0.0
 40
1.0
 40
1.0
 40
1.0
 40
1.0
 10
-18.6076
 20
-5.0983
 30
0.0
 10
-18.6076
 20
-5.0983
 30
0.0
 10
-16.8186
 20
-4.9418
 30
0.0
 10
-16.8186
 20
-4.9418
 30
0.0
  0
SPLINE
  5
7F
330
1F
100
AcDbEntity
  8
ROUND
  6
NEW_LINE8
 62
   250
100
AcDbSpline
210
0.0
220
0.0
230
1.0
 70
    24
 71
     3
 72
     8
 73
     4
 74
     0
 42
0.0000000001
 43
0.0000000001
 40
0.0
 40
0.0
 40
0.0
 40
0.0
 40
1.0
 40
1.0
 40
1.0
 40
1.0
 10
-19.1991
 20
3.6924
 30
0.0
 10
-19.1991
 20
3.6924
 30
0.0
 10
-17.6602
 20
3.827
 30
0.0
 10
-17.6602
 20
3.827
 30
0.0
  0
SPLINE
  5
81
330
1F
100
AcDbEntity
  8
ROUND
 62
   250
100
AcDbSpline
210
0.0
220
0.0
230
1.0
 70
     8
 71
     3
 72
    16
 73
    12
 74
     0
 42
0.0000000001
 43
0.0000000001
 40
0.0
 40
0.0
 40
0.0
 40
0.0
 40
0.25
 40
0.25
 40
0.25
 40
0.25
 40
0.5
 40
0.5
 40
0.5
 40
0.5
 40
1.0
 40
1.0
 40
1.0
 40
1.0
 10
-27.3595
 20
-6.2636
 30
0.0
 10
-27.3595
 20
-6.2636
 30
0.0
 10
-24.7651
 20
-6.0366
 30
0.0
 10
-24.7651
 20
-6.0366
 30
0.0
 10
-24.7651
 20
-6.0366
 30
0.0
 10
-24.7651
 20
-6.0366
 30
0.0
 10
-25.6525
 20
4.1947
 30
0.0
 10
-25.6525
 20
4.1947
 30
0.0
 10
-25.6525
 20
4.1947
 30
0.0
 10
-25.6525
 20
4.1947
 30
0.0
 10
-28.2812
 20
3.9647
 30
0.0
 10
-28.2812
 20
3.9647
 30
0.0
  0
SPLINE
  5
82
330
1F
100
AcDbEntity
  8
ROUND
 62
   250
100
AcDbSpline
210
0.0
220
0.0
230
1.0
 70
     8
 71
     3
 72
   124
 73
   120
 74
     0
 42
0.0000000001
 43
0.0000000001
 40
0.0
 40
0.0
 40
0.0
 40
0.0
 40
0.032258064516129
 40
0.032258064516129
 40
0.032258064516129
 40
0.032258064516129
 40
0.0645161290322581
 40
0.0645161290322581
 40
0.0645161290322581
 40
0.0645161290322581
 40
0.0967741935483871
 40
0.0967741935483871
 40
0.0967741935483871
 40
0.0967741935483871
 40
0.1290322580645161
 40
0.1290322580645161
 40
0.1290322580645161
 40
0.1290322580645161
 40
0.1612903225806452
 40
0.1612903225806452
 40
0.1612903225806452
 40
0.1612903225806452
 40
0.1935483870967742
 40
0.1935483870967742
 40
0.1935483870967742
 40
0.1935483870967742
 40
0.2258064516129032
 40
0.2258064516129032
 40
0.2258064516129032
 40
0.2258064516129032
 40
0.2580645161290323
 40
0.2580645161290323
 40
0.2580645161290323
 40
0.2580645161290323
 40
0.2903225806451613
 40
0.2903225806451613
 40
0.2903225806451613
 40
0.2903225806451613
 40
0.3225806451612903
 40
0.3225806451612903
 40
0.3225806451612903
 40
0.3225806451612903
 40
0.3548387096774194
 40
0.3548387096774194
 40
0.3548387096774194
 40
0.3548387096774194
 40
0.3870967741935484
 40
0.3870967741935484
 40
0.3870967741935484
 40
0.3870967741935484
 40
0.4193548387096774
 40
0.4193548387096774
 40
0.4193548387096774
 40
0.4193548387096774
 40
0.4516129032258064
 40
0.4516129032258064
 40
0.4516129032258064
 40
0.4516129032258064
 40
0.4838709677419355
 40
0.4838709677419355
 40
0.4838709677419355
 40
0.4838709677419355
 40
0.5161290322580645
 40
0.5161290322580645
 40
0.5161290322580645
 40
0.5161290322580645
 40
0.5483870967741935
 40
0.5483870967741935
 40
0.5483870967741935
 40
0.5483870967741935
 40
0.5806451612903226
 40
0.5806451612903226
 40
0.5806451612903226
 40
0.5806451612903226
 40
0.6129032258064516
 40
0.6129032258064516
 40
0.6129032258064516
 40
0.6129032258064516
 40
0.6451612903225806
 40
0.6451612903225806
 40
0.6451612903225806
 40
0.6451612903225806
 40
0.6774193548387096
 40
0.6774193548387096
 40
0.6774193548387096
 40
0.6774193548387096
 40
0.7096774193548387
 40
0.7096774193548387
 40
0.7096774193548387
 40
0.7096774193548387
 40
0.7419354838709677
 40
0.7419354838709677
 40
0.7419354838709677
 40
0.7419354838709677
 40
0.7741935483870968
 40
0.7741935483870968
 40
0.7741935483870968
 40
0.7741935483870968
 40
0.8064516129032258
 40
0.8064516129032258
 40
0.8064516129032258
 40
0.8064516129032258
 40
0.8387096774193549
 40
0.8387096774193549
 40
0.8387096774193549
 40
0.8387096774193549
 40
0.8709677419354839
 40
0.8709677419354839
 40
0.8709677419354839
 40
0.8709677419354839
 40
0.9032258064516129
 40
0.9032258064516129
 40
0.9032258064516129
 40
0.9032258064516129
 40
0.9354838709677419
 40
0.9354838709677419
 40
0.9354838709677419
 40
0.9354838709677419
 40
1.0
 40
1.0
 40
1.0
 40
1.0
 10
-27.8793
 20
3.9475
 30
0.0
 10
-27.8793
 20
3.9475
 30
0.0
 10
-26.2115
 20
4.0934
 30
0.0
 10
-26.2115
 20
4.0934
 30
0.0
 10
-26.2115
 20
4.0934
 30
0.0
 10
-26.2115
 20
4.0934
 30
0.0
 10
-26.1101
 20
2.9023
 30
0.0
 10
-26.1101
 20
2.9023
 30
0.0
 10
-26.1101
 20
2.9023
 30
0.0
 10
-26.1101
 20
2.9023
 30
0.0
 10
-27.8875
 20
2.7324
 30
0.0
 10
-27.8875
 20
2.7324
 30
0.0
 10
-27.8875
 20
2.7324
 30
0.0
 10
-27.8875
 20
2.7324
 30
0.0
 10
-28.0104
 20
2.6493
 30
0.0
 10
-28.0104
 20
2.6493
 30
0.0
 10
-28.0104
 20
2.6493
 30
0.0
 10
-28.0104
 20
2.6493
 30
0.0
 10
-28.1269
 20
2.4946
 30
0.0
 10
-28.1269
 20
2.4946
 30
0.0
 10
-28.1269
 20
2.4946
 30
0.0
 10
-28.1269
 20
2.4946
 30
0.0
 10
-28.1156
 20
2.3655
 30
0.0
 10
-28.1156
 20
2.3655
 30
0.0
 10
-28.1156
 20
2.3655
 30
0.0
 10
-28.1156
 20
2.3655
 30
0.0
 10
-28.0364
 20
2.2857
 30
0.0
 10
-28.0364
 20
2.2857
 30
0.0
 10
-28.0364
 20
2.2857
 30
0.0
 10
-28.0364
 20
2.2857
 30
0.0
 10
-27.9428
 20
2.2072
 30
0.0
 10
-27.9428
 20
2.2072
 30
0.0
 10
-27.9428
 20
2.2072
 30
0.0
 10
-27.9428
 20
2.2072
 30
0.0
 10
-27.7407
 20
2.2104
 30
0.0
 10
-27.7407
 20
2.2104
 30
0.0
 10
-27.7407
 20
2.2104
 30
0.0
 10
-27.7407
 20
2.2104
 30
0.0
 10
-26.0898
 20
2.3404
 30
0.0
 10
-26.0898
 20
2.3404
 30
0.0
 10
-26.0898
 20
2.3404
 30
0.0
 10
-26.0898
 20
2.3404
 30
0.0
 10
-25.8001
 20
-0.6407
 30
0.0
 10
-25.8001
 20
-0.6407
 30
0.0
 10
-25.8001
 20
-0.6407
 30
0.0
 10
-25.8001
 20
-0.6407
 30
0.0
 10
-27.4653
 20
-0.772
 30
0.0
 10
-27.4653
 20
-0.772
 30
0.0
 10
-27.4653
 20
-0.772
 30
0.0
 10
-27.4653
 20
-0.772
 30
0.0
 10
-27.6193
 20
-0.8288
 30
0.0
 10
-27.6193
 20
-0.8288
 30
0.0
 10
-27.6193
 20
-0.8288
 30
0.0
 10
-27.6193
 20
-0.8288
 30
0.0
 10
-27.7409
 20
-0.9262
 30
0.0
 10
-27.7409
 20
-0.9262
 30
0.0
 10
-27.7409
 20
-0.9262
 30
0.0
 10
-27.7409
 20
-0.9262
 30
0.0
 10
-27.8001
 20
-1.0759
 30
0.0
 10
-27.8001
 20
-1.0759
 30
0.0
 10
-27.8001
 20
-1.0759
 30
0.0
 10
-27.8001
 20
-1.0759
 30
0.0
 10
-27.785
 20
-1.248
 30
0.0
 10
-27.785
 20
-1.248
 30
0.0
 10
-27.785
 20
-1.248
 30
0.0
 10
-27.785
 20
-1.248
 30
0.0
 10
-27.7163
 20
-1.3721
 30
0.0
 10
-27.7163
 20
-1.3721
 30
0.0
 10
-27.7163
 20
-1.3721
 30
0.0
 10
-27.7163
 20
-1.3721
 30
0.0
 10
-27.5928
 20
-1.4625
 30
0.0
 10
-27.5928
 20
-1.4625
 30
0.0
 10
-27.5928
 20
-1.4625
 30
0.0
 10
-27.5928
 20
-1.4625
 30
0.0
 10
-27.4456
 20
-1.4929
 30
0.0
 10
-27.4456
 20
-1.4929
 30
0.0
 10
-27.4456
 20
-1.4929
 30
0.0
 10
-27.4456
 20
-1.4929
 30
0.0
 10
-25.7542
 20
-1.3305
 30
0.0
 10
-25.7542
 20
-1.3305
 30
0.0
 10
-25.7542
 20
-1.3305
 30
0.0
 10
-25.7542
 20
-1.3305
 30
0.0
 10
-25.4776
 20
-4.3272
 30
0.0
 10
-25.4776
 20
-4.3272
 30
0.0
 10
-25.4776
 20
-4.3272
 30
0.0
 10
-25.4776
 20
-4.3272
 30
0.0
 10
-27.2116
 20
-4.4827
 30
0.0
 10
-27.2116
 20
-4.4827
 30
0.0
 10
-27.2116
 20
-4.4827
 30
0.0
 10
-27.2116
 20
-4.4827
 30
0.0
 10
-27.3902
 20
-4.5528
 30
0.0
 10
-27.3902
 20
-4.5528
 30
0.0
 10
-27.3902
 20
-4.5528
 30
0.0
 10
-27.3902
 20
-4.5528
 30
0.0
 10
-27.4956
 20
-4.7144
 30
0.0
 10
-27.4956
 20
-4.7144
 30
0.0
 10
-27.4956
 20
-4.7144
 30
0.0
 10
-27.4956
 20
-4.7144
 30
0.0
 10
-27.4852
 20
-4.8333
 30
0.0
 10
-27.4852
 20
-4.8333
 30
0.0
 10
-27.4852
 20
-4.8333
 30
0.0
 10
-27.4852
 20
-4.8333
 30
0.0
 10
-27.4218
 20
-4.9366
 30
0.0
 10
-27.4218
 20
-4.9366
 30
0.0
 10
-27.4218
 20
-4.9366
 30
0.0
 10
-27.4218
 20
-4.9366
 30
0.0
 10
-27.2436
 20
-4.9863
 30
0.0
 10
-27.2436
 20
-4.9863
 30
0.0
 10
-27.2436
 20
-4.9863
 30
0.0
 10
-27.2436
 20
-4.9863
 30
0.0
 10
-27.123
 20
-4.9976
 30
0.0
 10
-27.123
 20
-4.9976
 30
0.0
 10
-27.123
 20
-4.9976
 30
0.0
 10
-27.123
 20
-4.9976
 30
0.0
 10
-25.4301
 20
-4.8495
 30
0.0
 10
-25.4301
 20
-4.8495
 30
0.0
 10
-25.4301
 20
-4.8495
 30
0.0
 10
-25.4301
 20
-4.8495
 30
0.0
 10
-25.3204
 20
-6.1029
 30
0.0
 10
-25.3204
 20
-6.1029
 30
0.0
  0
SPLINE
  5
83
330
1F
100
AcDbEntity
  8
ROUND
 62
   250
100
AcDbSpline
210
0.0
220
0.0
230
1.0
 70
     8
 71
     3
 72
    36
 73
    32
 74
     0
 42
0.0000000001
 43
0.0000000001
 40
0.0
 40
0.0
 40
0.0
 40
0.0
 40
0.1111111111111111
 40
0.1111111111111111
 40
0.1111111111111111
 40
0.1111111111111111
 40
0.2222222222222222
 40
0.2222222222222222
 40
0.2222222222222222
 40
0.2222222222222222
 40
0.3333333333333333
 40
0.3333333333333333
 40
0.3333333333333333
 40
0.3333333333333333
 40
0.4444444444444444
 40
0.4444444444444444
 40
0.4444444444444444
 40
0.4444444444444444
 40
0.5555555555555556
 40
0.5555555555555556
 40
0.5555555555555556
 40
0.5555555555555556
 40
0.6666666666666666
 40
0.6666666666666666
 40
0.6666666666666666
 40
0.6666666666666666
 40
0.7777777777777778
 40
0.7777777777777778
 40
0.7777777777777778
 40
0.7777777777777778
 40
1.0
 40
1.0
 40
1.0
 40
1.0
 10
-25.324
 20
-5.9943
 30
0.0
 10
-25.324
 20
-5.9943
 30
0.0
 10
-27.626
 20
-6.1937
 30
0.0
 10
-27.8307
 20
-6.2116
 30
0.0
 10
-27.8307
 20
-6.2116
 30
0.0
 10
-28.0354
 20
-6.2295
 30
0.0
 10
-28.2159
 20
-6.0777
 30
0.0
 10
-28.2338
 20
-5.8731
 30
0.0
 10
-28.2338
 20
-5.8731
 30
0.0
 10
-28.2517
 20
-5.6685
 30
0.0
 10
-29.0513
 20
3.3898
 30
0.0
 10
-29.0513
 20
3.3898
 30
0.0
 10
-29.0513
 20
3.3898
 30
0.0
 10
-29.0513
 20
3.3898
 30
0.0
 10
-29.011
 20
3.541
 30
0.0
 10
-29.011
 20
3.541
 30
0.0
 10
-29.011
 20
3.541
 30
0.0
 10
-29.011
 20
3.541
 30
0.0
 10
-28.9552
 20
3.6758
 30
0.0
 10
-28.9552
 20
3.6758
 30
0.0
 10
-28.9552
 20
3.6758
 30
0.0
 10
-28.9552
 20
3.6758
 30
0.0
 10
-28.8536
 20
3.7627
 30
0.0
 10
-28.8536
 20
3.7627
 30
0.0
 10
-28.8536
 20
3.7627
 30
0.0
 10
-28.8536
 20
3.7627
 30
0.0
 10
-28.7367
 20
3.7937
 30
0.0
 10
-28.7367
 20
3.7937
 30
0.0
 10
-28.7367
 20
3.7937
 30
0.0
 10
-28.7367
 20
3.7937
 30
0.0
 10
-26.1927
 20
4.0111
 30
0.0
 10
-26.1927
 20
4.0111
 30
0.0
  0
SPLINE
  5
84
330
1F
100
AcDbEntity
  8
ROUND
 62
   250
100
AcDbSpline
210
0.0
220
0.0
230
1.0
 70
    11
 71
     3
 72
    20
 73
    16
 74
     0
 42
0.0000000001
 43
0.0000000001
 40
0.0
 40
0.0
 40
0.0
 40
0.0
 40
0.2
 40
0.2
 40
0.2
 40
0.2
 40
0.4
 40
0.4
 40
0.4
 40
0.4
 40
0.6
 40
0.6
 40
0.6
 40
0.6
 40
1.0
 40
1.0
 40
1.0
 40
1.0
 10
-23.7741
 20
3.3168
 30
0.0
 10
-23.7741
 20
3.3168
 30
0.0
 10
-22.7207
 20
3.0254
 30
0.0
 10
-22.7207
 20
3.0254
 30
0.0
 10
-22.7207
 20
3.0254
 30
0.0
 10
-22.7207
 20
3.0254
 30
0.0
 10
-22.0577
 20
-4.3781
 30
0.0
 10
-22.0577
 20
-4.3781
 30
0.0
 10
-22.0577
 20
-4.3781
 30
0.0
 10
-22.0577
 20
-4.3781
 30
0.0
 10
-23.0632
 20
-4.8087
 30
0.0
 10
-23.0632
 20
-4.8087
 30
0.0
 10
-23.0632
 20
-4.8087
 30
0.0
 10
-23.0632
 20
-4.8087
 30
0.0
 10
-23.7741
 20
3.3168
 30
0.0
 10
-23.7741
 20
3.3168
 30
0.0
  0
SPLINE
  5
85
330
1F
100
AcDbEntity
  8
ROUND
 62
   250
100
AcDbSpline
210
0.0
220
0.0
230
1.0
 70
     8
 71
     3
 72
    52
 73
    48
 74
     0
 42
0.0000000001
 43
0.0000000001
 40
0.0
 40
0.0
 40
0.0
 40
0.0
 40
0.0769230769230769
 40
0.0769230769230769
 40
0.0769230769230769
 40
0.0769230769230769
 40
0.1538461538461539
 40
0.1538461538461539
 40
0.1538461538461539
 40
0.1538461538461539
 40
0.2307692307692308
 40
0.2307692307692308
 40
0.2307692307692308
 40
0.2307692307692308
 40
0.3076923076923077
 40
0.3076923076923077
 40
0.3076923076923077
 40
0.3076923076923077
 40
0.3846153846153846
 40
0.3846153846153846
 40
0.3846153846153846
 40
0.3846153846153846
 40
0.4615384615384616
 40
0.4615384615384616
 40
0.4615384615384616
 40
0.4615384615384616
 40
0.5384615384615384
 40
0.5384615384615384
 40
0.5384615384615384
 40
0.5384615384615384
 40
0.6153846153846154
 40
0.6153846153846154
 40
0.6153846153846154
 40
0.6153846153846154
 40
0.6923076923076923
 40
0.6923076923076923
 40
0.6923076923076923
 40
0.6923076923076923
 40
0.7692307692307693
 40
0.7692307692307693
 40
0.7692307692307693
 40
0.7692307692307693
 40
0.8461538461538461
 40
0.8461538461538461
 40
0.8461538461538461
 40
0.8461538461538461
 40
1.0
 40
1.0
 40
1.0
 40
1.0
 10
-12.221
 20
3.7344
 30
0.0
 10
-12.221
 20
3.7344
 30
0.0
 10
4.5646
 20
5.0756
 30
0.0
 10
4.5646
 20
5.0756
 30
0.0
 10
4.5646
 20
5.0756
 30
0.0
 10
4.5646
 20
5.0756
 30
0.0
 10
5.2669
 20
5.0799
 30
0.0
 10
5.2669
 20
5.0799
 30
0.0
 10
5.2669
 20
5.0799
 30
0.0
 10
5.2669
 20
5.0799
 30
0.0
 10
5.8602
 20
4.9638
 30
0.0
 10
5.8602
 20
4.9638
 30
0.0
 10
5.8602
 20
4.9638
 30
0.0
 10
5.8602
 20
4.9638
 30
0.0
 10
6.3295
 20
4.7334
 30
0.0
 10
6.3295
 20
4.7334
 30
0.0
 10
6.3295
 20
4.7334
 30
0.0
 10
6.3295
 20
4.7334
 30
0.0
 10
6.6993
 20
4.5579
 30
0.0
 10
6.6993
 20
4.5579
 30
0.0
 10
6.6993
 20
4.5579
 30
0.0
 10
6.6993
 20
4.5579
 30
0.0
 10
7.133
 20
4.2702
 30
0.0
 10
7.133
 20
4.2702
 30
0.0
 10
7.133
 20
4.2702
 30
0.0
 10
7.133
 20
4.2702
 30
0.0
 10
7.5538
 20
3.9018
 30
0.0
 10
7.5538
 20
3.9018
 30
0.0
 10
7.5538
 20
3.9018
 30
0.0
 10
7.5538
 20
3.9018
 30
0.0
 10
8.0158
 20
3.3936
 30
0.0
 10
8.0158
 20
3.3936
 30
0.0
 10
8.0158
 20
3.3936
 30
0.0
 10
8.0158
 20
3.3936
 30
0.0
 10
8.3392
 20
2.8161
 30
0.0
 10
8.3392
 20
2.8161
 30
0.0
 10
8.3392
 20
2.8161
 30
0.0
 10
8.3392
 20
2.8161
 30
0.0
 10
8.5009
 20
2.2155
 30
0.0
 10
8.5009
 20
2.2155
 30
0.0
 10
8.5009
 20
2.2155
 30
0.0
 10
8.5009
 20
2.2155
 30
0.0
 10
8.5933
 20
1.5918
 30
0.0
 10
8.5933
 20
1.5918
 30
0.0
 10
8.5933
 20
1.5918
 30
0.0
 10
8.5933
 20
1.5918
 30
0.0
 10
8.6164
 20
-2.1273
 30
0.0
 10
8.6164
 20
-2.1273
 30
0.0
  0
SPLINE
  5
86
330
1F
100
AcDbEntity
  8
ROUND
 62
   250
100
AcDbSpline
210
0.0
220
0.0
230
1.0
 70
     8
 71
     3
 72
    16
 73
    12
 74
     0
 42
0.0000000001
 43
0.0000000001
 40
0.0
 40
0.0
 40
0.0
 40
0.0
 40
0.25
 40
0.25
 40
0.25
 40
0.25
 40
0.5
 40
0.5
 40
0.5
 40
0.5
 40
1.0
 40
1.0
 40
1.0
 40
1.0
 10
-17.3426
 20
3.5684
 30
0.0
 10
-17.3426
 20
3.5684
 30
0.0
 10
-16.6301
 20
-4.5756
 30
0.0
 10
-16.6301
 20
-4.5756
 30
0.0
 10
-16.6301
 20
-4.5756
 30
0.0
 10
-16.6301
 20
-4.5756
 30
0.0
 10
-16.4255
 20
-4.5571
 30
0.0
 10
-16.4255
 20
-4.5571
 30
0.0
 10
-16.4255
 20
-4.5571
 30
0.0
 10
-16.4255
 20
-4.5571
 30
0.0
 10
-16.2403
 20
-4.8169
 30
0.0
 10
-16.2403
 20
-4.8169
 30
0.0
  0
SPLINE
  5
87
330
1F
100
AcDbEntity
  8
ROUND
 62
   250
100
AcDbSpline
210
0.0
220
0.0
230
1.0
 70
     8
 71
     3
 72
    44
 73
    40
 74
     0
 42
0.0000000001
 43
0.0000000001
 40
0.0
 40
0.0
 40
0.0
 40
0.0
 40
0.0909090909090909
 40
0.0909090909090909
 40
0.0909090909090909
 40
0.0909090909090909
 40
0.1818181818181818
 40
0.1818181818181818
 40
0.1818181818181818
 40
0.1818181818181818
 40
0.2727272727272727
 40
0.2727272727272727
 40
0.2727272727272727
 40
0.2727272727272727
 40
0.3636363636363636
 40
0.3636363636363636
 40
0.3636363636363636
 40
0.3636363636363636
 40
0.4545454545454545
 40
0.4545454545454545
 40
0.4545454545454545
 40
0.4545454545454545
 40
0.5454545454545454
 40
0.5454545454545454
 40
0.5454545454545454
 40
0.5454545454545454
 40
0.6363636363636364
 40
0.6363636363636364
 40
0.6363636363636364
 40
0.6363636363636364
 40
0.7272727272727273
 40
0.7272727272727273
 40
0.7272727272727273
 40
0.7272727272727273
 40
0.8181818181818182
 40
0.8181818181818182
 40
0.8181818181818182
 40
0.8181818181818182
 40
1.0
 40
1.0
 40
1.0
 40
1.0
 10
-16.2403
 20
-4.817
 30
0.0
 10
-16.2403
 20
-4.817
 30
0.0
 10
-16.2206
 20
-4.8445
 30
0.0
 10
-16.2206
 20
-4.8445
 30
0.0
 10
-16.2206
 20
-4.8445
 30
0.0
 10
-16.2206
 20
-4.8445
 30
0.0
 10
-13.6262
 20
-4.6256
 30
0.0
 10
-13.6262
 20
-4.6256
 30
0.0
 10
-13.6262
 20
-4.6256
 30
0.0
 10
-13.6262
 20
-4.6256
 30
0.0
 10
-13.476
 20
-4.2424
 30
0.0
 10
-13.476
 20
-4.2424
 30
0.0
 10
-13.476
 20
-4.2424
 30
0.0
 10
-13.476
 20
-4.2424
 30
0.0
 10
-13.5465
 20
-3.638
 30
0.0
 10
-13.5465
 20
-3.638
 30
0.0
 10
-13.5465
 20
-3.638
 30
0.0
 10
-13.5465
 20
-3.638
 30
0.0
 10
-14.1772
 20
3.8049
 30
0.0
 10
-14.1772
 20
3.8049
 30
0.0
 10
-14.1772
 20
3.8049
 30
0.0
 10
-14.1772
 20
3.8049
 30
0.0
 10
-14.4014
 20
4.1419
 30
0.0
 10
-14.4014
 20
4.1419
 30
0.0
 10
-14.4014
 20
4.1419
 30
0.0
 10
-14.4014
 20
4.1419
 30
0.0
 10
-16.9941
 20
3.8892
 30
0.0
 10
-16.9941
 20
3.8892
 30
0.0
 10
-16.9941
 20
3.8892
 30
0.0
 10
-16.9941
 20
3.8892
 30
0.0
 10
-17.0009
 20
3.8776
 30
0.0
 10
-17.0009
 20
3.8776
 30
0.0
 10
-17.0009
 20
3.8776
 30
0.0
 10
-17.0009
 20
3.8776
 30
0.0
 10
-17.1622
 20
3.6023
 30
0.0
 10
-17.1622
 20
3.6023
 30
0.0
 10
-17.1622
 20
3.6023
 30
0.0
 10
-17.1622
 20
3.6023
 30
0.0
 10
-17.3426
 20
3.5684
 30
0.0
 10
-17.3426
 20
3.5684
 30
0.0
  0
SPLINE
  5
88
330
1F
100
AcDbEntity
  8
ROUND
 62
   250
100
AcDbSpline
210
0.0
220
0.0
230
1.0
 70
     8
 71
     3
 72
    24
 73
    20
 74
     0
 42
0.0000000001
 43
0.0000000001
 40
0.0
 40
0.0
 40
0.0
 40
0.0
 40
0.1666666666666667
 40
0.1666666666666667
 40
0.1666666666666667
 40
0.1666666666666667
 40
0.3333333333333333
 40
0.3333333333333333
 40
0.3333333333333333
 40
0.3333333333333333
 40
0.5
 40
0.5
 40
0.5
 40
0.5
 40
0.6666666666666666
 40
0.6666666666666666
 40
0.6666666666666666
 40
0.6666666666666666
 40
1.0
 40
1.0
 40
1.0
 40
1.0
 10
-14.1775
 20
3.8416
 30
0.0
 10
-14.1775
 20
3.8416
 30
0.0
 10
-12.306
 20
4.0093
 30
0.0
 10
-12.306
 20
4.0093
 30
0.0
 10
-12.306
 20
4.0093
 30
0.0
 10
-12.306
 20
4.0093
 30
0.0
 10
-12.1915
 20
3.7873
 30
0.0
 10
-12.1915
 20
3.7873
 30
0.0
 10
-12.1915
 20
3.7873
 30
0.0
 10
-12.1915
 20
3.7873
 30
0.0
 10
-11.5193
 20
-3.8968
 30
0.0
 10
-11.5193
 20
-3.8968
 30
0.0
 10
-11.5193
 20
-3.8968
 30
0.0
 10
-11.5193
 20
-3.8968
 30
0.0
 10
-11.6213
 20
-4.1171
 30
0.0
 10
-11.6213
 20
-4.1171
 30
0.0
 10
-11.6213
 20
-4.1171
 30
0.0
 10
-11.6213
 20
-4.1171
 30
0.0
 10
-13.432
 20
-4.2848
 30
0.0
 10
-13.432
 20
-4.2848
 30
0.0
  0
SPLINE
  5
89
330
1F
100
AcDbEntity
  8
ROUND
 62
   250
100
AcDbSpline
210
0.0
220
0.0
230
1.0
 70
     8
 71
     3
 72
    20
 73
    16
 74
     0
 42
0.0000000001
 43
0.0000000001
 40
0.0
 40
0.0
 40
0.0
 40
0.0
 40
0.2
 40
0.2
 40
0.2
 40
0.2
 40
0.4
 40
0.4
 40
0.4
 40
0.4
 40
0.6
 40
0.6
 40
0.6
 40
0.6
 40
1.0
 40
1.0
 40
1.0
 40
1.0
 10
-11.4846
 20
-3.8534
 30
0.0
 10
-11.4846
 20
-3.8534
 30
0.0
 10
-2.2608
 20
-3.0307
 30
0.0
 10
-2.2608
 20
-3.0307
 30
0.0
 10
-2.2608
 20
-3.0307
 30
0.0
 10
-2.2608
 20
-3.0307
 30
0.0
 10
-0.0357
 20
-0.3775
 30
0.0
 10
-0.0357
 20
-0.3775
 30
0.0
 10
-0.0357
 20
-0.3775
 30
0.0
 10
-0.0357
 20
-0.3775
 30
0.0
 10
0.4436
 20
-0.1907
 30
0.0
 10
0.4436
 20
-0.1907
 30
0.0
 10
0.4436
 20
-0.1907
 30
0.0
 10
0.4436
 20
-0.1907
 30
0.0
 10
3.7454
 20
0.0494
 30
0.0
 10
3.7454
 20
0.0494
 30
0.0
  0
SPLINE
  5
8A
330
1F
100
AcDbEntity
  8
ROUND
 62
   250
100
AcDbSpline
210
0.0
220
0.0
230
1.0
 70
    11
 71
     3
 72
    28
 73
    24
 74
     0
 42
0.0000000001
 43
0.0000000001
 40
0.0
 40
0.0
 40
0.0
 40
0.0
 40
0.1428571428571428
 40
0.1428571428571428
 40
0.1428571428571428
 40
0.1428571428571428
 40
0.2857142857142857
 40
0.2857142857142857
 40
0.2857142857142857
 40
0.2857142857142857
 40
0.4285714285714285
 40
0.4285714285714285
 40
0.4285714285714285
 40
0.4285714285714285
 40
0.5714285714285714
 40
0.5714285714285714
 40
0.5714285714285714
 40
0.5714285714285714
 40
0.7142857142857143
 40
0.7142857142857143
 40
0.7142857142857143
 40
0.7142857142857143
 40
1.0
 40
1.0
 40
1.0
 40
1.0
 10
-17.0041
 20
3.9143
 30
0.0
 10
-17.0041
 20
3.9143
 30
0.0
 10
-17.0009
 20
3.8776
 30
0.0
 10
-17.0009
 20
3.8776
 30
0.0
 10
-17.0009
 20
3.8776
 30
0.0
 10
-17.0009
 20
3.8776
 30
0.0
 10
-16.2403
 20
-4.8169
 30
0.0
 10
-16.2403
 20
-4.8169
 30
0.0
 10
-16.2403
 20
-4.8169
 30
0.0
 10
-16.2403
 20
-4.8169
 30
0.0
 10
-16.2367
 20
-4.8576
 30
0.0
 10
-16.2367
 20
-4.8576
 30
0.0
 10
-16.2367
 20
-4.8576
 30
0.0
 10
-16.2367
 20
-4.8576
 30
0.0
 10
-16.2403
 20
-4.817
 30
0.0
 10
-16.2403
 20
-4.817
 30
0.0
 10
-16.2403
 20
-4.817
 30
0.0
 10
-16.2403
 20
-4.817
 30
0.0
 10
-17.0009
 20
3.8776
 30
0.0
 10
-17.0009
 20
3.8776
 30
0.0
 10
-17.0009
 20
3.8776
 30
0.0
 10
-17.0009
 20
3.8776
 30
0.0
 10
-17.0041
 20
3.9143
 30
0.0
 10
-17.0041
 20
3.9143
 30
0.0
  0
SPLINE
  5
8B
330
1F
100
AcDbEntity
  8
ROUND
 62
   250
100
AcDbSpline
210
0.0
220
0.0
230
1.0
 70
    24
 71
     3
 72
     8
 73
     4
 74
     0
 42
0.0000000001
 43
0.0000000001
 40
0.0
 40
0.0
 40
0.0
 40
0.0
 40
1.0
 40
1.0
 40
1.0
 40
1.0
 10
-13.8426
 20
-4.6153
 30
0.0
 10
-13.8426
 20
-4.6153
 30
0.0
 10
-14.7554
 20
4.1376
 30
0.0
 10
-14.7554
 20
4.1376
 30
0.0
  0
SPLINE
  5
8C
330
1F
100
AcDbEntity
  8
ROUND
 62
   250
100
AcDbSpline
210
0.0
220
0.0
230
1.0
 70
    24
 71
     3
 72
     8
 73
     4
 74
     0
 42
0.0000000001
 43
0.0000000001
 40
0.0
 40
0.0
 40
0.0
 40
0.0
 40
1.0
 40
1.0
 40
1.0
 40
1.0
 10
-14.2017
 20
-4.6666
 30
0.0
 10
-14.2017
 20
-4.6666
 30
0.0
 10
-15.1145
 20
4.0863
 30
0.0
 10
-15.1145
 20
4.0863
 30
0.0
  0
SPLINE
  5
8D
330
1F
100
AcDbEntity
  8
ROUND
 62
   250
100
AcDbSpline
210
0.0
220
0.0
230
1.0
 70
    24
 71
     3
 72
     8
 73
     4
 74
     0
 42
0.0000000001
 43
0.0000000001
 40
0.0
 40
0.0
 40
0.0
 40
0.0
 40
1.0
 40
1.0
 40
1.0
 40
1.0
 10
-14.6121
 20
-4.7692
 30
0.0
 10
-14.6121
 20
-4.7692
 30
0.0
 10
-15.5249
 20
3.9837
 30
0.0
 10
-15.5249
 20
3.9837
 30
0.0
  0
SPLINE
  5
8E
330
1F
100
AcDbEntity
  8
ROUND
 62
   250
100
AcDbSpline
210
0.0
220
0.0
230
1.0
 70
    24
 71
     3
 72
     8
 73
     4
 74
     0
 42
0.0000000001
 43
0.0000000001
 40
0.0
 40
0.0
 40
0.0
 40
0.0
 40
1.0
 40
1.0
 40
1.0
 40
1.0
 10
-15.0738
 20
-4.7521
 30
0.0
 10
-15.0738
 20
-4.7521
 30
0.0
 10
-15.9866
 20
4.0008
 30
0.0
 10
-15.9866
 20
4.0008
 30
0.0
  0
SPLINE
  5
8F
330
1F
100
AcDbEntity
  8
ROUND
 62
   250
100
AcDbSpline
210
0.0
220
0.0
230
1.0
 70
    24
 71
     3
 72
     8
 73
     4
 74
     0
 42
0.0000000001
 43
0.0000000001
 40
0.0
 40
0.0
 40
0.0
 40
0.0
 40
1.0
 40
1.0
 40
1.0
 40
1.0
 10
-15.5184
 20
-4.8034
 30
0.0
 10
-15.5184
 20
-4.8034
 30
0.0
 10
-16.4312
 20
3.9495
 30
0.0
 10
-16.4312
 20
3.9495
 30
0.0
  0
SPLINE
  5
90
330
1F
100
AcDbEntity
  8
ROUND
 62
   250
100
AcDbSpline
210
0.0
220
0.0
230
1.0
 70
    24
 71
     3
 72
     8
 73
     4
 74
     0
 42
0.0000000001
 43
0.0000000001
 40
0.0
 40
0.0
 40
0.0
 40
0.0
 40
1.0
 40
1.0
 40
1.0
 40
1.0
 10
-15.9288
 20
-4.8376
 30
0.0
 10
-15.9288
 20
-4.8376
 30
0.0
 10
-16.8416
 20
3.9153
 30
0.0
 10
-16.8416
 20
3.9153
 30
0.0
  0
ENDSEC
  0
SECTION
  2
OBJECTS
  0
DICTIONARY
  5
C
330
0
100
AcDbDictionary
  3
ACAD_GROUP
350
D
  3
ACAD_LAYOUT
350
1A
  3
ACAD_MATERIAL
350
3B
  3
ACAD_MLEADERSTYLE
350
B3
  3
ACAD_MLINESTYLE
350
17
  3
ACAD_PLOTSETTINGS
350
19
  3
ACAD_VISUALSTYLE
350
2A
  3
ACDBHEADERROUNDTRIPXREC
350
91
  3
ACDBVARIABLEDICTIONARY
350
B1
  0
DICTIONARY
  5
D
102
{ACAD_REACTORS
330
C
102
}
330
C
100
AcDbDictionary
  0
DICTIONARY
  5
1A
102
{ACAD_REACTORS
330
C
102
}
330
C
100
AcDbDictionary
  0
DICTIONARY
  5
3B
102
{ACAD_REACTORS
330
C
102
}
330
C
100
AcDbDictionary
  3
BYBLOCK
350
3D
  3
BYLAYER
350
3C
  3
GLOBAL
350
3E
  0
DICTIONARY
  5
B3
102
{ACAD_REACTORS
330
C
102
}
330
C
100
AcDbDictionary
  0
DICTIONARY
  5
17
102
{ACAD_REACTORS
330
C
102
}
330
C
100
AcDbDictionary
  3
STANDARD
350
18
  0
DICTIONARY
  5
19
102
{ACAD_REACTORS
330
C
102
}
330
C
100
AcDbDictionary
  0
DICTIONARY
  5
2A
102
{ACAD_REACTORS
330
C
102
}
330
C
100
AcDbDictionary
  3
2DWIREFRAME
350
2F
  3
3D_HIDDEN
350
31
  3
3DWIREFRAME
350
30
  3
BASIC
350
32
  3
BRIGHTEN
350
36
  3
COLORCHANGE
350
3A
  3
CONCEPTUAL
350
34
  3
DIM
350
35
  3
FACEPATTERN
350
39
  3
FLAT
350
2B
  3
FLATWITHEDGES
350
2C
  3
GOURAUD
350
2D
  3
GOURAUDWITHEDGES
350
2E
  3
LINEPATTERN
350
38
  3
REALISTIC
350
33
  3
THICKEN
350
37
  0
DICTIONARY
  5
91
102
{ACAD_REACTORS
330
C
102
}
330
C
100
AcDbDictionary
  3
CEPSNTYPE
350
9A
  3
DIMSTYLEDATA
350
B0
  3
FINGERPRINTGUID
350
9B
  3
HYPERLINKBASE
350
94
  3
INSUNITS
350
99
  3
LAYOUTDICT
350
96
  3
LWETCUNION
350
98
  3
PLOTSETDICT
350
97
  3
PSVPSCALE
350
9D
  3
PUCSBASE
350
A0
  3
PUCSORGBACK
350
A6
  3
PUCSORGBOTTOM
350
A2
  3
PUCSORGFRONT
350
A5
  3
PUCSORGLEFT
350
A3
  3
PUCSORGRIGHT
350
A4
  3
PUCSORGTOP
350
A1
  3
PUCSORTHOREF
350
9E
  3
PUCSORTHOVIEW
350
9F
  3
STYLESHEET
350
95
  3
TSTACKALIGN
350
92
  3
TSTACKSIZE
350
93
  3
UCSBASE
350
A9
  3
UCSORGBACK
350
AF
  3
UCSORGBOTTOM
350
AB
  3
UCSORGFRONT
350
AE
  3
UCSORGLEFT
350
AC
  3
UCSORGRIGHT
350
AD
  3
UCSORGTOP
350
AA
  3
UCSORTHOREF
350
A7
  3
UCSORTHOVIEW
350
A8
  3
VERSIONGUID
350
9C
  0
DICTIONARY
  5
B1
102
{ACAD_REACTORS
330
C
102
}
330
C
100
AcDbDictionary
  3
DIMASSOC
350
B4
  3
HIDETEXT
350
B5
  0
MATERIAL
  5
3D
102
{ACAD_REACTORS
330
3B
102
}
102
{ACAD_XDICTIONARY
360
B8
102
}
330
3B
100
AcDbMaterial
  1
ByBlock
  0
MATERIAL
  5
3C
102
{ACAD_REACTORS
330
3B
102
}
102
{ACAD_XDICTIONARY
360
B6
102
}
330
3B
100
AcDbMaterial
  1
ByLayer
  0
MATERIAL
  5
3E
102
{ACAD_REACTORS
330
3B
102
}
102
{ACAD_XDICTIONARY
360
BA
102
}
330
3B
100
AcDbMaterial
  1
Global
  0
MLINESTYLE
  5
18
102
{ACAD_REACTORS
330
17
102
}
330
17
100
AcDbMlineStyle
  2
Standard
 70
     0
  3

 62
   256
 51
90.0
 52
90.0
 71
     2
 49
0.5
 62
   256
  6
BYLAYER
 49
-0.5
 62
   256
  6
BYLAYER
  0
ACAD_PROXY_OBJECT
  5
2F
102
{ACAD_REACTORS
330
2A
102
}
330
2A
100
AcDbProxyObject
 90
      499
 91
      501
 93
      436
310
42CC9915DA5C99599C985B595049028333333333333E3BF0000000000000FB0107901411070040501600405405064090741402480A0340
1001
ACAD
1000
AcDbSavedByObjectVersion
1070
     0
  0
ACAD_PROXY_OBJECT
  5
31
102
{ACAD_REACTORS
330
2A
102
}
330
2A
100
AcDbProxyObject
 90
      499
 91
      501
 93
      500
310
424CD108121A5919195B90640502408333333333333E3BF0000000000000FB01079024090700405020000000000001110200405405064090740C02480A0340
1001
ACAD
1000
AcDbSavedByObjectVersion
1070
     0
  0
ACAD_PROXY_OBJECT
  5
30
102
{ACAD_REACTORS
330
2A
102
}
330
2A
100
AcDbProxyObject
 90
      499
 91
      501
 93
      436
310
42CCD915DA5C99599C985B595059028333333333333E3BF0000000000000FB0107901411070040501600405405064090741402480A0340
1001
ACAD
1000
AcDbSavedByObjectVersion
1070
     0
  0
ACAD_PROXY_OBJECT
  5
32
102
{ACAD_REACTORS
330
2A
102
}
330
2A
100
AcDbProxyObject
 90
      499
 91
      501
 93
      388
310
4150985CDA58D07406404333333333333E3BF0000000000000FB0107A41107004050150841D405064090741402480A0350
1001
ACAD
1000
AcDbSavedByObjectVersion
1070
     0
  0
ACAD_PROXY_OBJECT
  5
36
102
{ACAD_REACTORS
330
2A
102
}
330
2A
100
AcDbProxyObject
 90
      499
 91
      501
 93
      428
310
42109C9A59DA1D195B90C409028333333333333E3BF0000000000000FB010790141107004050150841D405064090741402480A029950
1001
ACAD
1000
AcDbSavedByObjectVersion
1070
     0
  0
ACAD_PROXY_OBJECT
  5
3A
102
{ACAD_REACTORS
330
2A
102
}
330
2A
100
AcDbProxyObject
 90
      499
 91
      501
 93
      452
310
42D0DBDB1BDC90DA185B99D95104090240C333333333333E3BF0000000000000FB0108901411070040501508421405064090741402480A0350
1001
ACAD
1000
AcDbSavedByObjectVersion
1070
     0
  0
ACAD_PROXY_OBJECT
  5
34
102
{ACAD_REACTORS
330
2A
102
}
330
2A
100
AcDbProxyObject
 90
      499
 91
      501
 93
      500
310
4290DBDB98D95C1D1D585B10940D028333333333333E3BF0000000000000FB0107902409070040501000000000000111010841D405064090740C02480A0340
1001
ACAD
1000
AcDbSavedByObjectVersion
1070
     0
  0
ACAD_PROXY_OBJECT
  5
35
102
{ACAD_REACTORS
330
2A
102
}
330
2A
100
AcDbProxyObject
 90
      499
 91
      501
 93
      412
310
40D11A5B50B409028333333333333E3BF0000000000000FB010790141107004050150841D405064090741402480A02677FFFFFD0
1001
ACAD
1000
AcDbSavedByObjectVersion
1070
     0
  0
ACAD_PROXY_OBJECT
  5
39
102
{ACAD_REACTORS
330
2A
102
}
330
2A
100
AcDbProxyObject
 90
      499
 91
      501
 93
      444
310
42D19858D95C185D1D195C9B90F409028333333333333E3BF0000000000000FB010790141107004050150841D405064090741402480A0350
1001
ACAD
1000
AcDbSavedByObjectVersion
1070
     0
  0
ACAD_PROXY_OBJECT
  5
2B
102
{ACAD_REACTORS
330
2A
102
}
330
2A
100
AcDbProxyObject
 90
      499
 91
      501
 93
      388
310
41119B185D240901404333333333333E3BF0000000000000F9010740A41107004050150841D405064090741402480A1B50
1001
ACAD
1000
AcDbSavedByObjectVersion
1070
     0
  0
ACAD_PROXY_OBJECT
  5
2C
102
{ACAD_REACTORS
330
2A
102
}
330
2A
100
AcDbProxyObject
 90
      499
 91
      501
 93
      476
310
43519B185D15DA5D1A115919D95CD0140901404333333333333E3BF0000000000000F9010740901411070040501600405405064090741402480A1B50
1001
ACAD
1000
AcDbSavedByObjectVersion
1070
     0
  0
ACAD_PROXY_OBJECT
  5
2D
102
{ACAD_REACTORS
330
2A
102
}
330
2A
100
AcDbProxyObject
 90
      499
 91
      501
 93
      412
310
41D1DBDD5C985D5910240902404333333333333E3BF0000000000000F9010740A411070040501641D405064090741402480A1B50
1001
ACAD
1000
AcDbSavedByObjectVersion
1070
     0
  0
ACAD_PROXY_OBJECT
  5
2E
102
{ACAD_REACTORS
330
2A
102
}
330
2A
100
AcDbProxyObject
 90
      499
 91
      501
 93
      500
310
4411DBDD5C985D5915DA5D1A115919D95CD0340902404333333333333E3BF0000000000000F9010740901411070040501600405405064090741402480A1B50
1001
ACAD
1000
AcDbSavedByObjectVersion
1070
     0
  0
ACAD_PROXY_OBJECT
  5
38
102
{ACAD_REACTORS
330
2A
102
}
330
2A
100
AcDbProxyObject
 90
      499
 91
      501
 93
      444
310
42D31A5B995C185D1D195C9B90E409028333333333333E3BF0000000000000FB010790141107004050750841D405064090741402483A0350
1001
ACAD
1000
AcDbSavedByObjectVersion
1070
     0
  0
ACAD_PROXY_OBJECT
  5
33
102
{ACAD_REACTORS
330
2A
102
}
330
2A
100
AcDbProxyObject
 90
      499
 91
      501
 93
      420
310
425499585B1A5CDD1A58D08409028333333333333E3BF0000000000000FB01079019070040501508421405064090741402480A1B40
1001
ACAD
1000
AcDbSavedByObjectVersion
1070
     0
  0
ACAD_PROXY_OBJECT
  5
37
102
{ACAD_REACTORS
330
2A
102
}
330
2A
100
AcDbProxyObject
 90
      499
 91
      501
 93
      412
310
41D51A1A58DAD95B90D409028333333333333E3BF0000000000000FB010790141107004050150C41D405064090741402480A0350
1001
ACAD
1000
AcDbSavedByObjectVersion
1070
     0
  0
XRECORD
  5
9A
102
{ACAD_REACTORS
330
91
102
}
330
91
100
AcDbXrecord
 90
        0
  0
XRECORD
  5
B0
102
{ACAD_REACTORS
330
91
102
}
330
91
100
AcDbXrecord
1000
DSTYLE
1002
{
1070
   340
340
11
1002
}
  0
XRECORD
  5
9B
102
{ACAD_REACTORS
330
91
102
}
330
91
100
AcDbXrecord
  1
{FC1B8904-A393-4E43-84BD-6243C0512EF3}
  0
XRECORD
  5
94
102
{ACAD_REACTORS
330
91
102
}
330
91
100
AcDbXrecord
  1

  0
XRECORD
  5
99
102
{ACAD_REACTORS
330
91
102
}
330
91
100
AcDbXrecord
 90
        4
  0
XRECORD
  5
96
102
{ACAD_REACTORS
330
91
102
}
330
91
100
AcDbXrecord
340
1A
  0
XRECORD
  5
98
102
{ACAD_REACTORS
330
91
102
}
330
91
100
AcDbXrecord
 90
    10781
  0
XRECORD
  5
97
102
{ACAD_REACTORS
330
91
102
}
330
91
100
AcDbXrecord
340
19
  0
XRECORD
  5
9D
102
{ACAD_REACTORS
330
91
102
}
330
91
100
AcDbXrecord
 40
0.0
  0
XRECORD
  5
A0
102
{ACAD_REACTORS
330
91
102
}
330
91
100
AcDbXrecord
340
0
  0
XRECORD
  5
A6
102
{ACAD_REACTORS
330
91
102
}
330
91
100
AcDbXrecord
 10
0.0
 20
0.0
 30
0.0
  0
XRECORD
  5
A2
102
{ACAD_REACTORS
330
91
102
}
330
91
100
AcDbXrecord
 10
0.0
 20
0.0
 30
0.0
  0
XRECORD
  5
A5
102
{ACAD_REACTORS
330
91
102
}
330
91
100
AcDbXrecord
 10
0.0
 20
0.0
 30
0.0
  0
XRECORD
  5
A3
102
{ACAD_REACTORS
330
91
102
}
330
91
100
AcDbXrecord
 10
0.0
 20
0.0
 30
0.0
  0
XRECORD
  5
A4
102
{ACAD_REACTORS
330
91
102
}
330
91
100
AcDbXrecord
 10
0.0
 20
0.0
 30
0.0
  0
XRECORD
  5
A1
102
{ACAD_REACTORS
330
91
102
}
330
91
100
AcDbXrecord
 10
0.0
 20
0.0
 30
0.0
  0
XRECORD
  5
9E
102
{ACAD_REACTORS
330
91
102
}
330
91
100
AcDbXrecord
340
0
  0
XRECORD
  5
9F
102
{ACAD_REACTORS
330
91
102
}
330
91
100
AcDbXrecord
 70
     0
  0
XRECORD
  5
95
102
{ACAD_REACTORS
330
91
102
}
330
91
100
AcDbXrecord
  1

  0
XRECORD
  5
92
102
{ACAD_REACTORS
330
91
102
}
330
91
100
AcDbXrecord
 90
        1
  0
XRECORD
  5
93
102
{ACAD_REACTORS
330
91
102
}
330
91
100
AcDbXrecord
 90
       70
  0
XRECORD
  5
A9
102
{ACAD_REACTORS
330
91
102
}
330
91
100
AcDbXrecord
340
0
  0
XRECORD
  5
AF
102
{ACAD_REACTORS
330
91
102
}
330
91
100
AcDbXrecord
 10
0.0
 20
0.0
 30
0.0
  0
XRECORD
  5
AB
102
{ACAD_REACTORS
330
91
102
}
330
91
100
AcDbXrecord
 10
0.0
 20
0.0
 30
0.0
  0
XRECORD
  5
AE
102
{ACAD_REACTORS
330
91
102
}
330
91
100
AcDbXrecord
 10
0.0
 20
0.0
 30
0.0
  0
XRECORD
  5
AC
102
{ACAD_REACTORS
330
91
102
}
330
91
100
AcDbXrecord
 10
0.0
 20
0.0
 30
0.0
  0
XRECORD
  5
AD
102
{ACAD_REACTORS
330
91
102
}
330
91
100
AcDbXrecord
 10
0.0
 20
0.0
 30
0.0
  0
XRECORD
  5
AA
102
{ACAD_REACTORS
330
91
102
}
330
91
100
AcDbXrecord
 10
0.0
 20
0.0
 30
0.0
  0
XRECORD
  5
A7
102
{ACAD_REACTORS
330
91
102
}
330
91
100
AcDbXrecord
340
0
  0
XRECORD
  5
A8
102
{ACAD_REACTORS
330
91
102
}
330
91
100
AcDbXrecord
 70
     0
  0
XRECORD
  5
9C
102
{ACAD_REACTORS
330
91
102
}
330
91
100
AcDbXrecord
  1
{FAEB1C32-E019-11D5-929B-00C0DF256EC4}
  0
DICTIONARYVAR
  5
B4
102
{ACAD_REACTORS
330
B1
102
}
330
B1
100
DictionaryVariables
280
     0
  1
2
  0
DICTIONARYVAR
  5
B5
102
{ACAD_REACTORS
330
B1
102
}
330
B1
100
DictionaryVariables
280
     0
  1
1
  0
DICTIONARY
  5
B8
330
3D
100
AcDbDictionary
280
     1
  3
ACAD_XREC_ROUNDTRIP
360
B9
  0
DICTIONARY
  5
B6
330
3C
100
AcDbDictionary
280
     1
  3
ACAD_XREC_ROUNDTRIP
360
B7
  0
DICTIONARY
  5
BA
330
3E
100
AcDbDictionary
280
     1
  3
ACAD_XREC_ROUNDTRIP
360
BB
  0
XRECORD
  5
B9
102
{ACAD_REACTORS
330
B8
102
}
330
B8
100
AcDbXrecord
102
MATERIAL
148
0.0
149
0.0
149
0.0
 93
        0
 94
      127
282
     0
 72
     1
 77
     1
171
     1
175
     1
179
     1
273
     0
  0
XRECORD
  5
B7
102
{ACAD_REACTORS
330
B6
102
}
330
B6
100
AcDbXrecord
102
MATERIAL
148
0.0
149
0.0
149
0.0
 93
        0
 94
      127
282
     0
 72
     1
 77
     1
171
     1
175
     1
179
     1
273
     0
  0
XRECORD
  5
BB
102
{ACAD_REACTORS
330
BA
102
}
330
BA
100
AcDbXrecord
102
MATERIAL
148
0.0
149
0.0
149
0.0
 93
        0
 94
      127
282
     0
 72
     1
 77
     1
171
     1
175
     1
179
     1
273
     0
  0
ENDSEC
  0
EOF
