  0
SECTION
  2
HEADER
  9
$ACADVER
  1
AC1014
  9
$ACADMAINTVER
 70
     9
  9
$DWGCODEPAGE
  3
ANSI_1250
  9
$INSBASE
 10
0.0
 20
0.0
 30
0.0
  9
$EXTMIN
 10
-12.5086
 20
-26.0784
 30
0.0
  9
$EXTMAX
 10
12.5086
 20
25.978
 30
0.0
  9
$LIMMIN
 10
0.0
 20
0.0
  9
$LIMMAX
 10
12.0
 20
9.0
  9
$ORTHOMODE
 70
     0
  9
$REGENMODE
 70
     1
  9
$FILLMODE
 70
     1
  9
$QTEXTMODE
 70
     0
  9
$MIRRTEXT
 70
     1
  9
$DRAGMODE
 70
     2
  9
$LTSCALE
 40
1.0
  9
$OSMODE
 70
    37
  9
$ATTMODE
 70
     1
  9
$TEXTSIZE
 40
0.2
  9
$TRACEWID
 40
0.05
  9
$TEXTSTYLE
  7
STANDARD
  9
$CLAYER
  8
0
  9
$CELTYPE
  6
BYLAYER
  9
$CECOLOR
 62
   256
  9
$CELTSCALE
 40
1.0
  9
$DELOBJ
 70
     1
  9
$DISPSILH
 70
     0
  9
$DIMSCALE
 40
1.0
  9
$DIMASZ
 40
0.18
  9
$DIMEXO
 40
0.0625
  9
$DIMDLI
 40
0.38
  9
$DIMRND
 40
0.0
  9
$DIMDLE
 40
0.0
  9
$DIMEXE
 40
0.18
  9
$DIMTP
 40
0.0
  9
$DIMTM
 40
0.0
  9
$DIMTXT
 40
0.18
  9
$DIMCEN
 40
0.09
  9
$DIMTSZ
 40
0.0
  9
$DIMTOL
 70
     0
  9
$DIMLIM
 70
     0
  9
$DIMTIH
 70
     1
  9
$DIMTOH
 70
     1
  9
$DIMSE1
 70
     0
  9
$DIMSE2
 70
     0
  9
$DIMTAD
 70
     0
  9
$DIMZIN
 70
     0
  9
$DIMBLK
  1

  9
$DIMASO
 70
     1
  9
$DIMSHO
 70
     1
  9
$DIMPOST
  1

  9
$DIMAPOST
  1

  9
$DIMALT
 70
     0
  9
$DIMALTD
 70
     2
  9
$DIMALTF
 40
25.4
  9
$DIMLFAC
 40
1.0
  9
$DIMTOFL
 70
     0
  9
$DIMTVP
 40
0.0
  9
$DIMTIX
 70
     0
  9
$DIMSOXD
 70
     0
  9
$DIMSAH
 70
     0
  9
$DIMBLK1
  1

  9
$DIMBLK2
  1

  9
$DIMSTYLE
  2
STANDARD
  9
$DIMCLRD
 70
     0
  9
$DIMCLRE
 70
     0
  9
$DIMCLRT
 70
     0
  9
$DIMTFAC
 40
1.0
  9
$DIMGAP
 40
0.09
  9
$DIMJUST
 70
     0
  9
$DIMSD1
 70
     0
  9
$DIMSD2
 70
     0
  9
$DIMTOLJ
 70
     1
  9
$DIMTZIN
 70
     0
  9
$DIMALTZ
 70
     0
  9
$DIMALTTZ
 70
     0
  9
$DIMFIT
 70
     3
  9
$DIMUPT
 70
     0
  9
$DIMUNIT
 70
     2
  9
$DIMDEC
 70
     4
  9
$DIMTDEC
 70
     4
  9
$DIMALTU
 70
     2
  9
$DIMALTTD
 70
     2
  9
$DIMTXSTY
  7
STANDARD
  9
$DIMAUNIT
 70
     0
  9
$LUNITS
 70
     2
  9
$LUPREC
 70
     4
  9
$SKETCHINC
 40
0.1
  9
$FILLETRAD
 40
0.5
  9
$AUNITS
 70
     0
  9
$AUPREC
 70
     0
  9
$MENU
  1
.
  9
$ELEVATION
 40
0.0
  9
$PELEVATION
 40
0.0
  9
$THICKNESS
 40
0.0
  9
$LIMCHECK
 70
     0
  9
$CHAMFERA
 40
0.5
  9
$CHAMFERB
 40
0.5
  9
$CHAMFERC
 40
1.0
  9
$CHAMFERD
 40
0.0
  9
$SKPOLY
 70
     0
  9
$TDCREATE
 40
2456268.576645428
  9
$TDUPDATE
 40
2456268.57664544
  9
$TDINDWG
 40
0.0000000116
  9
$TDUSRTIMER
 40
0.0000000116
  9
$USRTIMER
 70
     1
  9
$ANGBASE
 50
0.0
  9
$ANGDIR
 70
     0
  9
$PDMODE
 70
     0
  9
$PDSIZE
 40
0.0
  9
$PLINEWID
 40
0.0
  9
$COORDS
 70
     1
  9
$SPLFRAME
 70
     0
  9
$SPLINETYPE
 70
     6
  9
$SPLINESEGS
 70
     8
  9
$ATTDIA
 70
     0
  9
$ATTREQ
 70
     1
  9
$HANDLING
 70
     1
  9
$HANDSEED
  5
270
  9
$SURFTAB1
 70
     6
  9
$SURFTAB2
 70
     6
  9
$SURFTYPE
 70
     6
  9
$SURFU
 70
     6
  9
$SURFV
 70
     6
  9
$UCSNAME
  2

  9
$UCSORG
 10
0.0
 20
0.0
 30
0.0
  9
$UCSXDIR
 10
1.0
 20
0.0
 30
0.0
  9
$UCSYDIR
 10
0.0
 20
1.0
 30
0.0
  9
$PUCSNAME
  2

  9
$PUCSORG
 10
0.0
 20
0.0
 30
0.0
  9
$PUCSXDIR
 10
1.0
 20
0.0
 30
0.0
  9
$PUCSYDIR
 10
0.0
 20
1.0
 30
0.0
  9
$USERI1
 70
     0
  9
$USERI2
 70
     0
  9
$USERI3
 70
     0
  9
$USERI4
 70
     0
  9
$USERI5
 70
     0
  9
$USERR1
 40
0.0
  9
$USERR2
 40
0.0
  9
$USERR3
 40
0.0
  9
$USERR4
 40
0.0
  9
$USERR5
 40
0.0
  9
$WORLDVIEW
 70
     1
  9
$SHADEDGE
 70
     3
  9
$SHADEDIF
 70
    70
  9
$TILEMODE
 70
     1
  9
$MAXACTVP
 70
    64
  9
$PINSBASE
 10
0.0
 20
0.0
 30
0.0
  9
$PLIMCHECK
 70
     0
  9
$PEXTMIN
 10
1.000000000000000E+20
 20
1.000000000000000E+20
 30
1.000000000000000E+20
  9
$PEXTMAX
 10
-1.000000000000000E+20
 20
-1.000000000000000E+20
 30
-1.000000000000000E+20
  9
$PLIMMIN
 10
0.0
 20
0.0
  9
$PLIMMAX
 10
12.0
 20
9.0
  9
$UNITMODE
 70
     0
  9
$VISRETAIN
 70
     1
  9
$PLINEGEN
 70
     0
  9
$PSLTSCALE
 70
     1
  9
$TREEDEPTH
 70
  3020
  9
$PICKSTYLE
 70
     1
  9
$CMLSTYLE
  2
STANDARD
  9
$CMLJUST
 70
     0
  9
$CMLSCALE
 40
1.0
  9
$PROXYGRAPHICS
 70
     1
  9
$MEASUREMENT
 70
     0
  0
ENDSEC
  0
SECTION
  2
CLASSES
  0
CLASS
  1
ACDBDICTIONARYWDFLT
  2
AcDbDictionaryWithDefault
  3
ObjectDBX Classes
 90
        0
280
     0
281
     0
  0
CLASS
  1
VISUALSTYLE
  2
AcDbVisualStyle
  3
ObjectDBX Classes
 90
     4095
280
     0
281
     0
  0
CLASS
  1
MATERIAL
  2
AcDbMaterial
  3
ObjectDBX Classes
 90
     1153
280
     0
281
     0
  0
CLASS
  1
DICTIONARYVAR
  2
AcDbDictionaryVar
  3
ObjectDBX Classes
 90
        0
280
     0
281
     0
  0
CLASS
  1
XRECORD
  2
AcDbXrecord
  3
AutoCAD 2000
 90
        0
280
     0
281
     0
  0
CLASS
  1
LWPOLYLINE
  2
AcDbPolyline
  3
AutoCAD 2000
 90
        0
280
     0
281
     1
  0
CLASS
  1
HATCH
  2
AcDbHatch
  3
AutoCAD 2000
 90
        0
280
     0
281
     1
  0
CLASS
  1
ACDBPLACEHOLDER
  2
AcDbPlaceHolder
  3
ObjectDBX Classes
 90
        0
280
     0
281
     0
  0
CLASS
  1
LAYOUT
  2
AcDbLayout
  3
ObjectDBX Classes
 90
        0
280
     0
281
     0
  0
ENDSEC
  0
SECTION
  2
TABLES
  0
TABLE
  2
VPORT
  5
8
330
0
100
AcDbSymbolTable
 70
     1
  0
VPORT
  5
29
330
8
100
AcDbSymbolTableRecord
100
AcDbViewportTableRecord
  2
*ACTIVE
 70
     0
 10
0.0
 20
0.0
 11
1.0
 21
1.0
 12
10.42990654205607
 22
4.5
 13
0.0
 23
0.0
 14
0.5
 24
0.5
 15
0.5
 25
0.5
 16
0.0
 26
0.0
 36
1.0
 17
0.0
 27
0.0
 37
0.0
 40
9.0
 41
1.972972972850329
 42
50.0
 43
0.0
 44
0.0
 50
0.0
 51
0.0
 71
     0
 72
   100
 73
     1
 74
     3
 75
     0
 76
     0
 77
     0
 78
     0
  0
ENDTAB
  0
TABLE
  2
LTYPE
  5
5
330
0
100
AcDbSymbolTable
 70
     3
  0
LTYPE
  5
14
330
5
100
AcDbSymbolTableRecord
100
AcDbLinetypeTableRecord
  2
BYBLOCK
 70
     0
  3

 72
    65
 73
     0
 40
0.0
  0
LTYPE
  5
15
330
5
100
AcDbSymbolTableRecord
100
AcDbLinetypeTableRecord
  2
BYLAYER
 70
     0
  3

 72
    65
 73
     0
 40
0.0
  0
LTYPE
  5
16
330
5
100
AcDbSymbolTableRecord
100
AcDbLinetypeTableRecord
  2
CONTINUOUS
 70
     0
  3
Solid line
 72
    65
 73
     0
 40
0.0
  0
LTYPE
  5
92
330
5
100
AcDbSymbolTableRecord
100
AcDbLinetypeTableRecord
  2
NEW_LINE1
 70
     0
  3

 72
    65
 73
     4
 40
1.2
 49
0.5
 74
     4
 75
     0
340
0
 46
1.0
 50
0.0
 44
0.0
 45
0.0
 49
-0.3
 74
     4
 75
     0
340
0
 46
1.0
 50
0.0
 44
0.0
 45
0.0
 49
0.1
 74
     4
 75
     0
340
0
 46
1.0
 50
0.0
 44
0.0
 45
0.0
 49
-0.3
 74
     4
 75
     0
340
0
 46
1.0
 50
0.0
 44
0.0
 45
0.0
  0
LTYPE
  5
94
330
5
100
AcDbSymbolTableRecord
100
AcDbLinetypeTableRecord
  2
NEW_LINE2
 70
     0
  3

 72
    65
 73
     4
 40
1.2
 49
0.5
 74
     4
 75
     0
340
0
 46
1.0
 50
0.0
 44
0.0
 45
0.0
 49
-0.3
 74
     4
 75
     0
340
0
 46
1.0
 50
0.0
 44
0.0
 45
0.0
 49
0.1
 74
     4
 75
     0
340
0
 46
1.0
 50
0.0
 44
0.0
 45
0.0
 49
-0.3
 74
     4
 75
     0
340
0
 46
1.0
 50
0.0
 44
0.0
 45
0.0
  0
ENDTAB
  0
TABLE
  2
LAYER
  5
2
330
0
100
AcDbSymbolTable
 70
     2
  0
LAYER
  5
10
330
2
100
AcDbSymbolTableRecord
100
AcDbLayerTableRecord
  2
0
 70
     0
 62
     7
  6
CONTINUOUS
  0
LAYER
  5
40
330
2
100
AcDbSymbolTableRecord
100
AcDbLayerTableRecord
  2
DEFAULT_1
 70
     0
 62
     7
  6
CONTINUOUS
  0
ENDTAB
  0
TABLE
  2
STYLE
  5
3
330
0
100
AcDbSymbolTable
 70
     1
  0
STYLE
  5
11
330
3
100
AcDbSymbolTableRecord
100
AcDbTextStyleTableRecord
  2
STANDARD
 70
     0
 40
0.0
 41
1.0
 50
0.0
 71
     0
 42
0.2
  3
txt
  4

  0
ENDTAB
  0
TABLE
  2
VIEW
  5
6
330
0
100
AcDbSymbolTable
 70
     0
  0
ENDTAB
  0
TABLE
  2
UCS
  5
7
330
0
100
AcDbSymbolTable
 70
     0
  0
ENDTAB
  0
TABLE
  2
APPID
  5
9
330
0
100
AcDbSymbolTable
 70
     2
  0
APPID
  5
12
330
9
100
AcDbSymbolTableRecord
100
AcDbRegAppTableRecord
  2
ACAD
 70
     0
  0
APPID
  5
3F
330
9
100
AcDbSymbolTableRecord
100
AcDbRegAppTableRecord
  2
ODA
 70
     0
  0
ENDTAB
  0
TABLE
  2
DIMSTYLE
  5
A
330
0
100
AcDbSymbolTable
 70
     1
  0
DIMSTYLE
105
27
330
A
100
AcDbSymbolTableRecord
100
AcDbDimStyleTableRecord
  2
STANDARD
 70
     0
  3

  4

  5

  6

  7

 40
1.0
 41
0.18
 42
0.0625
 43
0.38
 44
0.18
 45
0.0
 46
0.0
 47
0.0
 48
0.0
140
0.18
141
0.09
142
0.0
143
25.4
144
1.0
145
0.0
146
1.0
147
0.09
 71
     0
 72
     0
 73
     1
 74
     1
 75
     0
 76
     0
 77
     0
 78
     0
170
     0
171
     2
172
     0
173
     0
174
     0
175
     0
176
     0
177
     0
178
     0
270
     2
271
     4
272
     4
273
     2
274
     2
340
11
275
     0
280
     0
281
     0
282
     0
283
     1
284
     0
285
     0
286
     0
287
     3
288
     0
  0
ENDTAB
  0
TABLE
  2
BLOCK_RECORD
  5
1
330
0
100
AcDbSymbolTable
 70
     1
  0
BLOCK_RECORD
  5
1F
330
1
100
AcDbSymbolTableRecord
100
AcDbBlockTableRecord
  2
*MODEL_SPACE
  0
BLOCK_RECORD
  5
1B
330
1
100
AcDbSymbolTableRecord
100
AcDbBlockTableRecord
  2
*PAPER_SPACE
  0
ENDTAB
  0
ENDSEC
  0
SECTION
  2
BLOCKS
  0
BLOCK
  5
20
330
1F
100
AcDbEntity
  8
0
100
AcDbBlockBegin
  2
*MODEL_SPACE
 70
     0
 10
0.0
 20
0.0
 30
0.0
  3
*MODEL_SPACE
  1

  0
ENDBLK
  5
21
330
1F
100
AcDbEntity
  8
0
100
AcDbBlockEnd
  0
BLOCK
  5
1C
330
1B
100
AcDbEntity
 67
     1
  8
0
100
AcDbBlockBegin
  2
*PAPER_SPACE
 70
     0
 10
0.0
 20
0.0
 30
0.0
  3
*PAPER_SPACE
  1

  0
ENDBLK
  5
1D
330
1B
100
AcDbEntity
 67
     1
  8
0
100
AcDbBlockEnd
  0
ENDSEC
  0
SECTION
  2
ENTITIES
  0
SPLINE
  5
41
330
1F
100
AcDbEntity
  8
DEFAULT_1
 62
   250
100
AcDbSpline
210
0.0
220
0.0
230
1.0
 70
    24
 71
     3
 72
     8
 73
     4
 74
     0
 42
0.0000000001
 43
0.0000000001
 40
0.0
 40
0.0
 40
0.0
 40
0.0
 40
1.0
 40
1.0
 40
1.0
 40
1.0
 10
-6.2988
 20
-1.5921
 30
0.0
 10
-6.2988
 20
-1.5921
 30
0.0
 10
-6.2988
 20
-19.1404
 30
0.0
 10
-6.2988
 20
-19.1404
 30
0.0
  0
SPLINE
  5
42
330
1F
100
AcDbEntity
  8
DEFAULT_1
 62
   250
100
AcDbSpline
210
0.0
220
0.0
230
1.0
 70
    24
 71
     3
 72
     8
 73
     4
 74
     0
 42
0.0000000001
 43
0.0000000001
 40
0.0
 40
0.0
 40
0.0
 40
0.0
 40
1.0
 40
1.0
 40
1.0
 40
1.0
 10
-6.0449
 20
-1.7608
 30
0.0
 10
-6.0449
 20
-1.7608
 30
0.0
 10
-6.0449
 20
-18.9716
 30
0.0
 10
-6.0449
 20
-18.9716
 30
0.0
  0
SPLINE
  5
43
330
1F
100
AcDbEntity
  8
DEFAULT_1
 62
   250
100
AcDbSpline
210
0.0
220
0.0
230
1.0
 70
    24
 71
     3
 72
     8
 73
     4
 74
     0
 42
0.0000000001
 43
0.0000000001
 40
0.0
 40
0.0
 40
0.0
 40
0.0
 40
1.0
 40
1.0
 40
1.0
 40
1.0
 10
-6.2142
 20
-19.2247
 30
0.0
 10
-6.2142
 20
-19.2247
 30
0.0
 10
11.3887
 20
-19.2247
 30
0.0
 10
11.3887
 20
-19.2247
 30
0.0
  0
SPLINE
  5
44
330
1F
100
AcDbEntity
  8
DEFAULT_1
 62
   250
100
AcDbSpline
210
0.0
220
0.0
230
1.0
 70
    24
 71
     3
 72
     8
 73
     4
 74
     0
 42
0.0000000001
 43
0.0000000001
 40
0.0
 40
0.0
 40
0.0
 40
0.0
 40
1.0
 40
1.0
 40
1.0
 40
1.0
 10
-6.0449
 20
-18.9716
 30
0.0
 10
-6.0449
 20
-18.9716
 30
0.0
 10
11.2194
 20
-18.9716
 30
0.0
 10
11.2194
 20
-18.9716
 30
0.0
  0
SPLINE
  5
45
330
1F
100
AcDbEntity
  8
DEFAULT_1
 62
   250
100
AcDbSpline
210
0.0
220
0.0
230
1.0
 70
    24
 71
     3
 72
     8
 73
     4
 74
     0
 42
0.0000000001
 43
0.0000000001
 40
0.0
 40
0.0
 40
0.0
 40
0.0
 40
1.0
 40
1.0
 40
1.0
 40
1.0
 10
11.2194
 20
-18.9716
 30
0.0
 10
11.2194
 20
-18.9716
 30
0.0
 10
11.2194
 20
-1.7608
 30
0.0
 10
11.2194
 20
-1.7608
 30
0.0
  0
SPLINE
  5
46
330
1F
100
AcDbEntity
  8
DEFAULT_1
 62
   250
100
AcDbSpline
210
0.0
220
0.0
230
1.0
 70
    24
 71
     3
 72
     8
 73
     4
 74
     0
 42
0.0000000001
 43
0.0000000001
 40
0.0
 40
0.0
 40
0.0
 40
0.0
 40
1.0
 40
1.0
 40
1.0
 40
1.0
 10
11.4733
 20
-19.1404
 30
0.0
 10
11.4733
 20
-19.1404
 30
0.0
 10
11.4733
 20
-1.5921
 30
0.0
 10
11.4733
 20
-1.5921
 30
0.0
  0
SPLINE
  5
47
330
1F
100
AcDbEntity
  8
DEFAULT_1
 62
   250
100
AcDbSpline
210
0.0
220
0.0
230
1.0
 70
    24
 71
     3
 72
     8
 73
     4
 74
     0
 42
0.0000000001
 43
0.0000000001
 40
0.0
 40
0.0
 40
0.0
 40
0.0
 40
1.0
 40
1.0
 40
1.0
 40
1.0
 10
11.2194
 20
-1.7608
 30
0.0
 10
11.2194
 20
-1.7608
 30
0.0
 10
-6.0449
 20
-1.7608
 30
0.0
 10
-6.0449
 20
-1.7608
 30
0.0
  0
SPLINE
  5
48
330
1F
100
AcDbEntity
  8
DEFAULT_1
 62
   250
100
AcDbSpline
210
0.0
220
0.0
230
1.0
 70
    24
 71
     3
 72
     8
 73
     4
 74
     0
 42
0.0000000001
 43
0.0000000001
 40
0.0
 40
0.0
 40
0.0
 40
0.0
 40
1.0
 40
1.0
 40
1.0
 40
1.0
 10
11.3887
 20
-1.5077
 30
0.0
 10
11.3887
 20
-1.5077
 30
0.0
 10
-6.2142
 20
-1.5077
 30
0.0
 10
-6.2142
 20
-1.5077
 30
0.0
  0
SPLINE
  5
49
330
1F
100
AcDbEntity
  8
DEFAULT_1
 62
   250
100
AcDbSpline
210
0.0
220
0.0
230
1.0
 70
     8
 71
     3
 72
     8
 73
     4
 74
     0
 42
0.0000000001
 43
0.0000000001
 40
0.0
 40
0.0
 40
0.0
 40
0.0
 40
1.0
 40
1.0
 40
1.0
 40
1.0
 10
11.4733
 20
-1.5921
 30
0.0
 10
11.4733
 20
-1.5455
 30
0.0
 10
11.4354
 20
-1.5077
 30
0.0
 10
11.3887
 20
-1.5077
 30
0.0
  0
SPLINE
  5
4A
330
1F
100
AcDbEntity
  8
DEFAULT_1
 62
   250
100
AcDbSpline
210
0.0
220
0.0
230
1.0
 70
     8
 71
     3
 72
     8
 73
     4
 74
     0
 42
0.0000000001
 43
0.0000000001
 40
0.0
 40
0.0
 40
0.0
 40
0.0
 40
1.0
 40
1.0
 40
1.0
 40
1.0
 10
-6.2142
 20
-1.5077
 30
0.0
 10
-6.2609
 20
-1.5077
 30
0.0
 10
-6.2988
 20
-1.5455
 30
0.0
 10
-6.2988
 20
-1.5921
 30
0.0
  0
SPLINE
  5
4B
330
1F
100
AcDbEntity
  8
DEFAULT_1
 62
   250
100
AcDbSpline
210
0.0
220
0.0
230
1.0
 70
     8
 71
     3
 72
     8
 73
     4
 74
     0
 42
0.0000000001
 43
0.0000000001
 40
0.0
 40
0.0
 40
0.0
 40
0.0
 40
1.0
 40
1.0
 40
1.0
 40
1.0
 10
-6.2988
 20
-19.1404
 30
0.0
 10
-6.2988
 20
-19.187
 30
0.0
 10
-6.2609
 20
-19.2247
 30
0.0
 10
-6.2142
 20
-19.2247
 30
0.0
  0
SPLINE
  5
4C
330
1F
100
AcDbEntity
  8
DEFAULT_1
 62
   250
100
AcDbSpline
210
0.0
220
0.0
230
1.0
 70
     8
 71
     3
 72
     8
 73
     4
 74
     0
 42
0.0000000001
 43
0.0000000001
 40
0.0
 40
0.0
 40
0.0
 40
0.0
 40
1.0
 40
1.0
 40
1.0
 40
1.0
 10
11.3887
 20
-19.2247
 30
0.0
 10
11.4354
 20
-19.2247
 30
0.0
 10
11.4733
 20
-19.187
 30
0.0
 10
11.4733
 20
-19.1404
 30
0.0
  0
SPLINE
  5
4D
330
1F
100
AcDbEntity
  8
DEFAULT_1
 62
   250
100
AcDbSpline
210
0.0
220
0.0
230
1.0
 70
    27
 71
     3
 72
    12
 73
     8
 74
     0
 42
0.0000000001
 43
0.0000000001
 40
0.0
 40
0.0
 40
0.0
 40
0.0
 40
0.3333333333333333
 40
0.3333333333333333
 40
0.3333333333333333
 40
0.3333333333333333
 40
1.0
 40
1.0
 40
1.0
 40
1.0
 10
8.8052
 20
-12.5865
 30
0.0
 10
8.8052
 20
-12.5865
 30
0.0
 10
4.1053
 20
-12.5865
 30
0.0
 10
4.1053
 20
-12.5865
 30
0.0
 10
4.1053
 20
-12.5865
 30
0.0
 10
4.1053
 20
-12.5865
 30
0.0
 10
8.8052
 20
-12.5865
 30
0.0
 10
8.8052
 20
-12.5865
 30
0.0
  0
SPLINE
  5
4E
330
1F
100
AcDbEntity
  8
DEFAULT_1
 62
   250
100
AcDbSpline
210
0.0
220
0.0
230
1.0
 70
    27
 71
     3
 72
    12
 73
     8
 74
     0
 42
0.0000000001
 43
0.0000000001
 40
0.0
 40
0.0
 40
0.0
 40
0.0
 40
0.3333333333333333
 40
0.3333333333333333
 40
0.3333333333333333
 40
0.3333333333333333
 40
1.0
 40
1.0
 40
1.0
 40
1.0
 10
8.8052
 20
-17.2695
 30
0.0
 10
8.8052
 20
-17.2695
 30
0.0
 10
4.1053
 20
-17.2695
 30
0.0
 10
4.1053
 20
-17.2695
 30
0.0
 10
4.1053
 20
-17.2695
 30
0.0
 10
4.1053
 20
-17.2695
 30
0.0
 10
8.8052
 20
-17.2695
 30
0.0
 10
8.8052
 20
-17.2695
 30
0.0
  0
SPLINE
  5
4F
330
1F
100
AcDbEntity
  8
DEFAULT_1
 62
   250
100
AcDbSpline
210
0.0
220
0.0
230
1.0
 70
    27
 71
     3
 72
    12
 73
     8
 74
     0
 42
0.0000000001
 43
0.0000000001
 40
0.0
 40
0.0
 40
0.0
 40
0.0
 40
0.3333333333333333
 40
0.3333333333333333
 40
0.3333333333333333
 40
0.3333333333333333
 40
1.0
 40
1.0
 40
1.0
 40
1.0
 10
4.1053
 20
-15.8462
 30
0.0
 10
4.1053
 20
-15.8462
 30
0.0
 10
8.8052
 20
-15.8462
 30
0.0
 10
8.8052
 20
-15.8462
 30
0.0
 10
8.8052
 20
-15.8462
 30
0.0
 10
8.8052
 20
-15.8462
 30
0.0
 10
4.1053
 20
-15.8462
 30
0.0
 10
4.1053
 20
-15.8462
 30
0.0
  0
SPLINE
  5
50
330
1F
100
AcDbEntity
  8
DEFAULT_1
 62
   250
100
AcDbSpline
210
0.0
220
0.0
230
1.0
 70
    27
 71
     3
 72
    12
 73
     8
 74
     0
 42
0.0000000001
 43
0.0000000001
 40
0.0
 40
0.0
 40
0.0
 40
0.0
 40
0.3333333333333333
 40
0.3333333333333333
 40
0.3333333333333333
 40
0.3333333333333333
 40
1.0
 40
1.0
 40
1.0
 40
1.0
 10
8.8205
 20
-14.9386
 30
0.0
 10
8.8205
 20
-14.9386
 30
0.0
 10
4.1207
 20
-14.9386
 30
0.0
 10
4.1207
 20
-14.9386
 30
0.0
 10
4.1207
 20
-14.9386
 30
0.0
 10
4.1207
 20
-14.9386
 30
0.0
 10
8.8205
 20
-14.9386
 30
0.0
 10
8.8205
 20
-14.9386
 30
0.0
  0
SPLINE
  5
51
330
1F
100
AcDbEntity
  8
DEFAULT_1
 62
   250
100
AcDbSpline
210
0.0
220
0.0
230
1.0
 70
    27
 71
     3
 72
    12
 73
     8
 74
     0
 42
0.0000000001
 43
0.0000000001
 40
0.0
 40
0.0
 40
0.0
 40
0.0
 40
0.3333333333333333
 40
0.3333333333333333
 40
0.3333333333333333
 40
0.3333333333333333
 40
1.0
 40
1.0
 40
1.0
 40
1.0
 10
4.1207
 20
-13.5153
 30
0.0
 10
4.1207
 20
-13.5153
 30
0.0
 10
8.8205
 20
-13.5153
 30
0.0
 10
8.8205
 20
-13.5153
 30
0.0
 10
8.8205
 20
-13.5153
 30
0.0
 10
8.8205
 20
-13.5153
 30
0.0
 10
4.1207
 20
-13.5153
 30
0.0
 10
4.1207
 20
-13.5153
 30
0.0
  0
SPLINE
  5
52
330
1F
100
AcDbEntity
  8
DEFAULT_1
 62
   250
100
AcDbSpline
210
0.0
220
0.0
230
1.0
 70
    27
 71
     3
 72
    12
 73
     8
 74
     0
 42
0.0000000001
 43
0.0000000001
 40
0.0
 40
0.0
 40
0.0
 40
0.0
 40
0.3333333333333333
 40
0.3333333333333333
 40
0.3333333333333333
 40
0.3333333333333333
 40
1.0
 40
1.0
 40
1.0
 40
1.0
 10
4.1053
 20
-11.1632
 30
0.0
 10
4.1053
 20
-11.1632
 30
0.0
 10
8.8052
 20
-11.1632
 30
0.0
 10
8.8052
 20
-11.1632
 30
0.0
 10
8.8052
 20
-11.1632
 30
0.0
 10
8.8052
 20
-11.1632
 30
0.0
 10
4.1053
 20
-11.1632
 30
0.0
 10
4.1053
 20
-11.1632
 30
0.0
  0
SPLINE
  5
53
330
1F
100
AcDbEntity
  8
DEFAULT_1
 62
   250
100
AcDbSpline
210
0.0
220
0.0
230
1.0
 70
     8
 71
     3
 72
    12
 73
     8
 74
     0
 42
0.0000000001
 43
0.0000000001
 40
0.0
 40
0.0
 40
0.0
 40
0.0
 40
0.3333333333333333
 40
0.3333333333333333
 40
0.3333333333333333
 40
0.3333333333333333
 40
1.0
 40
1.0
 40
1.0
 40
1.0
 10
4.1053
 20
-11.1632
 30
0.0
 10
3.7112
 20
-11.1632
 30
0.0
 10
3.3919
 20
-11.4818
 30
0.0
 10
3.3919
 20
-11.8748
 30
0.0
 10
3.3919
 20
-11.8748
 30
0.0
 10
3.3919
 20
-12.2678
 30
0.0
 10
3.7112
 20
-12.5865
 30
0.0
 10
4.1053
 20
-12.5865
 30
0.0
  0
SPLINE
  5
54
330
1F
100
AcDbEntity
  8
DEFAULT_1
 62
   250
100
AcDbSpline
210
0.0
220
0.0
230
1.0
 70
     8
 71
     3
 72
    12
 73
     8
 74
     0
 42
0.0000000001
 43
0.0000000001
 40
0.0
 40
0.0
 40
0.0
 40
0.0
 40
0.3333333333333333
 40
0.3333333333333333
 40
0.3333333333333333
 40
0.3333333333333333
 40
1.0
 40
1.0
 40
1.0
 40
1.0
 10
4.1053
 20
-15.8462
 30
0.0
 10
3.7112
 20
-15.8462
 30
0.0
 10
3.3919
 20
-16.1648
 30
0.0
 10
3.3919
 20
-16.5578
 30
0.0
 10
3.3919
 20
-16.5578
 30
0.0
 10
3.3919
 20
-16.9509
 30
0.0
 10
3.7112
 20
-17.2695
 30
0.0
 10
4.1053
 20
-17.2695
 30
0.0
  0
SPLINE
  5
55
330
1F
100
AcDbEntity
  8
DEFAULT_1
 62
   250
100
AcDbSpline
210
0.0
220
0.0
230
1.0
 70
     8
 71
     3
 72
    12
 73
     8
 74
     0
 42
0.0000000001
 43
0.0000000001
 40
0.0
 40
0.0
 40
0.0
 40
0.0
 40
0.3333333333333333
 40
0.3333333333333333
 40
0.3333333333333333
 40
0.3333333333333333
 40
1.0
 40
1.0
 40
1.0
 40
1.0
 10
8.8052
 20
-17.2695
 30
0.0
 10
9.1991
 20
-17.2695
 30
0.0
 10
9.5184
 20
-16.9509
 30
0.0
 10
9.5184
 20
-16.5578
 30
0.0
 10
9.5184
 20
-16.5578
 30
0.0
 10
9.5184
 20
-16.1648
 30
0.0
 10
9.1991
 20
-15.8462
 30
0.0
 10
8.8052
 20
-15.8462
 30
0.0
  0
SPLINE
  5
56
330
1F
100
AcDbEntity
  8
DEFAULT_1
 62
   250
100
AcDbSpline
210
0.0
220
0.0
230
1.0
 70
     8
 71
     3
 72
    12
 73
     8
 74
     0
 42
0.0000000001
 43
0.0000000001
 40
0.0
 40
0.0
 40
0.0
 40
0.0
 40
0.3333333333333333
 40
0.3333333333333333
 40
0.3333333333333333
 40
0.3333333333333333
 40
1.0
 40
1.0
 40
1.0
 40
1.0
 10
4.1207
 20
-13.5153
 30
0.0
 10
3.7266
 20
-13.5153
 30
0.0
 10
3.4073
 20
-13.8339
 30
0.0
 10
3.4073
 20
-14.227
 30
0.0
 10
3.4073
 20
-14.227
 30
0.0
 10
3.4073
 20
-14.62
 30
0.0
 10
3.7266
 20
-14.9386
 30
0.0
 10
4.1207
 20
-14.9386
 30
0.0
  0
SPLINE
  5
57
330
1F
100
AcDbEntity
  8
DEFAULT_1
 62
   250
100
AcDbSpline
210
0.0
220
0.0
230
1.0
 70
     8
 71
     3
 72
    12
 73
     8
 74
     0
 42
0.0000000001
 43
0.0000000001
 40
0.0
 40
0.0
 40
0.0
 40
0.0
 40
0.3333333333333333
 40
0.3333333333333333
 40
0.3333333333333333
 40
0.3333333333333333
 40
1.0
 40
1.0
 40
1.0
 40
1.0
 10
8.8205
 20
-14.9386
 30
0.0
 10
9.2145
 20
-14.9386
 30
0.0
 10
9.5339
 20
-14.62
 30
0.0
 10
9.5339
 20
-14.227
 30
0.0
 10
9.5339
 20
-14.227
 30
0.0
 10
9.5339
 20
-13.8339
 30
0.0
 10
9.2145
 20
-13.5153
 30
0.0
 10
8.8205
 20
-13.5153
 30
0.0
  0
SPLINE
  5
58
330
1F
100
AcDbEntity
  8
DEFAULT_1
 62
   250
100
AcDbSpline
210
0.0
220
0.0
230
1.0
 70
     8
 71
     3
 72
    12
 73
     8
 74
     0
 42
0.0000000001
 43
0.0000000001
 40
0.0
 40
0.0
 40
0.0
 40
0.0
 40
0.3333333333333333
 40
0.3333333333333333
 40
0.3333333333333333
 40
0.3333333333333333
 40
1.0
 40
1.0
 40
1.0
 40
1.0
 10
8.8052
 20
-12.5865
 30
0.0
 10
9.1991
 20
-12.5865
 30
0.0
 10
9.5184
 20
-12.2678
 30
0.0
 10
9.5184
 20
-11.8748
 30
0.0
 10
9.5184
 20
-11.8748
 30
0.0
 10
9.5184
 20
-11.4818
 30
0.0
 10
9.1991
 20
-11.1632
 30
0.0
 10
8.8052
 20
-11.1632
 30
0.0
  0
SPLINE
  5
59
330
1F
100
AcDbEntity
  8
DEFAULT_1
 62
   250
100
AcDbSpline
210
0.0
220
0.0
230
1.0
 70
    27
 71
     3
 72
    12
 73
     8
 74
     0
 42
0.0000000001
 43
0.0000000001
 40
0.0
 40
0.0
 40
0.0
 40
0.0
 40
0.3333333333333333
 40
0.3333333333333333
 40
0.3333333333333333
 40
0.3333333333333333
 40
1.0
 40
1.0
 40
1.0
 40
1.0
 10
4.8205
 20
-4.1751
 30
0.0
 10
4.8205
 20
-4.1751
 30
0.0
 10
4.8205
 20
-8.8633
 30
0.0
 10
4.8205
 20
-8.8633
 30
0.0
 10
4.8205
 20
-8.8633
 30
0.0
 10
4.8205
 20
-8.8633
 30
0.0
 10
4.8205
 20
-4.1751
 30
0.0
 10
4.8205
 20
-4.1751
 30
0.0
  0
SPLINE
  5
5A
330
1F
100
AcDbEntity
  8
DEFAULT_1
 62
   250
100
AcDbSpline
210
0.0
220
0.0
230
1.0
 70
    27
 71
     3
 72
    12
 73
     8
 74
     0
 42
0.0000000001
 43
0.0000000001
 40
0.0
 40
0.0
 40
0.0
 40
0.0
 40
0.3333333333333333
 40
0.3333333333333333
 40
0.3333333333333333
 40
0.3333333333333333
 40
1.0
 40
1.0
 40
1.0
 40
1.0
 10
9.5152
 20
-4.1751
 30
0.0
 10
9.5152
 20
-4.1751
 30
0.0
 10
9.5152
 20
-8.8633
 30
0.0
 10
9.5152
 20
-8.8633
 30
0.0
 10
9.5152
 20
-8.8633
 30
0.0
 10
9.5152
 20
-8.8633
 30
0.0
 10
9.5152
 20
-4.1751
 30
0.0
 10
9.5152
 20
-4.1751
 30
0.0
  0
SPLINE
  5
5B
330
1F
100
AcDbEntity
  8
DEFAULT_1
 62
   250
100
AcDbSpline
210
0.0
220
0.0
230
1.0
 70
    27
 71
     3
 72
    12
 73
     8
 74
     0
 42
0.0000000001
 43
0.0000000001
 40
0.0
 40
0.0
 40
0.0
 40
0.0
 40
0.3333333333333333
 40
0.3333333333333333
 40
0.3333333333333333
 40
0.3333333333333333
 40
1.0
 40
1.0
 40
1.0
 40
1.0
 10
8.0883
 20
-8.8633
 30
0.0
 10
8.0883
 20
-8.8633
 30
0.0
 10
8.0883
 20
-4.1751
 30
0.0
 10
8.0883
 20
-4.1751
 30
0.0
 10
8.0883
 20
-4.1751
 30
0.0
 10
8.0883
 20
-4.1751
 30
0.0
 10
8.0883
 20
-8.8633
 30
0.0
 10
8.0883
 20
-8.8633
 30
0.0
  0
SPLINE
  5
5C
330
1F
100
AcDbEntity
  8
DEFAULT_1
 62
   250
100
AcDbSpline
210
0.0
220
0.0
230
1.0
 70
    27
 71
     3
 72
    12
 73
     8
 74
     0
 42
0.0000000001
 43
0.0000000001
 40
0.0
 40
0.0
 40
0.0
 40
0.0
 40
0.3333333333333333
 40
0.3333333333333333
 40
0.3333333333333333
 40
0.3333333333333333
 40
1.0
 40
1.0
 40
1.0
 40
1.0
 10
7.1785
 20
-4.1597
 30
0.0
 10
7.1785
 20
-4.1597
 30
0.0
 10
7.1785
 20
-8.848
 30
0.0
 10
7.1785
 20
-8.848
 30
0.0
 10
7.1785
 20
-8.848
 30
0.0
 10
7.1785
 20
-8.848
 30
0.0
 10
7.1785
 20
-4.1597
 30
0.0
 10
7.1785
 20
-4.1597
 30
0.0
  0
SPLINE
  5
5D
330
1F
100
AcDbEntity
  8
DEFAULT_1
 62
   250
100
AcDbSpline
210
0.0
220
0.0
230
1.0
 70
    27
 71
     3
 72
    12
 73
     8
 74
     0
 42
0.0000000001
 43
0.0000000001
 40
0.0
 40
0.0
 40
0.0
 40
0.0
 40
0.3333333333333333
 40
0.3333333333333333
 40
0.3333333333333333
 40
0.3333333333333333
 40
1.0
 40
1.0
 40
1.0
 40
1.0
 10
5.7517
 20
-8.848
 30
0.0
 10
5.7517
 20
-8.848
 30
0.0
 10
5.7517
 20
-4.1597
 30
0.0
 10
5.7517
 20
-4.1597
 30
0.0
 10
5.7517
 20
-4.1597
 30
0.0
 10
5.7517
 20
-4.1597
 30
0.0
 10
5.7517
 20
-8.848
 30
0.0
 10
5.7517
 20
-8.848
 30
0.0
  0
SPLINE
  5
5E
330
1F
100
AcDbEntity
  8
DEFAULT_1
 62
   250
100
AcDbSpline
210
0.0
220
0.0
230
1.0
 70
    27
 71
     3
 72
    12
 73
     8
 74
     0
 42
0.0000000001
 43
0.0000000001
 40
0.0
 40
0.0
 40
0.0
 40
0.0
 40
0.3333333333333333
 40
0.3333333333333333
 40
0.3333333333333333
 40
0.3333333333333333
 40
1.0
 40
1.0
 40
1.0
 40
1.0
 10
3.3937
 20
-8.8633
 30
0.0
 10
3.3937
 20
-8.8633
 30
0.0
 10
3.3937
 20
-4.1751
 30
0.0
 10
3.3937
 20
-4.1751
 30
0.0
 10
3.3937
 20
-4.1751
 30
0.0
 10
3.3937
 20
-4.1751
 30
0.0
 10
3.3937
 20
-8.8633
 30
0.0
 10
3.3937
 20
-8.8633
 30
0.0
  0
SPLINE
  5
5F
330
1F
100
AcDbEntity
  8
DEFAULT_1
 62
   250
100
AcDbSpline
210
0.0
220
0.0
230
1.0
 70
     8
 71
     3
 72
    12
 73
     8
 74
     0
 42
0.0000000001
 43
0.0000000001
 40
0.0
 40
0.0
 40
0.0
 40
0.0
 40
0.3333333333333333
 40
0.3333333333333333
 40
0.3333333333333333
 40
0.3333333333333333
 40
1.0
 40
1.0
 40
1.0
 40
1.0
 10
3.3937
 20
-8.8633
 30
0.0
 10
3.3937
 20
-9.2564
 30
0.0
 10
3.7131
 20
-9.575
 30
0.0
 10
4.1072
 20
-9.575
 30
0.0
 10
4.1072
 20
-9.575
 30
0.0
 10
4.5011
 20
-9.575
 30
0.0
 10
4.8205
 20
-9.2564
 30
0.0
 10
4.8205
 20
-8.8633
 30
0.0
  0
SPLINE
  5
60
330
1F
100
AcDbEntity
  8
DEFAULT_1
 62
   250
100
AcDbSpline
210
0.0
220
0.0
230
1.0
 70
     8
 71
     3
 72
    12
 73
     8
 74
     0
 42
0.0000000001
 43
0.0000000001
 40
0.0
 40
0.0
 40
0.0
 40
0.0
 40
0.3333333333333333
 40
0.3333333333333333
 40
0.3333333333333333
 40
0.3333333333333333
 40
1.0
 40
1.0
 40
1.0
 40
1.0
 10
8.0883
 20
-8.8633
 30
0.0
 10
8.0883
 20
-9.2564
 30
0.0
 10
8.4077
 20
-9.575
 30
0.0
 10
8.8017
 20
-9.575
 30
0.0
 10
8.8017
 20
-9.575
 30
0.0
 10
9.1957
 20
-9.575
 30
0.0
 10
9.5152
 20
-9.2564
 30
0.0
 10
9.5152
 20
-8.8633
 30
0.0
  0
SPLINE
  5
61
330
1F
100
AcDbEntity
  8
DEFAULT_1
 62
   250
100
AcDbSpline
210
0.0
220
0.0
230
1.0
 70
     8
 71
     3
 72
    12
 73
     8
 74
     0
 42
0.0000000001
 43
0.0000000001
 40
0.0
 40
0.0
 40
0.0
 40
0.0
 40
0.3333333333333333
 40
0.3333333333333333
 40
0.3333333333333333
 40
0.3333333333333333
 40
1.0
 40
1.0
 40
1.0
 40
1.0
 10
9.5152
 20
-4.1751
 30
0.0
 10
9.5152
 20
-3.782
 30
0.0
 10
9.1957
 20
-3.4634
 30
0.0
 10
8.8017
 20
-3.4634
 30
0.0
 10
8.8017
 20
-3.4634
 30
0.0
 10
8.4077
 20
-3.4634
 30
0.0
 10
8.0883
 20
-3.782
 30
0.0
 10
8.0883
 20
-4.1751
 30
0.0
  0
SPLINE
  5
62
330
1F
100
AcDbEntity
  8
DEFAULT_1
 62
   250
100
AcDbSpline
210
0.0
220
0.0
230
1.0
 70
     8
 71
     3
 72
    12
 73
     8
 74
     0
 42
0.0000000001
 43
0.0000000001
 40
0.0
 40
0.0
 40
0.0
 40
0.0
 40
0.3333333333333333
 40
0.3333333333333333
 40
0.3333333333333333
 40
0.3333333333333333
 40
1.0
 40
1.0
 40
1.0
 40
1.0
 10
5.7517
 20
-8.848
 30
0.0
 10
5.7517
 20
-9.241
 30
0.0
 10
6.0711
 20
-9.5597
 30
0.0
 10
6.4651
 20
-9.5597
 30
0.0
 10
6.4651
 20
-9.5597
 30
0.0
 10
6.8591
 20
-9.5597
 30
0.0
 10
7.1785
 20
-9.241
 30
0.0
 10
7.1785
 20
-8.848
 30
0.0
  0
SPLINE
  5
63
330
1F
100
AcDbEntity
  8
DEFAULT_1
 62
   250
100
AcDbSpline
210
0.0
220
0.0
230
1.0
 70
     8
 71
     3
 72
    12
 73
     8
 74
     0
 42
0.0000000001
 43
0.0000000001
 40
0.0
 40
0.0
 40
0.0
 40
0.0
 40
0.3333333333333333
 40
0.3333333333333333
 40
0.3333333333333333
 40
0.3333333333333333
 40
1.0
 40
1.0
 40
1.0
 40
1.0
 10
7.1785
 20
-4.1597
 30
0.0
 10
7.1785
 20
-3.7667
 30
0.0
 10
6.8591
 20
-3.4481
 30
0.0
 10
6.4651
 20
-3.4481
 30
0.0
 10
6.4651
 20
-3.4481
 30
0.0
 10
6.0711
 20
-3.4481
 30
0.0
 10
5.7517
 20
-3.7667
 30
0.0
 10
5.7517
 20
-4.1597
 30
0.0
  0
SPLINE
  5
64
330
1F
100
AcDbEntity
  8
DEFAULT_1
 62
   250
100
AcDbSpline
210
0.0
220
0.0
230
1.0
 70
     8
 71
     3
 72
    12
 73
     8
 74
     0
 42
0.0000000001
 43
0.0000000001
 40
0.0
 40
0.0
 40
0.0
 40
0.0
 40
0.3333333333333333
 40
0.3333333333333333
 40
0.3333333333333333
 40
0.3333333333333333
 40
1.0
 40
1.0
 40
1.0
 40
1.0
 10
4.8205
 20
-4.1751
 30
0.0
 10
4.8205
 20
-3.782
 30
0.0
 10
4.5011
 20
-3.4634
 30
0.0
 10
4.1072
 20
-3.4634
 30
0.0
 10
4.1072
 20
-3.4634
 30
0.0
 10
3.7131
 20
-3.4634
 30
0.0
 10
3.3937
 20
-3.782
 30
0.0
 10
3.3937
 20
-4.1751
 30
0.0
  0
SPLINE
  5
65
330
1F
100
AcDbEntity
  8
DEFAULT_1
 62
   250
100
AcDbSpline
210
0.0
220
0.0
230
1.0
 70
    27
 71
     3
 72
    12
 73
     8
 74
     0
 42
0.0000000001
 43
0.0000000001
 40
0.0
 40
0.0
 40
0.0
 40
0.0
 40
0.3333333333333333
 40
0.3333333333333333
 40
0.3333333333333333
 40
0.3333333333333333
 40
1.0
 40
1.0
 40
1.0
 40
1.0
 10
-2.8948
 20
-11.8883
 30
0.0
 10
-2.8948
 20
-11.8883
 30
0.0
 10
-2.8948
 20
-16.5765
 30
0.0
 10
-2.8948
 20
-16.5765
 30
0.0
 10
-2.8948
 20
-16.5765
 30
0.0
 10
-2.8948
 20
-16.5765
 30
0.0
 10
-2.8948
 20
-11.8883
 30
0.0
 10
-2.8948
 20
-11.8883
 30
0.0
  0
SPLINE
  5
66
330
1F
100
AcDbEntity
  8
DEFAULT_1
 62
   250
100
AcDbSpline
210
0.0
220
0.0
230
1.0
 70
    27
 71
     3
 72
    12
 73
     8
 74
     0
 42
0.0000000001
 43
0.0000000001
 40
0.0
 40
0.0
 40
0.0
 40
0.0
 40
0.3333333333333333
 40
0.3333333333333333
 40
0.3333333333333333
 40
0.3333333333333333
 40
1.0
 40
1.0
 40
1.0
 40
1.0
 10
1.7998
 20
-11.8883
 30
0.0
 10
1.7998
 20
-11.8883
 30
0.0
 10
1.7998
 20
-16.5765
 30
0.0
 10
1.7998
 20
-16.5765
 30
0.0
 10
1.7998
 20
-16.5765
 30
0.0
 10
1.7998
 20
-16.5765
 30
0.0
 10
1.7998
 20
-11.8883
 30
0.0
 10
1.7998
 20
-11.8883
 30
0.0
  0
SPLINE
  5
67
330
1F
100
AcDbEntity
  8
DEFAULT_1
 62
   250
100
AcDbSpline
210
0.0
220
0.0
230
1.0
 70
    27
 71
     3
 72
    12
 73
     8
 74
     0
 42
0.0000000001
 43
0.0000000001
 40
0.0
 40
0.0
 40
0.0
 40
0.0
 40
0.3333333333333333
 40
0.3333333333333333
 40
0.3333333333333333
 40
0.3333333333333333
 40
1.0
 40
1.0
 40
1.0
 40
1.0
 10
0.373
 20
-16.5765
 30
0.0
 10
0.373
 20
-16.5765
 30
0.0
 10
0.373
 20
-11.8883
 30
0.0
 10
0.373
 20
-11.8883
 30
0.0
 10
0.373
 20
-11.8883
 30
0.0
 10
0.373
 20
-11.8883
 30
0.0
 10
0.373
 20
-16.5765
 30
0.0
 10
0.373
 20
-16.5765
 30
0.0
  0
SPLINE
  5
68
330
1F
100
AcDbEntity
  8
DEFAULT_1
 62
   250
100
AcDbSpline
210
0.0
220
0.0
230
1.0
 70
    27
 71
     3
 72
    12
 73
     8
 74
     0
 42
0.0000000001
 43
0.0000000001
 40
0.0
 40
0.0
 40
0.0
 40
0.0
 40
0.3333333333333333
 40
0.3333333333333333
 40
0.3333333333333333
 40
0.3333333333333333
 40
1.0
 40
1.0
 40
1.0
 40
1.0
 10
-0.5368
 20
-11.8729
 30
0.0
 10
-0.5368
 20
-11.8729
 30
0.0
 10
-0.5368
 20
-16.5612
 30
0.0
 10
-0.5368
 20
-16.5612
 30
0.0
 10
-0.5368
 20
-16.5612
 30
0.0
 10
-0.5368
 20
-16.5612
 30
0.0
 10
-0.5368
 20
-11.8729
 30
0.0
 10
-0.5368
 20
-11.8729
 30
0.0
  0
SPLINE
  5
69
330
1F
100
AcDbEntity
  8
DEFAULT_1
 62
   250
100
AcDbSpline
210
0.0
220
0.0
230
1.0
 70
    27
 71
     3
 72
    12
 73
     8
 74
     0
 42
0.0000000001
 43
0.0000000001
 40
0.0
 40
0.0
 40
0.0
 40
0.0
 40
0.3333333333333333
 40
0.3333333333333333
 40
0.3333333333333333
 40
0.3333333333333333
 40
1.0
 40
1.0
 40
1.0
 40
1.0
 10
-1.9637
 20
-16.5612
 30
0.0
 10
-1.9637
 20
-16.5612
 30
0.0
 10
-1.9637
 20
-11.8729
 30
0.0
 10
-1.9637
 20
-11.8729
 30
0.0
 10
-1.9637
 20
-11.8729
 30
0.0
 10
-1.9637
 20
-11.8729
 30
0.0
 10
-1.9637
 20
-16.5612
 30
0.0
 10
-1.9637
 20
-16.5612
 30
0.0
  0
SPLINE
  5
6A
330
1F
100
AcDbEntity
  8
DEFAULT_1
 62
   250
100
AcDbSpline
210
0.0
220
0.0
230
1.0
 70
    27
 71
     3
 72
    12
 73
     8
 74
     0
 42
0.0000000001
 43
0.0000000001
 40
0.0
 40
0.0
 40
0.0
 40
0.0
 40
0.3333333333333333
 40
0.3333333333333333
 40
0.3333333333333333
 40
0.3333333333333333
 40
1.0
 40
1.0
 40
1.0
 40
1.0
 10
-4.3217
 20
-16.5765
 30
0.0
 10
-4.3217
 20
-16.5765
 30
0.0
 10
-4.3217
 20
-11.8883
 30
0.0
 10
-4.3217
 20
-11.8883
 30
0.0
 10
-4.3217
 20
-11.8883
 30
0.0
 10
-4.3217
 20
-11.8883
 30
0.0
 10
-4.3217
 20
-16.5765
 30
0.0
 10
-4.3217
 20
-16.5765
 30
0.0
  0
SPLINE
  5
6B
330
1F
100
AcDbEntity
  8
DEFAULT_1
 62
   250
100
AcDbSpline
210
0.0
220
0.0
230
1.0
 70
     8
 71
     3
 72
    12
 73
     8
 74
     0
 42
0.0000000001
 43
0.0000000001
 40
0.0
 40
0.0
 40
0.0
 40
0.0
 40
0.3333333333333333
 40
0.3333333333333333
 40
0.3333333333333333
 40
0.3333333333333333
 40
1.0
 40
1.0
 40
1.0
 40
1.0
 10
-4.3217
 20
-16.5765
 30
0.0
 10
-4.3217
 20
-16.9696
 30
0.0
 10
-4.0023
 20
-17.2882
 30
0.0
 10
-3.6082
 20
-17.2882
 30
0.0
 10
-3.6082
 20
-17.2882
 30
0.0
 10
-3.2142
 20
-17.2882
 30
0.0
 10
-2.8948
 20
-16.9696
 30
0.0
 10
-2.8948
 20
-16.5765
 30
0.0
  0
SPLINE
  5
6C
330
1F
100
AcDbEntity
  8
DEFAULT_1
 62
   250
100
AcDbSpline
210
0.0
220
0.0
230
1.0
 70
     8
 71
     3
 72
    12
 73
     8
 74
     0
 42
0.0000000001
 43
0.0000000001
 40
0.0
 40
0.0
 40
0.0
 40
0.0
 40
0.3333333333333333
 40
0.3333333333333333
 40
0.3333333333333333
 40
0.3333333333333333
 40
1.0
 40
1.0
 40
1.0
 40
1.0
 10
0.373
 20
-16.5765
 30
0.0
 10
0.373
 20
-16.9696
 30
0.0
 10
0.6924
 20
-17.2882
 30
0.0
 10
1.0863
 20
-17.2882
 30
0.0
 10
1.0863
 20
-17.2882
 30
0.0
 10
1.4804
 20
-17.2882
 30
0.0
 10
1.7998
 20
-16.9696
 30
0.0
 10
1.7998
 20
-16.5765
 30
0.0
  0
SPLINE
  5
6D
330
1F
100
AcDbEntity
  8
DEFAULT_1
 62
   250
100
AcDbSpline
210
0.0
220
0.0
230
1.0
 70
     8
 71
     3
 72
    12
 73
     8
 74
     0
 42
0.0000000001
 43
0.0000000001
 40
0.0
 40
0.0
 40
0.0
 40
0.0
 40
0.3333333333333333
 40
0.3333333333333333
 40
0.3333333333333333
 40
0.3333333333333333
 40
1.0
 40
1.0
 40
1.0
 40
1.0
 10
1.7998
 20
-11.8883
 30
0.0
 10
1.7998
 20
-11.4952
 30
0.0
 10
1.4804
 20
-11.1766
 30
0.0
 10
1.0863
 20
-11.1766
 30
0.0
 10
1.0863
 20
-11.1766
 30
0.0
 10
0.6924
 20
-11.1766
 30
0.0
 10
0.373
 20
-11.4952
 30
0.0
 10
0.373
 20
-11.8883
 30
0.0
  0
SPLINE
  5
6E
330
1F
100
AcDbEntity
  8
DEFAULT_1
 62
   250
100
AcDbSpline
210
0.0
220
0.0
230
1.0
 70
     8
 71
     3
 72
    12
 73
     8
 74
     0
 42
0.0000000001
 43
0.0000000001
 40
0.0
 40
0.0
 40
0.0
 40
0.0
 40
0.3333333333333333
 40
0.3333333333333333
 40
0.3333333333333333
 40
0.3333333333333333
 40
1.0
 40
1.0
 40
1.0
 40
1.0
 10
-1.9637
 20
-16.5612
 30
0.0
 10
-1.9637
 20
-16.9542
 30
0.0
 10
-1.6443
 20
-17.2729
 30
0.0
 10
-1.2502
 20
-17.2729
 30
0.0
 10
-1.2502
 20
-17.2729
 30
0.0
 10
-0.8563
 20
-17.2729
 30
0.0
 10
-0.5368
 20
-16.9542
 30
0.0
 10
-0.5368
 20
-16.5612
 30
0.0
  0
SPLINE
  5
6F
330
1F
100
AcDbEntity
  8
DEFAULT_1
 62
   250
100
AcDbSpline
210
0.0
220
0.0
230
1.0
 70
     8
 71
     3
 72
    12
 73
     8
 74
     0
 42
0.0000000001
 43
0.0000000001
 40
0.0
 40
0.0
 40
0.0
 40
0.0
 40
0.3333333333333333
 40
0.3333333333333333
 40
0.3333333333333333
 40
0.3333333333333333
 40
1.0
 40
1.0
 40
1.0
 40
1.0
 10
-0.5368
 20
-11.8729
 30
0.0
 10
-0.5368
 20
-11.4799
 30
0.0
 10
-0.8563
 20
-11.1613
 30
0.0
 10
-1.2502
 20
-11.1613
 30
0.0
 10
-1.2502
 20
-11.1613
 30
0.0
 10
-1.6443
 20
-11.1613
 30
0.0
 10
-1.9637
 20
-11.4799
 30
0.0
 10
-1.9637
 20
-11.8729
 30
0.0
  0
SPLINE
  5
70
330
1F
100
AcDbEntity
  8
DEFAULT_1
 62
   250
100
AcDbSpline
210
0.0
220
0.0
230
1.0
 70
     8
 71
     3
 72
    12
 73
     8
 74
     0
 42
0.0000000001
 43
0.0000000001
 40
0.0
 40
0.0
 40
0.0
 40
0.0
 40
0.3333333333333333
 40
0.3333333333333333
 40
0.3333333333333333
 40
0.3333333333333333
 40
1.0
 40
1.0
 40
1.0
 40
1.0
 10
-2.8948
 20
-11.8883
 30
0.0
 10
-2.8948
 20
-11.4952
 30
0.0
 10
-3.2142
 20
-11.1766
 30
0.0
 10
-3.6082
 20
-11.1766
 30
0.0
 10
-3.6082
 20
-11.1766
 30
0.0
 10
-4.0023
 20
-11.1766
 30
0.0
 10
-4.3217
 20
-11.4952
 30
0.0
 10
-4.3217
 20
-11.8883
 30
0.0
  0
SPLINE
  5
71
330
1F
100
AcDbEntity
  8
DEFAULT_1
 62
   250
100
AcDbSpline
210
0.0
220
0.0
230
1.0
 70
    24
 71
     3
 72
     8
 73
     4
 74
     0
 42
0.0000000001
 43
0.0000000001
 40
0.0
 40
0.0
 40
0.0
 40
0.0
 40
1.0
 40
1.0
 40
1.0
 40
1.0
 10
10.8084
 20
-1.8343
 30
0.0
 10
10.8084
 20
-1.8343
 30
0.0
 10
-5.6412
 20
-1.8343
 30
0.0
 10
-5.6412
 20
-1.8343
 30
0.0
  0
SPLINE
  5
72
330
1F
100
AcDbEntity
  8
DEFAULT_1
 62
   250
100
AcDbSpline
210
0.0
220
0.0
230
1.0
 70
    24
 71
     3
 72
     8
 73
     4
 74
     0
 42
0.0000000001
 43
0.0000000001
 40
0.0
 40
0.0
 40
0.0
 40
0.0
 40
1.0
 40
1.0
 40
1.0
 40
1.0
 10
-5.6412
 20
-18.9131
 30
0.0
 10
-5.6412
 20
-18.9131
 30
0.0
 10
10.8084
 20
-18.9131
 30
0.0
 10
10.8084
 20
-18.9131
 30
0.0
  0
SPLINE
  5
73
330
1F
100
AcDbEntity
  8
DEFAULT_1
 62
   250
100
AcDbSpline
210
0.0
220
0.0
230
1.0
 70
    24
 71
     3
 72
     8
 73
     4
 74
     0
 42
0.0000000001
 43
0.0000000001
 40
0.0
 40
0.0
 40
0.0
 40
0.0
 40
1.0
 40
1.0
 40
1.0
 40
1.0
 10
-5.977
 20
-2.1692
 30
0.0
 10
-5.977
 20
-2.1692
 30
0.0
 10
-5.977
 20
-18.5783
 30
0.0
 10
-5.977
 20
-18.5783
 30
0.0
  0
SPLINE
  5
74
330
1F
100
AcDbEntity
  8
DEFAULT_1
 62
   250
100
AcDbSpline
210
0.0
220
0.0
230
1.0
 70
    24
 71
     3
 72
     8
 73
     4
 74
     0
 42
0.0000000001
 43
0.0000000001
 40
0.0
 40
0.0
 40
0.0
 40
0.0
 40
1.0
 40
1.0
 40
1.0
 40
1.0
 10
11.1441
 20
-18.5783
 30
0.0
 10
11.1441
 20
-18.5783
 30
0.0
 10
11.1441
 20
-2.1692
 30
0.0
 10
11.1441
 20
-2.1692
 30
0.0
  0
SPLINE
  5
75
330
1F
100
AcDbEntity
  8
DEFAULT_1
 62
   250
100
AcDbSpline
210
0.0
220
0.0
230
1.0
 70
     8
 71
     3
 72
     8
 73
     4
 74
     0
 42
0.0000000001
 43
0.0000000001
 40
0.0
 40
0.0
 40
0.0
 40
0.0
 40
1.0
 40
1.0
 40
1.0
 40
1.0
 10
-5.6412
 20
-1.8343
 30
0.0
 10
-5.8267
 20
-1.8343
 30
0.0
 10
-5.977
 20
-1.9842
 30
0.0
 10
-5.977
 20
-2.1692
 30
0.0
  0
SPLINE
  5
76
330
1F
100
AcDbEntity
  8
DEFAULT_1
 62
   250
100
AcDbSpline
210
0.0
220
0.0
230
1.0
 70
     8
 71
     3
 72
     8
 73
     4
 74
     0
 42
0.0000000001
 43
0.0000000001
 40
0.0
 40
0.0
 40
0.0
 40
0.0
 40
1.0
 40
1.0
 40
1.0
 40
1.0
 10
11.1441
 20
-2.1692
 30
0.0
 10
11.1441
 20
-1.9842
 30
0.0
 10
10.9938
 20
-1.8343
 30
0.0
 10
10.8084
 20
-1.8343
 30
0.0
  0
SPLINE
  5
77
330
1F
100
AcDbEntity
  8
DEFAULT_1
 62
   250
100
AcDbSpline
210
0.0
220
0.0
230
1.0
 70
     8
 71
     3
 72
     8
 73
     4
 74
     0
 42
0.0000000001
 43
0.0000000001
 40
0.0
 40
0.0
 40
0.0
 40
0.0
 40
1.0
 40
1.0
 40
1.0
 40
1.0
 10
-5.977
 20
-18.5783
 30
0.0
 10
-5.977
 20
-18.7632
 30
0.0
 10
-5.8267
 20
-18.9131
 30
0.0
 10
-5.6412
 20
-18.9131
 30
0.0
  0
SPLINE
  5
78
330
1F
100
AcDbEntity
  8
DEFAULT_1
 62
   250
100
AcDbSpline
210
0.0
220
0.0
230
1.0
 70
     8
 71
     3
 72
     8
 73
     4
 74
     0
 42
0.0000000001
 43
0.0000000001
 40
0.0
 40
0.0
 40
0.0
 40
0.0
 40
1.0
 40
1.0
 40
1.0
 40
1.0
 10
10.8084
 20
-18.9131
 30
0.0
 10
10.9938
 20
-18.9131
 30
0.0
 10
11.1441
 20
-18.7632
 30
0.0
 10
11.1441
 20
-18.5783
 30
0.0
  0
SPLINE
  5
79
330
1F
100
AcDbEntity
  8
DEFAULT_1
 62
   250
100
AcDbSpline
210
0.0
220
0.0
230
1.0
 70
    27
 71
     3
 72
    12
 73
     8
 74
     0
 42
0.0000000001
 43
0.0000000001
 40
0.0
 40
0.0
 40
0.0
 40
0.0
 40
0.3333333333333333
 40
0.3333333333333333
 40
0.3333333333333333
 40
0.3333333333333333
 40
1.0
 40
1.0
 40
1.0
 40
1.0
 10
1.0729
 20
-4.8901
 30
0.0
 10
1.0729
 20
-4.8901
 30
0.0
 10
-3.6271
 20
-4.8901
 30
0.0
 10
-3.6271
 20
-4.8901
 30
0.0
 10
-3.6271
 20
-4.8901
 30
0.0
 10
-3.6271
 20
-4.8901
 30
0.0
 10
1.0729
 20
-4.8901
 30
0.0
 10
1.0729
 20
-4.8901
 30
0.0
  0
SPLINE
  5
7A
330
1F
100
AcDbEntity
  8
DEFAULT_1
 62
   250
100
AcDbSpline
210
0.0
220
0.0
230
1.0
 70
    27
 71
     3
 72
    12
 73
     8
 74
     0
 42
0.0000000001
 43
0.0000000001
 40
0.0
 40
0.0
 40
0.0
 40
0.0
 40
0.3333333333333333
 40
0.3333333333333333
 40
0.3333333333333333
 40
0.3333333333333333
 40
1.0
 40
1.0
 40
1.0
 40
1.0
 10
1.0729
 20
-9.5731
 30
0.0
 10
1.0729
 20
-9.5731
 30
0.0
 10
-3.6271
 20
-9.5731
 30
0.0
 10
-3.6271
 20
-9.5731
 30
0.0
 10
-3.6271
 20
-9.5731
 30
0.0
 10
-3.6271
 20
-9.5731
 30
0.0
 10
1.0729
 20
-9.5731
 30
0.0
 10
1.0729
 20
-9.5731
 30
0.0
  0
SPLINE
  5
7B
330
1F
100
AcDbEntity
  8
DEFAULT_1
 62
   250
100
AcDbSpline
210
0.0
220
0.0
230
1.0
 70
    27
 71
     3
 72
    12
 73
     8
 74
     0
 42
0.0000000001
 43
0.0000000001
 40
0.0
 40
0.0
 40
0.0
 40
0.0
 40
0.3333333333333333
 40
0.3333333333333333
 40
0.3333333333333333
 40
0.3333333333333333
 40
1.0
 40
1.0
 40
1.0
 40
1.0
 10
-3.6271
 20
-8.1498
 30
0.0
 10
-3.6271
 20
-8.1498
 30
0.0
 10
1.0729
 20
-8.1498
 30
0.0
 10
1.0729
 20
-8.1498
 30
0.0
 10
1.0729
 20
-8.1498
 30
0.0
 10
1.0729
 20
-8.1498
 30
0.0
 10
-3.6271
 20
-8.1498
 30
0.0
 10
-3.6271
 20
-8.1498
 30
0.0
  0
SPLINE
  5
7C
330
1F
100
AcDbEntity
  8
DEFAULT_1
 62
   250
100
AcDbSpline
210
0.0
220
0.0
230
1.0
 70
    27
 71
     3
 72
    12
 73
     8
 74
     0
 42
0.0000000001
 43
0.0000000001
 40
0.0
 40
0.0
 40
0.0
 40
0.0
 40
0.3333333333333333
 40
0.3333333333333333
 40
0.3333333333333333
 40
0.3333333333333333
 40
1.0
 40
1.0
 40
1.0
 40
1.0
 10
1.0883
 20
-7.2422
 30
0.0
 10
1.0883
 20
-7.2422
 30
0.0
 10
-3.6116
 20
-7.2422
 30
0.0
 10
-3.6116
 20
-7.2422
 30
0.0
 10
-3.6116
 20
-7.2422
 30
0.0
 10
-3.6116
 20
-7.2422
 30
0.0
 10
1.0883
 20
-7.2422
 30
0.0
 10
1.0883
 20
-7.2422
 30
0.0
  0
SPLINE
  5
7D
330
1F
100
AcDbEntity
  8
DEFAULT_1
 62
   250
100
AcDbSpline
210
0.0
220
0.0
230
1.0
 70
    27
 71
     3
 72
    12
 73
     8
 74
     0
 42
0.0000000001
 43
0.0000000001
 40
0.0
 40
0.0
 40
0.0
 40
0.0
 40
0.3333333333333333
 40
0.3333333333333333
 40
0.3333333333333333
 40
0.3333333333333333
 40
1.0
 40
1.0
 40
1.0
 40
1.0
 10
-3.6116
 20
-5.819
 30
0.0
 10
-3.6116
 20
-5.819
 30
0.0
 10
1.0883
 20
-5.819
 30
0.0
 10
1.0883
 20
-5.819
 30
0.0
 10
1.0883
 20
-5.819
 30
0.0
 10
1.0883
 20
-5.819
 30
0.0
 10
-3.6116
 20
-5.819
 30
0.0
 10
-3.6116
 20
-5.819
 30
0.0
  0
SPLINE
  5
7E
330
1F
100
AcDbEntity
  8
DEFAULT_1
 62
   250
100
AcDbSpline
210
0.0
220
0.0
230
1.0
 70
    27
 71
     3
 72
    12
 73
     8
 74
     0
 42
0.0000000001
 43
0.0000000001
 40
0.0
 40
0.0
 40
0.0
 40
0.0
 40
0.3333333333333333
 40
0.3333333333333333
 40
0.3333333333333333
 40
0.3333333333333333
 40
1.0
 40
1.0
 40
1.0
 40
1.0
 10
-3.6271
 20
-3.4668
 30
0.0
 10
-3.6271
 20
-3.4668
 30
0.0
 10
1.0729
 20
-3.4668
 30
0.0
 10
1.0729
 20
-3.4668
 30
0.0
 10
1.0729
 20
-3.4668
 30
0.0
 10
1.0729
 20
-3.4668
 30
0.0
 10
-3.6271
 20
-3.4668
 30
0.0
 10
-3.6271
 20
-3.4668
 30
0.0
  0
SPLINE
  5
7F
330
1F
100
AcDbEntity
  8
DEFAULT_1
 62
   250
100
AcDbSpline
210
0.0
220
0.0
230
1.0
 70
     8
 71
     3
 72
    12
 73
     8
 74
     0
 42
0.0000000001
 43
0.0000000001
 40
0.0
 40
0.0
 40
0.0
 40
0.0
 40
0.3333333333333333
 40
0.3333333333333333
 40
0.3333333333333333
 40
0.3333333333333333
 40
1.0
 40
1.0
 40
1.0
 40
1.0
 10
-3.6271
 20
-3.4668
 30
0.0
 10
-4.021
 20
-3.4668
 30
0.0
 10
-4.3404
 20
-3.7854
 30
0.0
 10
-4.3404
 20
-4.1784
 30
0.0
 10
-4.3404
 20
-4.1784
 30
0.0
 10
-4.3404
 20
-4.5715
 30
0.0
 10
-4.021
 20
-4.8901
 30
0.0
 10
-3.6271
 20
-4.8901
 30
0.0
  0
SPLINE
  5
80
330
1F
100
AcDbEntity
  8
DEFAULT_1
 62
   250
100
AcDbSpline
210
0.0
220
0.0
230
1.0
 70
     8
 71
     3
 72
    12
 73
     8
 74
     0
 42
0.0000000001
 43
0.0000000001
 40
0.0
 40
0.0
 40
0.0
 40
0.0
 40
0.3333333333333333
 40
0.3333333333333333
 40
0.3333333333333333
 40
0.3333333333333333
 40
1.0
 40
1.0
 40
1.0
 40
1.0
 10
-3.6271
 20
-8.1498
 30
0.0
 10
-4.021
 20
-8.1498
 30
0.0
 10
-4.3404
 20
-8.4684
 30
0.0
 10
-4.3404
 20
-8.8615
 30
0.0
 10
-4.3404
 20
-8.8615
 30
0.0
 10
-4.3404
 20
-9.2545
 30
0.0
 10
-4.021
 20
-9.5731
 30
0.0
 10
-3.6271
 20
-9.5731
 30
0.0
  0
SPLINE
  5
81
330
1F
100
AcDbEntity
  8
DEFAULT_1
 62
   250
100
AcDbSpline
210
0.0
220
0.0
230
1.0
 70
     8
 71
     3
 72
    12
 73
     8
 74
     0
 42
0.0000000001
 43
0.0000000001
 40
0.0
 40
0.0
 40
0.0
 40
0.0
 40
0.3333333333333333
 40
0.3333333333333333
 40
0.3333333333333333
 40
0.3333333333333333
 40
1.0
 40
1.0
 40
1.0
 40
1.0
 10
1.0729
 20
-9.5731
 30
0.0
 10
1.4669
 20
-9.5731
 30
0.0
 10
1.7862
 20
-9.2545
 30
0.0
 10
1.7862
 20
-8.8615
 30
0.0
 10
1.7862
 20
-8.8615
 30
0.0
 10
1.7862
 20
-8.4684
 30
0.0
 10
1.4669
 20
-8.1498
 30
0.0
 10
1.0729
 20
-8.1498
 30
0.0
  0
SPLINE
  5
82
330
1F
100
AcDbEntity
  8
DEFAULT_1
 62
   250
100
AcDbSpline
210
0.0
220
0.0
230
1.0
 70
     8
 71
     3
 72
    12
 73
     8
 74
     0
 42
0.0000000001
 43
0.0000000001
 40
0.0
 40
0.0
 40
0.0
 40
0.0
 40
0.3333333333333333
 40
0.3333333333333333
 40
0.3333333333333333
 40
0.3333333333333333
 40
1.0
 40
1.0
 40
1.0
 40
1.0
 10
-3.6116
 20
-5.819
 30
0.0
 10
-4.0056
 20
-5.819
 30
0.0
 10
-4.325
 20
-6.1376
 30
0.0
 10
-4.325
 20
-6.5306
 30
0.0
 10
-4.325
 20
-6.5306
 30
0.0
 10
-4.325
 20
-6.9236
 30
0.0
 10
-4.0056
 20
-7.2422
 30
0.0
 10
-3.6116
 20
-7.2422
 30
0.0
  0
SPLINE
  5
83
330
1F
100
AcDbEntity
  8
DEFAULT_1
 62
   250
100
AcDbSpline
210
0.0
220
0.0
230
1.0
 70
     8
 71
     3
 72
    12
 73
     8
 74
     0
 42
0.0000000001
 43
0.0000000001
 40
0.0
 40
0.0
 40
0.0
 40
0.0
 40
0.3333333333333333
 40
0.3333333333333333
 40
0.3333333333333333
 40
0.3333333333333333
 40
1.0
 40
1.0
 40
1.0
 40
1.0
 10
1.0883
 20
-7.2422
 30
0.0
 10
1.4823
 20
-7.2422
 30
0.0
 10
1.8016
 20
-6.9236
 30
0.0
 10
1.8016
 20
-6.5306
 30
0.0
 10
1.8016
 20
-6.5306
 30
0.0
 10
1.8016
 20
-6.1376
 30
0.0
 10
1.4823
 20
-5.819
 30
0.0
 10
1.0883
 20
-5.819
 30
0.0
  0
SPLINE
  5
84
330
1F
100
AcDbEntity
  8
DEFAULT_1
 62
   250
100
AcDbSpline
210
0.0
220
0.0
230
1.0
 70
     8
 71
     3
 72
    12
 73
     8
 74
     0
 42
0.0000000001
 43
0.0000000001
 40
0.0
 40
0.0
 40
0.0
 40
0.0
 40
0.3333333333333333
 40
0.3333333333333333
 40
0.3333333333333333
 40
0.3333333333333333
 40
1.0
 40
1.0
 40
1.0
 40
1.0
 10
1.0729
 20
-4.8901
 30
0.0
 10
1.4669
 20
-4.8901
 30
0.0
 10
1.7862
 20
-4.5715
 30
0.0
 10
1.7862
 20
-4.1784
 30
0.0
 10
1.7862
 20
-4.1784
 30
0.0
 10
1.7862
 20
-3.7854
 30
0.0
 10
1.4669
 20
-3.4668
 30
0.0
 10
1.0729
 20
-3.4668
 30
0.0
  0
SPLINE
  5
85
330
1F
100
AcDbEntity
  8
DEFAULT_1
 62
   250
100
AcDbSpline
210
0.0
220
0.0
230
1.0
 70
    24
 71
     3
 72
     8
 73
     4
 74
     0
 42
0.0000000001
 43
0.0000000001
 40
0.0
 40
0.0
 40
0.0
 40
0.0
 40
1.0
 40
1.0
 40
1.0
 40
1.0
 10
-6.7699
 20
-19.2256
 30
0.0
 10
-6.7699
 20
-19.2256
 30
0.0
 10
-10.8078
 20
-19.2256
 30
0.0
 10
-10.8078
 20
-19.2256
 30
0.0
  0
SPLINE
  5
86
330
1F
100
AcDbEntity
  8
DEFAULT_1
 62
   250
100
AcDbSpline
210
0.0
220
0.0
230
1.0
 70
    24
 71
     3
 72
     8
 73
     4
 74
     0
 42
0.0000000001
 43
0.0000000001
 40
0.0
 40
0.0
 40
0.0
 40
0.0
 40
1.0
 40
1.0
 40
1.0
 40
1.0
 10
-6.9684
 20
-1.5522
 30
0.0
 10
-6.9684
 20
-1.5522
 30
0.0
 10
-10.9401
 20
-1.5522
 30
0.0
 10
-10.9401
 20
-1.5522
 30
0.0
  0
SPLINE
  5
87
330
1F
100
AcDbEntity
  8
DEFAULT_1
 62
   250
100
AcDbSpline
210
0.0
220
0.0
230
1.0
 70
    24
 71
     3
 72
     8
 73
     4
 74
     0
 42
0.0000000001
 43
0.0000000001
 40
0.0
 40
0.0
 40
0.0
 40
0.0
 40
1.0
 40
1.0
 40
1.0
 40
1.0
 10
-9.7348
 20
-2.3764
 30
0.0
 10
-9.7348
 20
-2.3764
 30
0.0
 10
-9.7348
 20
-18.9638
 30
0.0
 10
-9.7348
 20
-18.9638
 30
0.0
  0
SPLINE
  5
88
330
1F
100
AcDbEntity
  8
DEFAULT_1
 62
   250
100
AcDbSpline
210
0.0
220
0.0
230
1.0
 70
    24
 71
     3
 72
     8
 73
     4
 74
     0
 42
0.0000000001
 43
0.0000000001
 40
0.0
 40
0.0
 40
0.0
 40
0.0
 40
1.0
 40
1.0
 40
1.0
 40
1.0
 10
-6.406
 20
-19.6581
 30
0.0
 10
-6.406
 20
-19.6581
 30
0.0
 10
-6.406
 20
-25.7477
 30
0.0
 10
-6.406
 20
-25.7477
 30
0.0
  0
SPLINE
  5
89
330
1F
100
AcDbEntity
  8
DEFAULT_1
 62
   250
100
AcDbSpline
210
0.0
220
0.0
230
1.0
 70
    24
 71
     3
 72
     8
 73
     4
 74
     0
 42
0.0000000001
 43
0.0000000001
 40
0.0
 40
0.0
 40
0.0
 40
0.0
 40
1.0
 40
1.0
 40
1.0
 40
1.0
 10
11.4993
 20
-19.6251
 30
0.0
 10
11.4993
 20
-19.6251
 30
0.0
 10
11.4993
 20
-26.0784
 30
0.0
 10
11.4993
 20
-26.0784
 30
0.0
  0
SPLINE
  5
8A
330
1F
100
AcDbEntity
  8
DEFAULT_1
 62
   250
100
AcDbSpline
210
0.0
220
0.0
230
1.0
 70
    24
 71
     3
 72
     8
 73
     4
 74
     0
 42
0.0000000001
 43
0.0000000001
 40
0.0
 40
0.0
 40
0.0
 40
0.0
 40
1.0
 40
1.0
 40
1.0
 40
1.0
 10
11.4505
 20
-25.0302
 30
0.0
 10
11.4505
 20
-25.0302
 30
0.0
 10
-5.9889
 20
-25.0302
 30
0.0
 10
-5.9889
 20
-25.0302
 30
0.0
  0
SPLINE
  5
8B
330
1F
100
AcDbEntity
  8
DEFAULT_1
 62
   250
100
AcDbSpline
210
0.0
220
0.0
230
1.0
 70
    24
 71
     3
 72
     8
 73
     4
 74
     0
 42
0.0000000001
 43
0.0000000001
 40
0.0
 40
0.0
 40
0.0
 40
0.0
 40
1.0
 40
1.0
 40
1.0
 40
1.0
 10
-6.3766
 20
6.6689
 30
0.0
 10
-6.3766
 20
6.6689
 30
0.0
 10
-10.4444
 20
6.6689
 30
0.0
 10
-10.4444
 20
6.6689
 30
0.0
  0
SPLINE
  5
8C
330
1F
100
AcDbEntity
  8
DEFAULT_1
 62
   250
100
AcDbSpline
210
0.0
220
0.0
230
1.0
 70
    24
 71
     3
 72
     8
 73
     4
 74
     0
 42
0.0000000001
 43
0.0000000001
 40
0.0
 40
0.0
 40
0.0
 40
0.0
 40
1.0
 40
1.0
 40
1.0
 40
1.0
 10
-9.7968
 20
24.6226
 30
0.0
 10
-9.7968
 20
24.6226
 30
0.0
 10
-9.7968
 20
6.9286
 30
0.0
 10
-9.7968
 20
6.9286
 30
0.0
  0
SPLINE
  5
8D
330
1F
100
AcDbEntity
  8
DEFAULT_1
 62
   250
100
AcDbSpline
210
0.0
220
0.0
230
1.0
 70
    24
 71
     3
 72
     8
 73
     4
 74
     0
 42
0.0000000001
 43
0.0000000001
 40
0.0
 40
0.0
 40
0.0
 40
0.0
 40
1.0
 40
1.0
 40
1.0
 40
1.0
 10
-6.2548
 20
0.5123
 30
0.0
 10
-6.2548
 20
0.5123
 30
0.0
 10
-6.2548
 20
6.7981
 30
0.0
 10
-6.2548
 20
6.7981
 30
0.0
  0
SPLINE
  5
8E
330
1F
100
AcDbEntity
  8
DEFAULT_1
 62
   250
100
AcDbSpline
210
0.0
220
0.0
230
1.0
 70
    24
 71
     3
 72
     8
 73
     4
 74
     0
 42
0.0000000001
 43
0.0000000001
 40
0.0
 40
0.0
 40
0.0
 40
0.0
 40
1.0
 40
1.0
 40
1.0
 40
1.0
 10
11.5766
 20
0.5789
 30
0.0
 10
11.5766
 20
0.5789
 30
0.0
 10
11.5766
 20
6.9231
 30
0.0
 10
11.5766
 20
6.9231
 30
0.0
  0
SPLINE
  5
8F
330
1F
100
AcDbEntity
  8
DEFAULT_1
 62
   250
100
AcDbSpline
210
0.0
220
0.0
230
1.0
 70
    24
 71
     3
 72
     8
 73
     4
 74
     0
 42
0.0000000001
 43
0.0000000001
 40
0.0
 40
0.0
 40
0.0
 40
0.0
 40
1.0
 40
1.0
 40
1.0
 40
1.0
 10
11.0196
 20
1.0909
 30
0.0
 10
11.0196
 20
1.0909
 30
0.0
 10
-5.5496
 20
1.0909
 30
0.0
 10
-5.5496
 20
1.0909
 30
0.0
  0
SPLINE
  5
90
330
1F
100
AcDbEntity
  8
DEFAULT_1
 62
   250
100
AcDbSpline
210
0.0
220
0.0
230
1.0
 70
    24
 71
     3
 72
     8
 73
     4
 74
     0
 42
0.0000000001
 43
0.0000000001
 40
0.0
 40
0.0
 40
0.0
 40
0.0
 40
1.0
 40
1.0
 40
1.0
 40
1.0
 10
-6.5822
 20
24.8697
 30
0.0
 10
-6.5822
 20
24.8697
 30
0.0
 10
-10.6417
 20
24.8697
 30
0.0
 10
-10.6417
 20
24.8697
 30
0.0
  0
SPLINE
  5
91
330
1F
100
AcDbEntity
  8
DEFAULT_1
  6
NEW_LINE1
 62
   250
100
AcDbSpline
210
0.0
220
0.0
230
1.0
 70
    24
 71
     3
 72
     8
 73
     4
 74
     0
 42
0.0000000001
 43
0.0000000001
 40
0.0
 40
0.0
 40
0.0
 40
0.0
 40
1.0
 40
1.0
 40
1.0
 40
1.0
 10
2.6123
 20
-20.456
 30
0.0
 10
2.6123
 20
-20.456
 30
0.0
 10
2.6123
 20
26.0784
 30
0.0
 10
2.6123
 20
26.0784
 30
0.0
  0
SPLINE
  5
93
330
1F
100
AcDbEntity
  8
DEFAULT_1
  6
NEW_LINE2
 62
   250
100
AcDbSpline
210
0.0
220
0.0
230
1.0
 70
    24
 71
     3
 72
     8
 73
     4
 74
     0
 42
0.0000000001
 43
0.0000000001
 40
0.0
 40
0.0
 40
0.0
 40
0.0
 40
1.0
 40
1.0
 40
1.0
 40
1.0
 10
12.5086
 20
-10.3309
 30
0.0
 10
12.5086
 20
-10.3309
 30
0.0
 10
-7.5336
 20
-10.3309
 30
0.0
 10
-7.5336
 20
-10.3309
 30
0.0
  0
SPLINE
  5
95
330
1F
100
AcDbEntity
  8
DEFAULT_1
 62
   250
100
AcDbSpline
210
0.0
220
0.0
230
1.0
 70
    11
 71
     3
 72
    40
 73
    36
 74
     0
 42
0.0000000001
 43
0.0000000001
 40
0.0
 40
0.0
 40
0.0
 40
0.0
 40
0.1
 40
0.1
 40
0.1
 40
0.1
 40
0.2
 40
0.2
 40
0.2
 40
0.2
 40
0.3
 40
0.3
 40
0.3
 40
0.3
 40
0.4
 40
0.4
 40
0.4
 40
0.4
 40
0.5
 40
0.5
 40
0.5
 40
0.5
 40
0.6
 40
0.6
 40
0.6
 40
0.6
 40
0.7
 40
0.7
 40
0.7
 40
0.7
 40
0.8
 40
0.8
 40
0.8
 40
0.8
 40
1.0
 40
1.0
 40
1.0
 40
1.0
 10
1.1044
 20
-24.7006
 30
0.0
 10
1.1044
 20
-24.7006
 30
0.0
 10
0.8565
 20
-24.7006
 30
0.0
 10
0.8565
 20
-24.7006
 30
0.0
 10
0.8565
 20
-24.7006
 30
0.0
 10
0.8565
 20
-24.7006
 30
0.0
 10
0.8565
 20
-23.1202
 30
0.0
 10
0.8565
 20
-23.1202
 30
0.0
 10
0.8565
 20
-23.1202
 30
0.0
 10
0.7967
 20
-23.1771
 30
0.0
 10
0.7187
 20
-23.234
 30
0.0
 10
0.6218
 20
-23.2909
 30
0.0
 10
0.6218
 20
-23.2909
 30
0.0
 10
0.5244
 20
-23.3478
 30
0.0
 10
0.4374
 20
-23.3906
 30
0.0
 10
0.3602
 20
-23.4189
 30
0.0
 10
0.3602
 20
-23.4189
 30
0.0
 10
0.3602
 20
-23.4189
 30
0.0
 10
0.3602
 20
-23.1794
 30
0.0
 10
0.3602
 20
-23.1794
 30
0.0
 10
0.3602
 20
-23.1794
 30
0.0
 10
0.499
 20
-23.1141
 30
0.0
 10
0.6204
 20
-23.035
 30
0.0
 10
0.7243
 20
-22.9424
 30
0.0
 10
0.7243
 20
-22.9424
 30
0.0
 10
0.8278
 20
-22.8492
 30
0.0
 10
0.9016
 20
-22.7594
 30
0.0
 10
0.9449
 20
-22.6719
 30
0.0
 10
0.9449
 20
-22.6719
 30
0.0
 10
0.9449
 20
-22.6719
 30
0.0
 10
1.1044
 20
-22.6719
 30
0.0
 10
1.1044
 20
-22.6719
 30
0.0
 10
1.1044
 20
-22.6719
 30
0.0
 10
1.1044
 20
-22.6719
 30
0.0
 10
1.1044
 20
-24.7006
 30
0.0
 10
1.1044
 20
-24.7006
 30
0.0
  0
SPLINE
  5
96
330
1F
100
AcDbEntity
  8
DEFAULT_1
 62
   250
100
AcDbSpline
210
0.0
220
0.0
230
1.0
 70
    11
 71
     3
 72
    52
 73
    48
 74
     0
 42
0.0000000001
 43
0.0000000001
 40
0.0
 40
0.0
 40
0.0
 40
0.0
 40
0.0769230769230769
 40
0.0769230769230769
 40
0.0769230769230769
 40
0.0769230769230769
 40
0.1538461538461539
 40
0.1538461538461539
 40
0.1538461538461539
 40
0.1538461538461539
 40
0.2307692307692308
 40
0.2307692307692308
 40
0.2307692307692308
 40
0.2307692307692308
 40
0.3076923076923077
 40
0.3076923076923077
 40
0.3076923076923077
 40
0.3076923076923077
 40
0.3846153846153846
 40
0.3846153846153846
 40
0.3846153846153846
 40
0.3846153846153846
 40
0.4615384615384616
 40
0.4615384615384616
 40
0.4615384615384616
 40
0.4615384615384616
 40
0.5384615384615384
 40
0.5384615384615384
 40
0.5384615384615384
 40
0.5384615384615384
 40
0.6153846153846154
 40
0.6153846153846154
 40
0.6153846153846154
 40
0.6153846153846154
 40
0.6923076923076923
 40
0.6923076923076923
 40
0.6923076923076923
 40
0.6923076923076923
 40
0.7692307692307693
 40
0.7692307692307693
 40
0.7692307692307693
 40
0.7692307692307693
 40
0.8461538461538461
 40
0.8461538461538461
 40
0.8461538461538461
 40
0.8461538461538461
 40
1.0
 40
1.0
 40
1.0
 40
1.0
 10
1.7398
 20
-23.7044
 30
0.0
 10
1.7398
 20
-23.4654
 30
0.0
 10
1.7643
 20
-23.273
 30
0.0
 10
1.8137
 20
-23.1277
 30
0.0
 10
1.8137
 20
-23.1277
 30
0.0
 10
1.8626
 20
-22.9819
 30
0.0
 10
1.936
 20
-22.8695
 30
0.0
 10
2.0329
 20
-22.7904
 30
0.0
 10
2.0329
 20
-22.7904
 30
0.0
 10
2.1298
 20
-22.7114
 30
0.0
 10
2.2516
 20
-22.6719
 30
0.0
 10
2.3983
 20
-22.6719
 30
0.0
 10
2.3983
 20
-22.6719
 30
0.0
 10
2.507
 20
-22.6719
 30
0.0
 10
2.602
 20
-22.694
 30
0.0
 10
2.6838
 20
-22.7378
 30
0.0
 10
2.6838
 20
-22.7378
 30
0.0
 10
2.7657
 20
-22.781
 30
0.0
 10
2.833
 20
-22.8441
 30
0.0
 10
2.8866
 20
-22.9264
 30
0.0
 10
2.8866
 20
-22.9264
 30
0.0
 10
2.9397
 20
-23.0087
 30
0.0
 10
2.9816
 20
-23.1089
 30
0.0
 10
3.0117
 20
-23.2269
 30
0.0
 10
3.0117
 20
-23.2269
 30
0.0
 10
3.0423
 20
-23.345
 30
0.0
 10
3.0573
 20
-23.504
 30
0.0
 10
3.0573
 20
-23.7044
 30
0.0
 10
3.0573
 20
-23.7044
 30
0.0
 10
3.0573
 20
-23.9414
 30
0.0
 10
3.0329
 20
-24.1324
 30
0.0
 10
2.9844
 20
-24.2782
 30
0.0
 10
2.9844
 20
-24.2782
 30
0.0
 10
2.9355
 20
-24.424
 30
0.0
 10
2.8626
 20
-24.5364
 30
0.0
 10
2.7657
 20
-24.6159
 30
0.0
 10
2.7657
 20
-24.6159
 30
0.0
 10
2.6688
 20
-24.6954
 30
0.0
 10
2.5465
 20
-24.7349
 30
0.0
 10
2.3983
 20
-24.7349
 30
0.0
 10
2.3983
 20
-24.7349
 30
0.0
 10
2.2036
 20
-24.7349
 30
0.0
 10
2.0507
 20
-24.6653
 30
0.0
 10
1.9397
 20
-24.5256
 30
0.0
 10
1.9397
 20
-24.5256
 30
0.0
 10
1.8066
 20
-24.3577
 30
0.0
 10
1.7398
 20
-24.0835
 30
0.0
 10
1.7398
 20
-23.7044
 30
0.0
  0
SPLINE
  5
97
330
1F
100
AcDbEntity
  8
DEFAULT_1
 62
   250
100
AcDbSpline
210
0.0
220
0.0
230
1.0
 70
    11
 71
     3
 72
    36
 73
    32
 74
     0
 42
0.0000000001
 43
0.0000000001
 40
0.0
 40
0.0
 40
0.0
 40
0.0
 40
0.1111111111111111
 40
0.1111111111111111
 40
0.1111111111111111
 40
0.1111111111111111
 40
0.2222222222222222
 40
0.2222222222222222
 40
0.2222222222222222
 40
0.2222222222222222
 40
0.3333333333333333
 40
0.3333333333333333
 40
0.3333333333333333
 40
0.3333333333333333
 40
0.4444444444444444
 40
0.4444444444444444
 40
0.4444444444444444
 40
0.4444444444444444
 40
0.5555555555555556
 40
0.5555555555555556
 40
0.5555555555555556
 40
0.5555555555555556
 40
0.6666666666666666
 40
0.6666666666666666
 40
0.6666666666666666
 40
0.6666666666666666
 40
0.7777777777777778
 40
0.7777777777777778
 40
0.7777777777777778
 40
0.7777777777777778
 40
1.0
 40
1.0
 40
1.0
 40
1.0
 10
1.9948
 20
-23.7044
 30
0.0
 10
1.9948
 20
-24.036
 30
0.0
 10
2.0338
 20
-24.2566
 30
0.0
 10
2.1114
 20
-24.3666
 30
0.0
 10
2.1114
 20
-24.3666
 30
0.0
 10
2.189
 20
-24.4762
 30
0.0
 10
2.2845
 20
-24.5313
 30
0.0
 10
2.3983
 20
-24.5313
 30
0.0
 10
2.3983
 20
-24.5313
 30
0.0
 10
2.5126
 20
-24.5313
 30
0.0
 10
2.6081
 20
-24.4758
 30
0.0
 10
2.6857
 20
-24.3657
 30
0.0
 10
2.6857
 20
-24.3657
 30
0.0
 10
2.7633
 20
-24.2556
 30
0.0
 10
2.8024
 20
-24.035
 30
0.0
 10
2.8024
 20
-23.7044
 30
0.0
 10
2.8024
 20
-23.7044
 30
0.0
 10
2.8024
 20
-23.3718
 30
0.0
 10
2.7633
 20
-23.1507
 30
0.0
 10
2.6857
 20
-23.0416
 30
0.0
 10
2.6857
 20
-23.0416
 30
0.0
 10
2.6081
 20
-22.932
 30
0.0
 10
2.5117
 20
-22.8775
 30
0.0
 10
2.396
 20
-22.8775
 30
0.0
 10
2.396
 20
-22.8775
 30
0.0
 10
2.2817
 20
-22.8775
 30
0.0
 10
2.1909
 20
-22.9259
 30
0.0
 10
2.1227
 20
-23.0223
 30
0.0
 10
2.1227
 20
-23.0223
 30
0.0
 10
2.0376
 20
-23.1451
 30
0.0
 10
1.9948
 20
-23.3728
 30
0.0
 10
1.9948
 20
-23.7044
 30
0.0
  0
SPLINE
  5
98
330
1F
100
AcDbEntity
  8
DEFAULT_1
 62
   250
100
AcDbSpline
210
0.0
220
0.0
230
1.0
 70
    11
 71
     3
 72
    92
 73
    88
 74
     0
 42
0.0000000001
 43
0.0000000001
 40
0.0
 40
0.0
 40
0.0
 40
0.0
 40
0.0434782608695652
 40
0.0434782608695652
 40
0.0434782608695652
 40
0.0434782608695652
 40
0.0869565217391304
 40
0.0869565217391304
 40
0.0869565217391304
 40
0.0869565217391304
 40
0.1304347826086956
 40
0.1304347826086956
 40
0.1304347826086956
 40
0.1304347826086956
 40
0.1739130434782609
 40
0.1739130434782609
 40
0.1739130434782609
 40
0.1739130434782609
 40
0.2173913043478261
 40
0.2173913043478261
 40
0.2173913043478261
 40
0.2173913043478261
 40
0.2608695652173913
 40
0.2608695652173913
 40
0.2608695652173913
 40
0.2608695652173913
 40
0.3043478260869565
 40
0.3043478260869565
 40
0.3043478260869565
 40
0.3043478260869565
 40
0.3478260869565217
 40
0.3478260869565217
 40
0.3478260869565217
 40
0.3478260869565217
 40
0.391304347826087
 40
0.391304347826087
 40
0.391304347826087
 40
0.391304347826087
 40
0.4347826086956522
 40
0.4347826086956522
 40
0.4347826086956522
 40
0.4347826086956522
 40
0.4782608695652174
 40
0.4782608695652174
 40
0.4782608695652174
 40
0.4782608695652174
 40
0.5217391304347826
 40
0.5217391304347826
 40
0.5217391304347826
 40
0.5217391304347826
 40
0.5652173913043478
 40
0.5652173913043478
 40
0.5652173913043478
 40
0.5652173913043478
 40
0.6086956521739131
 40
0.6086956521739131
 40
0.6086956521739131
 40
0.6086956521739131
 40
0.6521739130434783
 40
0.6521739130434783
 40
0.6521739130434783
 40
0.6521739130434783
 40
0.6956521739130435
 40
0.6956521739130435
 40
0.6956521739130435
 40
0.6956521739130435
 40
0.7391304347826086
 40
0.7391304347826086
 40
0.7391304347826086
 40
0.7391304347826086
 40
0.782608695652174
 40
0.782608695652174
 40
0.782608695652174
 40
0.782608695652174
 40
0.8260869565217391
 40
0.8260869565217391
 40
0.8260869565217391
 40
0.8260869565217391
 40
0.8695652173913043
 40
0.8695652173913043
 40
0.8695652173913043
 40
0.8695652173913043
 40
0.9130434782608695
 40
0.9130434782608695
 40
0.9130434782608695
 40
0.9130434782608695
 40
1.0
 40
1.0
 40
1.0
 40
1.0
 10
3.3094
 20
-24.1714
 30
0.0
 10
3.3094
 20
-24.1714
 30
0.0
 10
3.57
 20
-24.1493
 30
0.0
 10
3.57
 20
-24.1493
 30
0.0
 10
3.57
 20
-24.1493
 30
0.0
 10
3.5893
 20
-24.2763
 30
0.0
 10
3.634
 20
-24.3713
 30
0.0
 10
3.7041
 20
-24.4353
 30
0.0
 10
3.7041
 20
-24.4353
 30
0.0
 10
3.7746
 20
-24.4993
 30
0.0
 10
3.8593
 20
-24.5313
 30
0.0
 10
3.9585
 20
-24.5313
 30
0.0
 10
3.9585
 20
-24.5313
 30
0.0
 10
4.078
 20
-24.5313
 30
0.0
 10
4.1791
 20
-24.4861
 30
0.0
 10
4.2614
 20
-24.3963
 30
0.0
 10
4.2614
 20
-24.3963
 30
0.0
 10
4.3442
 20
-24.306
 30
0.0
 10
4.3856
 20
-24.1865
 30
0.0
 10
4.3856
 20
-24.0379
 30
0.0
 10
4.3856
 20
-24.0379
 30
0.0
 10
4.3856
 20
-23.8963
 30
0.0
 10
4.3461
 20
-23.7848
 30
0.0
 10
4.2666
 20
-23.703
 30
0.0
 10
4.2666
 20
-23.703
 30
0.0
 10
4.1871
 20
-23.6211
 30
0.0
 10
4.0832
 20
-23.5802
 30
0.0
 10
3.9543
 20
-23.5802
 30
0.0
 10
3.9543
 20
-23.5802
 30
0.0
 10
3.8743
 20
-23.5802
 30
0.0
 10
3.8024
 20
-23.5985
 30
0.0
 10
3.7379
 20
-23.6347
 30
0.0
 10
3.7379
 20
-23.6347
 30
0.0
 10
3.6735
 20
-23.671
 30
0.0
 10
3.6232
 20
-23.718
 30
0.0
 10
3.5865
 20
-23.7759
 30
0.0
 10
3.5865
 20
-23.7759
 30
0.0
 10
3.5865
 20
-23.7759
 30
0.0
 10
3.3536
 20
-23.7458
 30
0.0
 10
3.3536
 20
-23.7458
 30
0.0
 10
3.3536
 20
-23.7458
 30
0.0
 10
3.3536
 20
-23.7458
 30
0.0
 10
3.5493
 20
-22.7081
 30
0.0
 10
3.5493
 20
-22.7081
 30
0.0
 10
3.5493
 20
-22.7081
 30
0.0
 10
3.5493
 20
-22.7081
 30
0.0
 10
4.554
 20
-22.7081
 30
0.0
 10
4.554
 20
-22.7081
 30
0.0
 10
4.554
 20
-22.7081
 30
0.0
 10
4.554
 20
-22.7081
 30
0.0
 10
4.554
 20
-22.9452
 30
0.0
 10
4.554
 20
-22.9452
 30
0.0
 10
4.554
 20
-22.9452
 30
0.0
 10
4.554
 20
-22.9452
 30
0.0
 10
3.7478
 20
-22.9452
 30
0.0
 10
3.7478
 20
-22.9452
 30
0.0
 10
3.7478
 20
-22.9452
 30
0.0
 10
3.7478
 20
-22.9452
 30
0.0
 10
3.6387
 20
-23.488
 30
0.0
 10
3.6387
 20
-23.488
 30
0.0
 10
3.6387
 20
-23.488
 30
0.0
 10
3.76
 20
-23.4033
 30
0.0
 10
3.8875
 20
-23.361
 30
0.0
 10
4.0206
 20
-23.361
 30
0.0
 10
4.0206
 20
-23.361
 30
0.0
 10
4.197
 20
-23.361
 30
0.0
 10
4.3456
 20
-23.4221
 30
0.0
 10
4.467
 20
-23.5444
 30
0.0
 10
4.467
 20
-23.5444
 30
0.0
 10
4.5883
 20
-23.6667
 30
0.0
 10
4.649
 20
-23.8238
 30
0.0
 10
4.649
 20
-24.0157
 30
0.0
 10
4.649
 20
-24.0157
 30
0.0
 10
4.649
 20
-24.1987
 30
0.0
 10
4.5954
 20
-24.3568
 30
0.0
 10
4.4891
 20
-24.4899
 30
0.0
 10
4.4891
 20
-24.4899
 30
0.0
 10
4.3593
 20
-24.6531
 30
0.0
 10
4.1824
 20
-24.7349
 30
0.0
 10
3.9585
 20
-24.7349
 30
0.0
 10
3.9585
 20
-24.7349
 30
0.0
 10
3.7746
 20
-24.7349
 30
0.0
 10
3.6246
 20
-24.6837
 30
0.0
 10
3.5084
 20
-24.5807
 30
0.0
 10
3.5084
 20
-24.5807
 30
0.0
 10
3.3922
 20
-24.4776
 30
0.0
 10
3.3259
 20
-24.3412
 30
0.0
 10
3.3094
 20
-24.1714
 30
0.0
  0
SPLINE
  5
99
330
1F
100
AcDbEntity
  8
DEFAULT_1
 62
   250
100
AcDbSpline
210
0.0
220
0.0
230
1.0
 70
    11
 71
     3
 72
    20
 73
    16
 74
     0
 42
0.0000000001
 43
0.0000000001
 40
0.0
 40
0.0
 40
0.0
 40
0.0
 40
0.2
 40
0.2
 40
0.2
 40
0.2
 40
0.4
 40
0.4
 40
0.4
 40
0.4
 40
0.6
 40
0.6
 40
0.6
 40
0.6
 40
1.0
 40
1.0
 40
1.0
 40
1.0
 10
8.9592
 20
-24.6424
 30
0.0
 10
8.9592
 20
-24.6424
 30
0.0
 10
11.4592
 20
-24.9953
 30
0.0
 10
11.4592
 20
-24.9953
 30
0.0
 10
11.4592
 20
-24.9953
 30
0.0
 10
11.4592
 20
-24.9953
 30
0.0
 10
11.4592
 20
-25.0736
 30
0.0
 10
11.4592
 20
-25.0736
 30
0.0
 10
11.4592
 20
-25.0736
 30
0.0
 10
11.4592
 20
-25.0736
 30
0.0
 10
8.9592
 20
-25.4499
 30
0.0
 10
8.9592
 20
-25.4499
 30
0.0
 10
8.9592
 20
-25.4499
 30
0.0
 10
8.9592
 20
-25.4499
 30
0.0
 10
8.9592
 20
-24.6424
 30
0.0
 10
8.9592
 20
-24.6424
 30
0.0
  0
SPLINE
  5
9A
330
1F
100
AcDbEntity
  8
DEFAULT_1
 62
   250
100
AcDbSpline
210
0.0
220
0.0
230
1.0
 70
    11
 71
     3
 72
    20
 73
    16
 74
     0
 42
0.0000000001
 43
0.0000000001
 40
0.0
 40
0.0
 40
0.0
 40
0.0
 40
0.2
 40
0.2
 40
0.2
 40
0.2
 40
0.4
 40
0.4
 40
0.4
 40
0.4
 40
0.6
 40
0.6
 40
0.6
 40
0.6
 40
1.0
 40
1.0
 40
1.0
 40
1.0
 10
-3.8228
 20
-25.4389
 30
0.0
 10
-3.8228
 20
-25.4389
 30
0.0
 10
-6.3228
 20
-25.086
 30
0.0
 10
-6.3228
 20
-25.086
 30
0.0
 10
-6.3228
 20
-25.086
 30
0.0
 10
-6.3228
 20
-25.086
 30
0.0
 10
-6.3228
 20
-25.0077
 30
0.0
 10
-6.3228
 20
-25.0077
 30
0.0
 10
-6.3228
 20
-25.0077
 30
0.0
 10
-6.3228
 20
-25.0077
 30
0.0
 10
-3.8228
 20
-24.6314
 30
0.0
 10
-3.8228
 20
-24.6314
 30
0.0
 10
-3.8228
 20
-24.6314
 30
0.0
 10
-3.8228
 20
-24.6314
 30
0.0
 10
-3.8228
 20
-25.4389
 30
0.0
 10
-3.8228
 20
-25.4389
 30
0.0
  0
SPLINE
  5
9B
330
1F
100
AcDbEntity
  8
DEFAULT_1
 62
   250
100
AcDbSpline
210
0.0
220
0.0
230
1.0
 70
    11
 71
     3
 72
    40
 73
    36
 74
     0
 42
0.0000000001
 43
0.0000000001
 40
0.0
 40
0.0
 40
0.0
 40
0.0
 40
0.1
 40
0.1
 40
0.1
 40
0.1
 40
0.2
 40
0.2
 40
0.2
 40
0.2
 40
0.3
 40
0.3
 40
0.3
 40
0.3
 40
0.4
 40
0.4
 40
0.4
 40
0.4
 40
0.5
 40
0.5
 40
0.5
 40
0.5
 40
0.6
 40
0.6
 40
0.6
 40
0.6
 40
0.7
 40
0.7
 40
0.7
 40
0.7
 40
0.8
 40
0.8
 40
0.8
 40
0.8
 40
1.0
 40
1.0
 40
1.0
 40
1.0
 10
-10.4799
 20
-11.8906
 30
0.0
 10
-10.4799
 20
-11.8906
 30
0.0
 10
-10.4799
 20
-12.1385
 30
0.0
 10
-10.4799
 20
-12.1385
 30
0.0
 10
-10.4799
 20
-12.1385
 30
0.0
 10
-10.4799
 20
-12.1385
 30
0.0
 10
-12.0603
 20
-12.1385
 30
0.0
 10
-12.0603
 20
-12.1385
 30
0.0
 10
-12.0603
 20
-12.1385
 30
0.0
 10
-12.0034
 20
-12.1983
 30
0.0
 10
-11.9465
 20
-12.2763
 30
0.0
 10
-11.8896
 20
-12.3732
 30
0.0
 10
-11.8896
 20
-12.3732
 30
0.0
 10
-11.8327
 20
-12.4706
 30
0.0
 10
-11.7899
 20
-12.5576
 30
0.0
 10
-11.7616
 20
-12.6348
 30
0.0
 10
-11.7616
 20
-12.6348
 30
0.0
 10
-11.7616
 20
-12.6348
 30
0.0
 10
-12.0011
 20
-12.6348
 30
0.0
 10
-12.0011
 20
-12.6348
 30
0.0
 10
-12.0011
 20
-12.6348
 30
0.0
 10
-12.0664
 20
-12.496
 30
0.0
 10
-12.1455
 20
-12.3746
 30
0.0
 10
-12.2381
 20
-12.2707
 30
0.0
 10
-12.2381
 20
-12.2707
 30
0.0
 10
-12.3313
 20
-12.1672
 30
0.0
 10
-12.4211
 20
-12.0934
 30
0.0
 10
-12.5086
 20
-12.0501
 30
0.0
 10
-12.5086
 20
-12.0501
 30
0.0
 10
-12.5086
 20
-12.0501
 30
0.0
 10
-12.5086
 20
-11.8906
 30
0.0
 10
-12.5086
 20
-11.8906
 30
0.0
 10
-12.5086
 20
-11.8906
 30
0.0
 10
-12.5086
 20
-11.8906
 30
0.0
 10
-10.4799
 20
-11.8906
 30
0.0
 10
-10.4799
 20
-11.8906
 30
0.0
  0
SPLINE
  5
9C
330
1F
100
AcDbEntity
  8
DEFAULT_1
 62
   250
100
AcDbSpline
210
0.0
220
0.0
230
1.0
 70
    11
 71
     3
 72
    52
 73
    48
 74
     0
 42
0.0000000001
 43
0.0000000001
 40
0.0
 40
0.0
 40
0.0
 40
0.0
 40
0.0769230769230769
 40
0.0769230769230769
 40
0.0769230769230769
 40
0.0769230769230769
 40
0.1538461538461539
 40
0.1538461538461539
 40
0.1538461538461539
 40
0.1538461538461539
 40
0.2307692307692308
 40
0.2307692307692308
 40
0.2307692307692308
 40
0.2307692307692308
 40
0.3076923076923077
 40
0.3076923076923077
 40
0.3076923076923077
 40
0.3076923076923077
 40
0.3846153846153846
 40
0.3846153846153846
 40
0.3846153846153846
 40
0.3846153846153846
 40
0.4615384615384616
 40
0.4615384615384616
 40
0.4615384615384616
 40
0.4615384615384616
 40
0.5384615384615384
 40
0.5384615384615384
 40
0.5384615384615384
 40
0.5384615384615384
 40
0.6153846153846154
 40
0.6153846153846154
 40
0.6153846153846154
 40
0.6153846153846154
 40
0.6923076923076923
 40
0.6923076923076923
 40
0.6923076923076923
 40
0.6923076923076923
 40
0.7692307692307693
 40
0.7692307692307693
 40
0.7692307692307693
 40
0.7692307692307693
 40
0.8461538461538461
 40
0.8461538461538461
 40
0.8461538461538461
 40
0.8461538461538461
 40
1.0
 40
1.0
 40
1.0
 40
1.0
 10
-11.4761
 20
-11.2552
 30
0.0
 10
-11.7151
 20
-11.2552
 30
0.0
 10
-11.9075
 20
-11.2307
 30
0.0
 10
-12.0528
 20
-11.1813
 30
0.0
 10
-12.0528
 20
-11.1813
 30
0.0
 10
-12.1986
 20
-11.1324
 30
0.0
 10
-12.311
 20
-11.059
 30
0.0
 10
-12.3901
 20
-10.9621
 30
0.0
 10
-12.3901
 20
-10.9621
 30
0.0
 10
-12.4691
 20
-10.8652
 30
0.0
 10
-12.5086
 20
-10.7434
 30
0.0
 10
-12.5086
 20
-10.5967
 30
0.0
 10
-12.5086
 20
-10.5967
 30
0.0
 10
-12.5086
 20
-10.488
 30
0.0
 10
-12.4865
 20
-10.393
 30
0.0
 10
-12.4427
 20
-10.3112
 30
0.0
 10
-12.4427
 20
-10.3112
 30
0.0
 10
-12.3995
 20
-10.2293
 30
0.0
 10
-12.3364
 20
-10.162
 30
0.0
 10
-12.2541
 20
-10.1084
 30
0.0
 10
-12.2541
 20
-10.1084
 30
0.0
 10
-12.1718
 20
-10.0553
 30
0.0
 10
-12.0716
 20
-10.0134
 30
0.0
 10
-11.9536
 20
-9.9833
 30
0.0
 10
-11.9536
 20
-9.9833
 30
0.0
 10
-11.8355
 20
-9.9527
 30
0.0
 10
-11.6765
 20
-9.9377
 30
0.0
 10
-11.4761
 20
-9.9377
 30
0.0
 10
-11.4761
 20
-9.9377
 30
0.0
 10
-11.2391
 20
-9.9377
 30
0.0
 10
-11.0481
 20
-9.9621
 30
0.0
 10
-10.9023
 20
-10.0106
 30
0.0
 10
-10.9023
 20
-10.0106
 30
0.0
 10
-10.7565
 20
-10.0595
 30
0.0
 10
-10.6441
 20
-10.1324
 30
0.0
 10
-10.5646
 20
-10.2293
 30
0.0
 10
-10.5646
 20
-10.2293
 30
0.0
 10
-10.4851
 20
-10.3262
 30
0.0
 10
-10.4456
 20
-10.4485
 30
0.0
 10
-10.4456
 20
-10.5967
 30
0.0
 10
-10.4456
 20
-10.5967
 30
0.0
 10
-10.4456
 20
-10.7914
 30
0.0
 10
-10.5152
 20
-10.9443
 30
0.0
 10
-10.6549
 20
-11.0553
 30
0.0
 10
-10.6549
 20
-11.0553
 30
0.0
 10
-10.8228
 20
-11.1884
 30
0.0
 10
-11.097
 20
-11.2552
 30
0.0
 10
-11.4761
 20
-11.2552
 30
0.0
  0
SPLINE
  5
9D
330
1F
100
AcDbEntity
  8
DEFAULT_1
 62
   250
100
AcDbSpline
210
0.0
220
0.0
230
1.0
 70
    11
 71
     3
 72
    36
 73
    32
 74
     0
 42
0.0000000001
 43
0.0000000001
 40
0.0
 40
0.0
 40
0.0
 40
0.0
 40
0.1111111111111111
 40
0.1111111111111111
 40
0.1111111111111111
 40
0.1111111111111111
 40
0.2222222222222222
 40
0.2222222222222222
 40
0.2222222222222222
 40
0.2222222222222222
 40
0.3333333333333333
 40
0.3333333333333333
 40
0.3333333333333333
 40
0.3333333333333333
 40
0.4444444444444444
 40
0.4444444444444444
 40
0.4444444444444444
 40
0.4444444444444444
 40
0.5555555555555556
 40
0.5555555555555556
 40
0.5555555555555556
 40
0.5555555555555556
 40
0.6666666666666666
 40
0.6666666666666666
 40
0.6666666666666666
 40
0.6666666666666666
 40
0.7777777777777778
 40
0.7777777777777778
 40
0.7777777777777778
 40
0.7777777777777778
 40
1.0
 40
1.0
 40
1.0
 40
1.0
 10
-11.4761
 20
-11.0002
 30
0.0
 10
-11.1445
 20
-11.0002
 30
0.0
 10
-10.9239
 20
-10.9612
 30
0.0
 10
-10.8139
 20
-10.8836
 30
0.0
 10
-10.8139
 20
-10.8836
 30
0.0
 10
-10.7043
 20
-10.806
 30
0.0
 10
-10.6492
 20
-10.7105
 30
0.0
 10
-10.6492
 20
-10.5967
 30
0.0
 10
-10.6492
 20
-10.5967
 30
0.0
 10
-10.6492
 20
-10.4824
 30
0.0
 10
-10.7047
 20
-10.3869
 30
0.0
 10
-10.8148
 20
-10.3093
 30
0.0
 10
-10.8148
 20
-10.3093
 30
0.0
 10
-10.9249
 20
-10.2317
 30
0.0
 10
-11.1455
 20
-10.1926
 30
0.0
 10
-11.4761
 20
-10.1926
 30
0.0
 10
-11.4761
 20
-10.1926
 30
0.0
 10
-11.8087
 20
-10.1926
 30
0.0
 10
-12.0298
 20
-10.2317
 30
0.0
 10
-12.1389
 20
-10.3093
 30
0.0
 10
-12.1389
 20
-10.3093
 30
0.0
 10
-12.2485
 20
-10.3869
 30
0.0
 10
-12.303
 20
-10.4833
 30
0.0
 10
-12.303
 20
-10.599
 30
0.0
 10
-12.303
 20
-10.599
 30
0.0
 10
-12.303
 20
-10.7133
 30
0.0
 10
-12.2546
 20
-10.8041
 30
0.0
 10
-12.1582
 20
-10.8723
 30
0.0
 10
-12.1582
 20
-10.8723
 30
0.0
 10
-12.0354
 20
-10.9574
 30
0.0
 10
-11.8077
 20
-11.0002
 30
0.0
 10
-11.4761
 20
-11.0002
 30
0.0
  0
SPLINE
  5
9E
330
1F
100
AcDbEntity
  8
DEFAULT_1
 62
   250
100
AcDbSpline
210
0.0
220
0.0
230
1.0
 70
    11
 71
     3
 72
    92
 73
    88
 74
     0
 42
0.0000000001
 43
0.0000000001
 40
0.0
 40
0.0
 40
0.0
 40
0.0
 40
0.0434782608695652
 40
0.0434782608695652
 40
0.0434782608695652
 40
0.0434782608695652
 40
0.0869565217391304
 40
0.0869565217391304
 40
0.0869565217391304
 40
0.0869565217391304
 40
0.1304347826086956
 40
0.1304347826086956
 40
0.1304347826086956
 40
0.1304347826086956
 40
0.1739130434782609
 40
0.1739130434782609
 40
0.1739130434782609
 40
0.1739130434782609
 40
0.2173913043478261
 40
0.2173913043478261
 40
0.2173913043478261
 40
0.2173913043478261
 40
0.2608695652173913
 40
0.2608695652173913
 40
0.2608695652173913
 40
0.2608695652173913
 40
0.3043478260869565
 40
0.3043478260869565
 40
0.3043478260869565
 40
0.3043478260869565
 40
0.3478260869565217
 40
0.3478260869565217
 40
0.3478260869565217
 40
0.3478260869565217
 40
0.391304347826087
 40
0.391304347826087
 40
0.391304347826087
 40
0.391304347826087
 40
0.4347826086956522
 40
0.4347826086956522
 40
0.4347826086956522
 40
0.4347826086956522
 40
0.4782608695652174
 40
0.4782608695652174
 40
0.4782608695652174
 40
0.4782608695652174
 40
0.5217391304347826
 40
0.5217391304347826
 40
0.5217391304347826
 40
0.5217391304347826
 40
0.5652173913043478
 40
0.5652173913043478
 40
0.5652173913043478
 40
0.5652173913043478
 40
0.6086956521739131
 40
0.6086956521739131
 40
0.6086956521739131
 40
0.6086956521739131
 40
0.6521739130434783
 40
0.6521739130434783
 40
0.6521739130434783
 40
0.6521739130434783
 40
0.6956521739130435
 40
0.6956521739130435
 40
0.6956521739130435
 40
0.6956521739130435
 40
0.7391304347826086
 40
0.7391304347826086
 40
0.7391304347826086
 40
0.7391304347826086
 40
0.782608695652174
 40
0.782608695652174
 40
0.782608695652174
 40
0.782608695652174
 40
0.8260869565217391
 40
0.8260869565217391
 40
0.8260869565217391
 40
0.8260869565217391
 40
0.8695652173913043
 40
0.8695652173913043
 40
0.8695652173913043
 40
0.8695652173913043
 40
0.9130434782608695
 40
0.9130434782608695
 40
0.9130434782608695
 40
0.9130434782608695
 40
1.0
 40
1.0
 40
1.0
 40
1.0
 10
-11.0091
 20
-9.6856
 30
0.0
 10
-11.0091
 20
-9.6856
 30
0.0
 10
-11.0312
 20
-9.425
 30
0.0
 10
-11.0312
 20
-9.425
 30
0.0
 10
-11.0312
 20
-9.425
 30
0.0
 10
-10.9042
 20
-9.4057
 30
0.0
 10
-10.8092
 20
-9.361
 30
0.0
 10
-10.7452
 20
-9.2909
 30
0.0
 10
-10.7452
 20
-9.2909
 30
0.0
 10
-10.6812
 20
-9.2204
 30
0.0
 10
-10.6492
 20
-9.1357
 30
0.0
 10
-10.6492
 20
-9.0365
 30
0.0
 10
-10.6492
 20
-9.0365
 30
0.0
 10
-10.6492
 20
-8.917
 30
0.0
 10
-10.6944
 20
-8.8159
 30
0.0
 10
-10.7842
 20
-8.7336
 30
0.0
 10
-10.7842
 20
-8.7336
 30
0.0
 10
-10.8745
 20
-8.6508
 30
0.0
 10
-10.994
 20
-8.6094
 30
0.0
 10
-11.1426
 20
-8.6094
 30
0.0
 10
-11.1426
 20
-8.6094
 30
0.0
 10
-11.2842
 20
-8.6094
 30
0.0
 10
-11.3957
 20
-8.6489
 30
0.0
 10
-11.4775
 20
-8.7284
 30
0.0
 10
-11.4775
 20
-8.7284
 30
0.0
 10
-11.5594
 20
-8.8079
 30
0.0
 10
-11.6003
 20
-8.9118
 30
0.0
 10
-11.6003
 20
-9.0407
 30
0.0
 10
-11.6003
 20
-9.0407
 30
0.0
 10
-11.6003
 20
-9.1207
 30
0.0
 10
-11.582
 20
-9.1926
 30
0.0
 10
-11.5458
 20
-9.2571
 30
0.0
 10
-11.5458
 20
-9.2571
 30
0.0
 10
-11.5095
 20
-9.3215
 30
0.0
 10
-11.4625
 20
-9.3718
 30
0.0
 10
-11.4046
 20
-9.4085
 30
0.0
 10
-11.4046
 20
-9.4085
 30
0.0
 10
-11.4046
 20
-9.4085
 30
0.0
 10
-11.4347
 20
-9.6414
 30
0.0
 10
-11.4347
 20
-9.6414
 30
0.0
 10
-11.4347
 20
-9.6414
 30
0.0
 10
-11.4347
 20
-9.6414
 30
0.0
 10
-12.4724
 20
-9.4457
 30
0.0
 10
-12.4724
 20
-9.4457
 30
0.0
 10
-12.4724
 20
-9.4457
 30
0.0
 10
-12.4724
 20
-9.4457
 30
0.0
 10
-12.4724
 20
-8.441
 30
0.0
 10
-12.4724
 20
-8.441
 30
0.0
 10
-12.4724
 20
-8.441
 30
0.0
 10
-12.4724
 20
-8.441
 30
0.0
 10
-12.2353
 20
-8.441
 30
0.0
 10
-12.2353
 20
-8.441
 30
0.0
 10
-12.2353
 20
-8.441
 30
0.0
 10
-12.2353
 20
-8.441
 30
0.0
 10
-12.2353
 20
-9.2472
 30
0.0
 10
-12.2353
 20
-9.2472
 30
0.0
 10
-12.2353
 20
-9.2472
 30
0.0
 10
-12.2353
 20
-9.2472
 30
0.0
 10
-11.6925
 20
-9.3563
 30
0.0
 10
-11.6925
 20
-9.3563
 30
0.0
 10
-11.6925
 20
-9.3563
 30
0.0
 10
-11.7772
 20
-9.235
 30
0.0
 10
-11.8195
 20
-9.1075
 30
0.0
 10
-11.8195
 20
-8.9744
 30
0.0
 10
-11.8195
 20
-8.9744
 30
0.0
 10
-11.8195
 20
-8.798
 30
0.0
 10
-11.7584
 20
-8.6494
 30
0.0
 10
-11.6361
 20
-8.528
 30
0.0
 10
-11.6361
 20
-8.528
 30
0.0
 10
-11.5138
 20
-8.4067
 30
0.0
 10
-11.3567
 20
-8.346
 30
0.0
 10
-11.1648
 20
-8.346
 30
0.0
 10
-11.1648
 20
-8.346
 30
0.0
 10
-10.9818
 20
-8.346
 30
0.0
 10
-10.8237
 20
-8.3996
 30
0.0
 10
-10.6906
 20
-8.5059
 30
0.0
 10
-10.6906
 20
-8.5059
 30
0.0
 10
-10.5274
 20
-8.6357
 30
0.0
 10
-10.4456
 20
-8.8126
 30
0.0
 10
-10.4456
 20
-9.0365
 30
0.0
 10
-10.4456
 20
-9.0365
 30
0.0
 10
-10.4456
 20
-9.2204
 30
0.0
 10
-10.4968
 20
-9.3704
 30
0.0
 10
-10.5998
 20
-9.4866
 30
0.0
 10
-10.5998
 20
-9.4866
 30
0.0
 10
-10.7029
 20
-9.6028
 30
0.0
 10
-10.8393
 20
-9.6691
 30
0.0
 10
-11.0091
 20
-9.6856
 30
0.0
  0
SPLINE
  5
9F
330
1F
100
AcDbEntity
  8
DEFAULT_1
 62
   250
100
AcDbSpline
210
0.0
220
0.0
230
1.0
 70
    11
 71
     3
 72
    20
 73
    16
 74
     0
 42
0.0000000001
 43
0.0000000001
 40
0.0
 40
0.0
 40
0.0
 40
0.0
 40
0.2
 40
0.2
 40
0.2
 40
0.2
 40
0.4
 40
0.4
 40
0.4
 40
0.4
 40
0.6
 40
0.6
 40
0.6
 40
0.6
 40
1.0
 40
1.0
 40
1.0
 40
1.0
 10
-10.1305
 20
-4.1155
 30
0.0
 10
-10.1305
 20
-4.1155
 30
0.0
 10
-9.7776
 20
-1.6155
 30
0.0
 10
-9.7776
 20
-1.6155
 30
0.0
 10
-9.7776
 20
-1.6155
 30
0.0
 10
-9.7776
 20
-1.6155
 30
0.0
 10
-9.6993
 20
-1.6155
 30
0.0
 10
-9.6993
 20
-1.6155
 30
0.0
 10
-9.6993
 20
-1.6155
 30
0.0
 10
-9.6993
 20
-1.6155
 30
0.0
 10
-9.323
 20
-4.1155
 30
0.0
 10
-9.323
 20
-4.1155
 30
0.0
 10
-9.323
 20
-4.1155
 30
0.0
 10
-9.323
 20
-4.1155
 30
0.0
 10
-10.1305
 20
-4.1155
 30
0.0
 10
-10.1305
 20
-4.1155
 30
0.0
  0
SPLINE
  5
A0
330
1F
100
AcDbEntity
  8
DEFAULT_1
 62
   250
100
AcDbSpline
210
0.0
220
0.0
230
1.0
 70
    11
 71
     3
 72
    20
 73
    16
 74
     0
 42
0.0000000001
 43
0.0000000001
 40
0.0
 40
0.0
 40
0.0
 40
0.0
 40
0.2
 40
0.2
 40
0.2
 40
0.2
 40
0.4
 40
0.4
 40
0.4
 40
0.4
 40
0.6
 40
0.6
 40
0.6
 40
0.6
 40
1.0
 40
1.0
 40
1.0
 40
1.0
 10
-9.3607
 20
-16.5635
 30
0.0
 10
-9.3607
 20
-16.5635
 30
0.0
 10
-9.7136
 20
-19.0635
 30
0.0
 10
-9.7136
 20
-19.0635
 30
0.0
 10
-9.7136
 20
-19.0635
 30
0.0
 10
-9.7136
 20
-19.0635
 30
0.0
 10
-9.7919
 20
-19.0635
 30
0.0
 10
-9.7919
 20
-19.0635
 30
0.0
 10
-9.7919
 20
-19.0635
 30
0.0
 10
-9.7919
 20
-19.0635
 30
0.0
 10
-10.1682
 20
-16.5635
 30
0.0
 10
-10.1682
 20
-16.5635
 30
0.0
 10
-10.1682
 20
-16.5635
 30
0.0
 10
-10.1682
 20
-16.5635
 30
0.0
 10
-9.3607
 20
-16.5635
 30
0.0
 10
-9.3607
 20
-16.5635
 30
0.0
  0
SPLINE
  5
A1
330
1F
100
AcDbEntity
  8
DEFAULT_1
 62
   250
100
AcDbSpline
210
0.0
220
0.0
230
1.0
 70
    11
 71
     3
 72
    40
 73
    36
 74
     0
 42
0.0000000001
 43
0.0000000001
 40
0.0
 40
0.0
 40
0.0
 40
0.0
 40
0.1
 40
0.1
 40
0.1
 40
0.1
 40
0.2
 40
0.2
 40
0.2
 40
0.2
 40
0.3
 40
0.3
 40
0.3
 40
0.3
 40
0.4
 40
0.4
 40
0.4
 40
0.4
 40
0.5
 40
0.5
 40
0.5
 40
0.5
 40
0.6
 40
0.6
 40
0.6
 40
0.6
 40
0.7
 40
0.7
 40
0.7
 40
0.7
 40
0.8
 40
0.8
 40
0.8
 40
0.8
 40
1.0
 40
1.0
 40
1.0
 40
1.0
 10
-10.2751
 20
14.4741
 30
0.0
 10
-10.2751
 20
14.4741
 30
0.0
 10
-10.2751
 20
14.2262
 30
0.0
 10
-10.2751
 20
14.2262
 30
0.0
 10
-10.2751
 20
14.2262
 30
0.0
 10
-10.2751
 20
14.2262
 30
0.0
 10
-11.8555
 20
14.2262
 30
0.0
 10
-11.8555
 20
14.2262
 30
0.0
 10
-11.8555
 20
14.2262
 30
0.0
 10
-11.7986
 20
14.1664
 30
0.0
 10
-11.7417
 20
14.0884
 30
0.0
 10
-11.6848
 20
13.9915
 30
0.0
 10
-11.6848
 20
13.9915
 30
0.0
 10
-11.6279
 20
13.8941
 30
0.0
 10
-11.5851
 20
13.8071
 30
0.0
 10
-11.5568
 20
13.7299
 30
0.0
 10
-11.5568
 20
13.7299
 30
0.0
 10
-11.5568
 20
13.7299
 30
0.0
 10
-11.7963
 20
13.7299
 30
0.0
 10
-11.7963
 20
13.7299
 30
0.0
 10
-11.7963
 20
13.7299
 30
0.0
 10
-11.8616
 20
13.8687
 30
0.0
 10
-11.9407
 20
13.9901
 30
0.0
 10
-12.0333
 20
14.094
 30
0.0
 10
-12.0333
 20
14.094
 30
0.0
 10
-12.1265
 20
14.1975
 30
0.0
 10
-12.2163
 20
14.2713
 30
0.0
 10
-12.3038
 20
14.3146
 30
0.0
 10
-12.3038
 20
14.3146
 30
0.0
 10
-12.3038
 20
14.3146
 30
0.0
 10
-12.3038
 20
14.4741
 30
0.0
 10
-12.3038
 20
14.4741
 30
0.0
 10
-12.3038
 20
14.4741
 30
0.0
 10
-12.3038
 20
14.4741
 30
0.0
 10
-10.2751
 20
14.4741
 30
0.0
 10
-10.2751
 20
14.4741
 30
0.0
  0
SPLINE
  5
A2
330
1F
100
AcDbEntity
  8
DEFAULT_1
 62
   250
100
AcDbSpline
210
0.0
220
0.0
230
1.0
 70
    11
 71
     3
 72
    52
 73
    48
 74
     0
 42
0.0000000001
 43
0.0000000001
 40
0.0
 40
0.0
 40
0.0
 40
0.0
 40
0.0769230769230769
 40
0.0769230769230769
 40
0.0769230769230769
 40
0.0769230769230769
 40
0.1538461538461539
 40
0.1538461538461539
 40
0.1538461538461539
 40
0.1538461538461539
 40
0.2307692307692308
 40
0.2307692307692308
 40
0.2307692307692308
 40
0.2307692307692308
 40
0.3076923076923077
 40
0.3076923076923077
 40
0.3076923076923077
 40
0.3076923076923077
 40
0.3846153846153846
 40
0.3846153846153846
 40
0.3846153846153846
 40
0.3846153846153846
 40
0.4615384615384616
 40
0.4615384615384616
 40
0.4615384615384616
 40
0.4615384615384616
 40
0.5384615384615384
 40
0.5384615384615384
 40
0.5384615384615384
 40
0.5384615384615384
 40
0.6153846153846154
 40
0.6153846153846154
 40
0.6153846153846154
 40
0.6153846153846154
 40
0.6923076923076923
 40
0.6923076923076923
 40
0.6923076923076923
 40
0.6923076923076923
 40
0.7692307692307693
 40
0.7692307692307693
 40
0.7692307692307693
 40
0.7692307692307693
 40
0.8461538461538461
 40
0.8461538461538461
 40
0.8461538461538461
 40
0.8461538461538461
 40
1.0
 40
1.0
 40
1.0
 40
1.0
 10
-11.2713
 20
15.1095
 30
0.0
 10
-11.5103
 20
15.1095
 30
0.0
 10
-11.7027
 20
15.134
 30
0.0
 10
-11.848
 20
15.1834
 30
0.0
 10
-11.848
 20
15.1834
 30
0.0
 10
-11.9938
 20
15.2323
 30
0.0
 10
-12.1062
 20
15.3057
 30
0.0
 10
-12.1853
 20
15.4026
 30
0.0
 10
-12.1853
 20
15.4026
 30
0.0
 10
-12.2643
 20
15.4995
 30
0.0
 10
-12.3038
 20
15.6213
 30
0.0
 10
-12.3038
 20
15.768
 30
0.0
 10
-12.3038
 20
15.768
 30
0.0
 10
-12.3038
 20
15.8767
 30
0.0
 10
-12.2817
 20
15.9717
 30
0.0
 10
-12.2379
 20
16.0535
 30
0.0
 10
-12.2379
 20
16.0535
 30
0.0
 10
-12.1947
 20
16.1354
 30
0.0
 10
-12.1316
 20
16.2027
 30
0.0
 10
-12.0493
 20
16.2563
 30
0.0
 10
-12.0493
 20
16.2563
 30
0.0
 10
-11.967
 20
16.3094
 30
0.0
 10
-11.8668
 20
16.3513
 30
0.0
 10
-11.7488
 20
16.3814
 30
0.0
 10
-11.7488
 20
16.3814
 30
0.0
 10
-11.6307
 20
16.412
 30
0.0
 10
-11.4717
 20
16.427
 30
0.0
 10
-11.2713
 20
16.427
 30
0.0
 10
-11.2713
 20
16.427
 30
0.0
 10
-11.0343
 20
16.427
 30
0.0
 10
-10.8433
 20
16.4026
 30
0.0
 10
-10.6975
 20
16.3541
 30
0.0
 10
-10.6975
 20
16.3541
 30
0.0
 10
-10.5517
 20
16.3052
 30
0.0
 10
-10.4393
 20
16.2323
 30
0.0
 10
-10.3598
 20
16.1354
 30
0.0
 10
-10.3598
 20
16.1354
 30
0.0
 10
-10.2803
 20
16.0385
 30
0.0
 10
-10.2408
 20
15.9162
 30
0.0
 10
-10.2408
 20
15.768
 30
0.0
 10
-10.2408
 20
15.768
 30
0.0
 10
-10.2408
 20
15.5733
 30
0.0
 10
-10.3104
 20
15.4204
 30
0.0
 10
-10.4501
 20
15.3094
 30
0.0
 10
-10.4501
 20
15.3094
 30
0.0
 10
-10.618
 20
15.1763
 30
0.0
 10
-10.8922
 20
15.1095
 30
0.0
 10
-11.2713
 20
15.1095
 30
0.0
  0
SPLINE
  5
A3
330
1F
100
AcDbEntity
  8
DEFAULT_1
 62
   250
100
AcDbSpline
210
0.0
220
0.0
230
1.0
 70
    11
 71
     3
 72
    36
 73
    32
 74
     0
 42
0.0000000001
 43
0.0000000001
 40
0.0
 40
0.0
 40
0.0
 40
0.0
 40
0.1111111111111111
 40
0.1111111111111111
 40
0.1111111111111111
 40
0.1111111111111111
 40
0.2222222222222222
 40
0.2222222222222222
 40
0.2222222222222222
 40
0.2222222222222222
 40
0.3333333333333333
 40
0.3333333333333333
 40
0.3333333333333333
 40
0.3333333333333333
 40
0.4444444444444444
 40
0.4444444444444444
 40
0.4444444444444444
 40
0.4444444444444444
 40
0.5555555555555556
 40
0.5555555555555556
 40
0.5555555555555556
 40
0.5555555555555556
 40
0.6666666666666666
 40
0.6666666666666666
 40
0.6666666666666666
 40
0.6666666666666666
 40
0.7777777777777778
 40
0.7777777777777778
 40
0.7777777777777778
 40
0.7777777777777778
 40
1.0
 40
1.0
 40
1.0
 40
1.0
 10
-11.2713
 20
15.3645
 30
0.0
 10
-10.9397
 20
15.3645
 30
0.0
 10
-10.7191
 20
15.4035
 30
0.0
 10
-10.6091
 20
15.4811
 30
0.0
 10
-10.6091
 20
15.4811
 30
0.0
 10
-10.4995
 20
15.5587
 30
0.0
 10
-10.4444
 20
15.6542
 30
0.0
 10
-10.4444
 20
15.768
 30
0.0
 10
-10.4444
 20
15.768
 30
0.0
 10
-10.4444
 20
15.8823
 30
0.0
 10
-10.4999
 20
15.9778
 30
0.0
 10
-10.61
 20
16.0554
 30
0.0
 10
-10.61
 20
16.0554
 30
0.0
 10
-10.7201
 20
16.133
 30
0.0
 10
-10.9407
 20
16.1721
 30
0.0
 10
-11.2713
 20
16.1721
 30
0.0
 10
-11.2713
 20
16.1721
 30
0.0
 10
-11.6039
 20
16.1721
 30
0.0
 10
-11.825
 20
16.133
 30
0.0
 10
-11.9341
 20
16.0554
 30
0.0
 10
-11.9341
 20
16.0554
 30
0.0
 10
-12.0437
 20
15.9778
 30
0.0
 10
-12.0982
 20
15.8814
 30
0.0
 10
-12.0982
 20
15.7657
 30
0.0
 10
-12.0982
 20
15.7657
 30
0.0
 10
-12.0982
 20
15.6514
 30
0.0
 10
-12.0498
 20
15.5606
 30
0.0
 10
-11.9534
 20
15.4924
 30
0.0
 10
-11.9534
 20
15.4924
 30
0.0
 10
-11.8306
 20
15.4073
 30
0.0
 10
-11.6029
 20
15.3645
 30
0.0
 10
-11.2713
 20
15.3645
 30
0.0
  0
SPLINE
  5
A4
330
1F
100
AcDbEntity
  8
DEFAULT_1
 62
   250
100
AcDbSpline
210
0.0
220
0.0
230
1.0
 70
    11
 71
     3
 72
    48
 73
    44
 74
     0
 42
0.0000000001
 43
0.0000000001
 40
0.0
 40
0.0
 40
0.0
 40
0.0
 40
0.0833333333333333
 40
0.0833333333333333
 40
0.0833333333333333
 40
0.0833333333333333
 40
0.1666666666666667
 40
0.1666666666666667
 40
0.1666666666666667
 40
0.1666666666666667
 40
0.25
 40
0.25
 40
0.25
 40
0.25
 40
0.3333333333333333
 40
0.3333333333333333
 40
0.3333333333333333
 40
0.3333333333333333
 40
0.4166666666666667
 40
0.4166666666666667
 40
0.4166666666666667
 40
0.4166666666666667
 40
0.5
 40
0.5
 40
0.5
 40
0.5
 40
0.5833333333333334
 40
0.5833333333333334
 40
0.5833333333333334
 40
0.5833333333333334
 40
0.6666666666666666
 40
0.6666666666666666
 40
0.6666666666666666
 40
0.6666666666666666
 40
0.75
 40
0.75
 40
0.75
 40
0.75
 40
0.8333333333333334
 40
0.8333333333333334
 40
0.8333333333333334
 40
0.8333333333333334
 40
1.0
 40
1.0
 40
1.0
 40
1.0
 10
-12.0305
 20
16.6956
 30
0.0
 10
-12.0305
 20
16.6956
 30
0.0
 10
-12.269
 20
16.6956
 30
0.0
 10
-12.269
 20
16.6956
 30
0.0
 10
-12.269
 20
16.6956
 30
0.0
 10
-12.269
 20
16.6956
 30
0.0
 10
-12.269
 20
18.0032
 30
0.0
 10
-12.269
 20
18.0032
 30
0.0
 10
-12.269
 20
18.0032
 30
0.0
 10
-12.269
 20
18.0032
 30
0.0
 10
-12.0761
 20
18.0032
 30
0.0
 10
-12.0761
 20
18.0032
 30
0.0
 10
-12.0761
 20
18.0032
 30
0.0
 10
-11.9393
 20
17.8748
 30
0.0
 10
-11.7572
 20
17.7473
 30
0.0
 10
-11.5305
 20
17.6208
 30
0.0
 10
-11.5305
 20
17.6208
 30
0.0
 10
-11.3038
 20
17.4947
 30
0.0
 10
-11.07
 20
17.3969
 30
0.0
 10
-10.8306
 20
17.3282
 30
0.0
 10
-10.8306
 20
17.3282
 30
0.0
 10
-10.6613
 20
17.2784
 30
0.0
 10
-10.4764
 20
17.2469
 30
0.0
 10
-10.2751
 20
17.2332
 30
0.0
 10
-10.2751
 20
17.2332
 30
0.0
 10
-10.2751
 20
17.2332
 30
0.0
 10
-10.2751
 20
16.9783
 30
0.0
 10
-10.2751
 20
16.9783
 30
0.0
 10
-10.2751
 20
16.9783
 30
0.0
 10
-10.4341
 20
16.9811
 30
0.0
 10
-10.626
 20
17.0121
 30
0.0
 10
-10.8513
 20
17.0719
 30
0.0
 10
-10.8513
 20
17.0719
 30
0.0
 10
-11.0761
 20
17.1316
 30
0.0
 10
-11.2934
 20
17.2172
 30
0.0
 10
-11.5023
 20
17.3287
 30
0.0
 10
-11.5023
 20
17.3287
 30
0.0
 10
-11.7111
 20
17.4406
 30
0.0
 10
-11.8875
 20
17.5592
 30
0.0
 10
-12.0305
 20
17.6852
 30
0.0
 10
-12.0305
 20
17.6852
 30
0.0
 10
-12.0305
 20
17.6852
 30
0.0
 10
-12.0305
 20
16.6956
 30
0.0
 10
-12.0305
 20
16.6956
 30
0.0
  0
SPLINE
  5
A5
330
1F
100
AcDbEntity
  8
DEFAULT_1
 62
   250
100
AcDbSpline
210
0.0
220
0.0
230
1.0
 70
    11
 71
     3
 72
    20
 73
    16
 74
     0
 42
0.0000000001
 43
0.0000000001
 40
0.0
 40
0.0
 40
0.0
 40
0.0
 40
0.2
 40
0.2
 40
0.2
 40
0.2
 40
0.4
 40
0.4
 40
0.4
 40
0.4
 40
0.6
 40
0.6
 40
0.6
 40
0.6
 40
1.0
 40
1.0
 40
1.0
 40
1.0
 10
-10.2037
 20
22.2274
 30
0.0
 10
-10.2037
 20
22.2274
 30
0.0
 10
-9.8508
 20
24.7274
 30
0.0
 10
-9.8508
 20
24.7274
 30
0.0
 10
-9.8508
 20
24.7274
 30
0.0
 10
-9.8508
 20
24.7274
 30
0.0
 10
-9.7725
 20
24.7274
 30
0.0
 10
-9.7725
 20
24.7274
 30
0.0
 10
-9.7725
 20
24.7274
 30
0.0
 10
-9.7725
 20
24.7274
 30
0.0
 10
-9.3962
 20
22.2274
 30
0.0
 10
-9.3962
 20
22.2274
 30
0.0
 10
-9.3962
 20
22.2274
 30
0.0
 10
-9.3962
 20
22.2274
 30
0.0
 10
-10.2037
 20
22.2274
 30
0.0
 10
-10.2037
 20
22.2274
 30
0.0
  0
SPLINE
  5
A6
330
1F
100
AcDbEntity
  8
DEFAULT_1
 62
   250
100
AcDbSpline
210
0.0
220
0.0
230
1.0
 70
    11
 71
     3
 72
    20
 73
    16
 74
     0
 42
0.0000000001
 43
0.0000000001
 40
0.0
 40
0.0
 40
0.0
 40
0.0
 40
0.2
 40
0.2
 40
0.2
 40
0.2
 40
0.4
 40
0.4
 40
0.4
 40
0.4
 40
0.6
 40
0.6
 40
0.6
 40
0.6
 40
1.0
 40
1.0
 40
1.0
 40
1.0
 10
-9.3906
 20
9.3099
 30
0.0
 10
-9.3906
 20
9.3099
 30
0.0
 10
-9.7435
 20
6.8099
 30
0.0
 10
-9.7435
 20
6.8099
 30
0.0
 10
-9.7435
 20
6.8099
 30
0.0
 10
-9.7435
 20
6.8099
 30
0.0
 10
-9.8218
 20
6.8099
 30
0.0
 10
-9.8218
 20
6.8099
 30
0.0
 10
-9.8218
 20
6.8099
 30
0.0
 10
-9.8218
 20
6.8099
 30
0.0
 10
-10.1981
 20
9.3099
 30
0.0
 10
-10.1981
 20
9.3099
 30
0.0
 10
-10.1981
 20
9.3099
 30
0.0
 10
-10.1981
 20
9.3099
 30
0.0
 10
-9.3906
 20
9.3099
 30
0.0
 10
-9.3906
 20
9.3099
 30
0.0
  0
SPLINE
  5
A7
330
1F
100
AcDbEntity
  8
DEFAULT_1
 62
   250
100
AcDbSpline
210
0.0
220
0.0
230
1.0
 70
    11
 71
     3
 72
    84
 73
    80
 74
     0
 42
0.0000000001
 43
0.0000000001
 40
0.0
 40
0.0
 40
0.0
 40
0.0
 40
0.0476190476190476
 40
0.0476190476190476
 40
0.0476190476190476
 40
0.0476190476190476
 40
0.0952380952380952
 40
0.0952380952380952
 40
0.0952380952380952
 40
0.0952380952380952
 40
0.1428571428571428
 40
0.1428571428571428
 40
0.1428571428571428
 40
0.1428571428571428
 40
0.1904761904761905
 40
0.1904761904761905
 40
0.1904761904761905
 40
0.1904761904761905
 40
0.2380952380952381
 40
0.2380952380952381
 40
0.2380952380952381
 40
0.2380952380952381
 40
0.2857142857142857
 40
0.2857142857142857
 40
0.2857142857142857
 40
0.2857142857142857
 40
0.3333333333333333
 40
0.3333333333333333
 40
0.3333333333333333
 40
0.3333333333333333
 40
0.3809523809523809
 40
0.3809523809523809
 40
0.3809523809523809
 40
0.3809523809523809
 40
0.4285714285714285
 40
0.4285714285714285
 40
0.4285714285714285
 40
0.4285714285714285
 40
0.4761904761904762
 40
0.4761904761904762
 40
0.4761904761904762
 40
0.4761904761904762
 40
0.5238095238095238
 40
0.5238095238095238
 40
0.5238095238095238
 40
0.5238095238095238
 40
0.5714285714285714
 40
0.5714285714285714
 40
0.5714285714285714
 40
0.5714285714285714
 40
0.6190476190476191
 40
0.6190476190476191
 40
0.6190476190476191
 40
0.6190476190476191
 40
0.6666666666666666
 40
0.6666666666666666
 40
0.6666666666666666
 40
0.6666666666666666
 40
0.7142857142857143
 40
0.7142857142857143
 40
0.7142857142857143
 40
0.7142857142857143
 40
0.7619047619047619
 40
0.7619047619047619
 40
0.7619047619047619
 40
0.7619047619047619
 40
0.8095238095238095
 40
0.8095238095238095
 40
0.8095238095238095
 40
0.8095238095238095
 40
0.8571428571428571
 40
0.8571428571428571
 40
0.8571428571428571
 40
0.8571428571428571
 40
0.9047619047619048
 40
0.9047619047619048
 40
0.9047619047619048
 40
0.9047619047619048
 40
1.0
 40
1.0
 40
1.0
 40
1.0
 10
2.0531
 20
3.38
 30
0.0
 10
2.0531
 20
3.38
 30
0.0
 10
2.2845
 20
3.6391
 30
0.0
 10
2.2845
 20
3.6391
 30
0.0
 10
2.2845
 20
3.6391
 30
0.0
 10
2.2845
 20
3.6391
 30
0.0
 10
2.4209
 20
3.5234
 30
0.0
 10
2.4209
 20
3.5234
 30
0.0
 10
2.4209
 20
3.5234
 30
0.0
 10
2.4209
 20
3.5234
 30
0.0
 10
2.1787
 20
3.2506
 30
0.0
 10
2.1787
 20
3.2506
 30
0.0
 10
2.1787
 20
3.2506
 30
0.0
 10
2.2577
 20
3.133
 30
0.0
 10
2.3108
 20
3.03
 30
0.0
 10
2.3386
 20
2.9421
 30
0.0
 10
2.3386
 20
2.9421
 30
0.0
 10
2.3753
 20
2.8263
 30
0.0
 10
2.3936
 20
2.6965
 30
0.0
 10
2.3936
 20
2.5535
 30
0.0
 10
2.3936
 20
2.5535
 30
0.0
 10
2.3936
 20
2.3466
 30
0.0
 10
2.3518
 20
2.1622
 30
0.0
 10
2.268
 20
2.0009
 30
0.0
 10
2.268
 20
2.0009
 30
0.0
 10
2.1843
 20
1.839
 30
0.0
 10
2.0672
 20
1.7168
 30
0.0
 10
1.9162
 20
1.634
 30
0.0
 10
1.9162
 20
1.634
 30
0.0
 10
1.7647
 20
1.5517
 30
0.0
 10
1.6044
 20
1.5103
 30
0.0
 10
1.4346
 20
1.5103
 30
0.0
 10
1.4346
 20
1.5103
 30
0.0
 10
1.3076
 20
1.5103
 30
0.0
 10
1.1928
 20
1.5281
 30
0.0
 10
1.0898
 20
1.5639
 30
0.0
 10
1.0898
 20
1.5639
 30
0.0
 10
1.0108
 20
1.5916
 30
0.0
 10
0.9186
 20
1.6443
 30
0.0
 10
0.8127
 20
1.7224
 30
0.0
 10
0.8127
 20
1.7224
 30
0.0
 10
0.8127
 20
1.7224
 30
0.0
 10
0.5813
 20
1.4632
 30
0.0
 10
0.5813
 20
1.4632
 30
0.0
 10
0.5813
 20
1.4632
 30
0.0
 10
0.5813
 20
1.4632
 30
0.0
 10
0.4449
 20
1.5789
 30
0.0
 10
0.4449
 20
1.5789
 30
0.0
 10
0.4449
 20
1.5789
 30
0.0
 10
0.4449
 20
1.5789
 30
0.0
 10
0.6876
 20
1.8503
 30
0.0
 10
0.6876
 20
1.8503
 30
0.0
 10
0.6876
 20
1.8503
 30
0.0
 10
0.5973
 20
1.9872
 30
0.0
 10
0.5371
 20
2.1043
 30
0.0
 10
0.507
 20
2.2012
 30
0.0
 10
0.507
 20
2.2012
 30
0.0
 10
0.4769
 20
2.2981
 30
0.0
 10
0.4614
 20
2.4148
 30
0.0
 10
0.4614
 20
2.5507
 30
0.0
 10
0.4614
 20
2.5507
 30
0.0
 10
0.4614
 20
2.7581
 30
0.0
 10
0.5028
 20
2.943
 30
0.0
 10
0.5855
 20
3.1053
 30
0.0
 10
0.5855
 20
3.1053
 30
0.0
 10
0.6683
 20
3.2676
 30
0.0
 10
0.784
 20
3.3903
 30
0.0
 10
0.9336
 20
3.474
 30
0.0
 10
0.9336
 20
3.474
 30
0.0
 10
1.0827
 20
3.5573
 30
0.0
 10
1.2488
 20
3.5992
 30
0.0
 10
1.4317
 20
3.5992
 30
0.0
 10
1.4317
 20
3.5992
 30
0.0
 10
1.555
 20
3.5992
 30
0.0
 10
1.6627
 20
3.5832
 30
0.0
 10
1.7549
 20
3.5502
 30
0.0
 10
1.7549
 20
3.5502
 30
0.0
 10
1.8471
 20
3.5178
 30
0.0
 10
1.9468
 20
3.4609
 30
0.0
 10
2.0531
 20
3.38
 30
0.0
  0
SPLINE
  5
A8
330
1F
100
AcDbEntity
  8
DEFAULT_1
 62
   250
100
AcDbSpline
210
0.0
220
0.0
230
1.0
 70
    11
 71
     3
 72
    32
 73
    28
 74
     0
 42
0.0000000001
 43
0.0000000001
 40
0.0
 40
0.0
 40
0.0
 40
0.0
 40
0.125
 40
0.125
 40
0.125
 40
0.125
 40
0.25
 40
0.25
 40
0.25
 40
0.25
 40
0.375
 40
0.375
 40
0.375
 40
0.375
 40
0.5
 40
0.5
 40
0.5
 40
0.5
 40
0.625
 40
0.625
 40
0.625
 40
0.625
 40
0.75
 40
0.75
 40
0.75
 40
0.75
 40
1.0
 40
1.0
 40
1.0
 40
1.0
 10
1.888
 20
3.1942
 30
0.0
 10
1.8014
 20
3.2619
 30
0.0
 10
1.7257
 20
3.3085
 30
0.0
 10
1.6613
 20
3.3334
 30
0.0
 10
1.6613
 20
3.3334
 30
0.0
 10
1.5964
 20
3.3579
 30
0.0
 10
1.5202
 20
3.3706
 30
0.0
 10
1.4331
 20
3.3706
 30
0.0
 10
1.4331
 20
3.3706
 30
0.0
 10
1.2318
 20
3.3706
 30
0.0
 10
1.0658
 20
3.3024
 30
0.0
 10
0.9341
 20
3.166
 30
0.0
 10
0.9341
 20
3.166
 30
0.0
 10
0.8028
 20
3.0295
 30
0.0
 10
0.737
 20
2.8259
 30
0.0
 10
0.737
 20
2.5545
 30
0.0
 10
0.737
 20
2.5545
 30
0.0
 10
0.737
 20
2.4482
 30
0.0
 10
0.7473
 20
2.3536
 30
0.0
 10
0.7676
 20
2.2708
 30
0.0
 10
0.7676
 20
2.2708
 30
0.0
 10
0.7822
 20
2.2092
 30
0.0
 10
0.8127
 20
2.1335
 30
0.0
 10
0.8598
 20
2.0437
 30
0.0
 10
0.8598
 20
2.0437
 30
0.0
 10
0.8598
 20
2.0437
 30
0.0
 10
1.888
 20
3.1942
 30
0.0
 10
1.888
 20
3.1942
 30
0.0
  0
SPLINE
  5
A9
330
1F
100
AcDbEntity
  8
DEFAULT_1
 62
   250
100
AcDbSpline
210
0.0
220
0.0
230
1.0
 70
    11
 71
     3
 72
    28
 73
    24
 74
     0
 42
0.0000000001
 43
0.0000000001
 40
0.0
 40
0.0
 40
0.0
 40
0.0
 40
0.1428571428571428
 40
0.1428571428571428
 40
0.1428571428571428
 40
0.1428571428571428
 40
0.2857142857142857
 40
0.2857142857142857
 40
0.2857142857142857
 40
0.2857142857142857
 40
0.4285714285714285
 40
0.4285714285714285
 40
0.4285714285714285
 40
0.4285714285714285
 40
0.5714285714285714
 40
0.5714285714285714
 40
0.5714285714285714
 40
0.5714285714285714
 40
0.7142857142857143
 40
0.7142857142857143
 40
0.7142857142857143
 40
0.7142857142857143
 40
1.0
 40
1.0
 40
1.0
 40
1.0
 10
2.0009
 20
3.0521
 30
0.0
 10
2.0009
 20
3.0521
 30
0.0
 10
0.9769
 20
1.9058
 30
0.0
 10
0.9769
 20
1.9058
 30
0.0
 10
0.9769
 20
1.9058
 30
0.0
 10
1.0474
 20
1.848
 30
0.0
 10
1.1128
 20
1.8075
 30
0.0
 10
1.1726
 20
1.7845
 30
0.0
 10
1.1726
 20
1.7845
 30
0.0
 10
1.2506
 20
1.7539
 30
0.0
 10
1.3353
 20
1.7389
 30
0.0
 10
1.4261
 20
1.7389
 30
0.0
 10
1.4261
 20
1.7389
 30
0.0
 10
1.6265
 20
1.7389
 30
0.0
 10
1.7916
 20
1.8094
 30
0.0
 10
1.9223
 20
1.951
 30
0.0
 10
1.9223
 20
1.951
 30
0.0
 10
2.0526
 20
2.0926
 30
0.0
 10
2.118
 20
2.2911
 30
0.0
 10
2.118
 20
2.5465
 30
0.0
 10
2.118
 20
2.5465
 30
0.0
 10
2.118
 20
2.7374
 30
0.0
 10
2.079
 20
2.9063
 30
0.0
 10
2.0009
 20
3.0521
 30
0.0
  0
SPLINE
  5
AA
330
1F
100
AcDbEntity
  8
DEFAULT_1
 62
   250
100
AcDbSpline
210
0.0
220
0.0
230
1.0
 70
    11
 71
     3
 72
    40
 73
    36
 74
     0
 42
0.0000000001
 43
0.0000000001
 40
0.0
 40
0.0
 40
0.0
 40
0.0
 40
0.1
 40
0.1
 40
0.1
 40
0.1
 40
0.2
 40
0.2
 40
0.2
 40
0.2
 40
0.3
 40
0.3
 40
0.3
 40
0.3
 40
0.4
 40
0.4
 40
0.4
 40
0.4
 40
0.5
 40
0.5
 40
0.5
 40
0.5
 40
0.6
 40
0.6
 40
0.6
 40
0.6
 40
0.7
 40
0.7
 40
0.7
 40
0.7
 40
0.8
 40
0.8
 40
0.8
 40
0.8
 40
1.0
 40
1.0
 40
1.0
 40
1.0
 10
3.5771
 20
1.5446
 30
0.0
 10
3.5771
 20
1.5446
 30
0.0
 10
3.3292
 20
1.5446
 30
0.0
 10
3.3292
 20
1.5446
 30
0.0
 10
3.3292
 20
1.5446
 30
0.0
 10
3.3292
 20
1.5446
 30
0.0
 10
3.3292
 20
3.125
 30
0.0
 10
3.3292
 20
3.125
 30
0.0
 10
3.3292
 20
3.125
 30
0.0
 10
3.2694
 20
3.0681
 30
0.0
 10
3.1914
 20
3.0112
 30
0.0
 10
3.0945
 20
2.9543
 30
0.0
 10
3.0945
 20
2.9543
 30
0.0
 10
2.9971
 20
2.8974
 30
0.0
 10
2.9101
 20
2.8546
 30
0.0
 10
2.8329
 20
2.8263
 30
0.0
 10
2.8329
 20
2.8263
 30
0.0
 10
2.8329
 20
2.8263
 30
0.0
 10
2.8329
 20
3.0658
 30
0.0
 10
2.8329
 20
3.0658
 30
0.0
 10
2.8329
 20
3.0658
 30
0.0
 10
2.9717
 20
3.1311
 30
0.0
 10
3.0931
 20
3.2102
 30
0.0
 10
3.197
 20
3.3028
 30
0.0
 10
3.197
 20
3.3028
 30
0.0
 10
3.3005
 20
3.396
 30
0.0
 10
3.3743
 20
3.4858
 30
0.0
 10
3.4176
 20
3.5733
 30
0.0
 10
3.4176
 20
3.5733
 30
0.0
 10
3.4176
 20
3.5733
 30
0.0
 10
3.5771
 20
3.5733
 30
0.0
 10
3.5771
 20
3.5733
 30
0.0
 10
3.5771
 20
3.5733
 30
0.0
 10
3.5771
 20
3.5733
 30
0.0
 10
3.5771
 20
1.5446
 30
0.0
 10
3.5771
 20
1.5446
 30
0.0
  0
SPLINE
  5
AB
330
1F
100
AcDbEntity
  8
DEFAULT_1
 62
   250
100
AcDbSpline
210
0.0
220
0.0
230
1.0
 70
    11
 71
     3
 72
    52
 73
    48
 74
     0
 42
0.0000000001
 43
0.0000000001
 40
0.0
 40
0.0
 40
0.0
 40
0.0
 40
0.0769230769230769
 40
0.0769230769230769
 40
0.0769230769230769
 40
0.0769230769230769
 40
0.1538461538461539
 40
0.1538461538461539
 40
0.1538461538461539
 40
0.1538461538461539
 40
0.2307692307692308
 40
0.2307692307692308
 40
0.2307692307692308
 40
0.2307692307692308
 40
0.3076923076923077
 40
0.3076923076923077
 40
0.3076923076923077
 40
0.3076923076923077
 40
0.3846153846153846
 40
0.3846153846153846
 40
0.3846153846153846
 40
0.3846153846153846
 40
0.4615384615384616
 40
0.4615384615384616
 40
0.4615384615384616
 40
0.4615384615384616
 40
0.5384615384615384
 40
0.5384615384615384
 40
0.5384615384615384
 40
0.5384615384615384
 40
0.6153846153846154
 40
0.6153846153846154
 40
0.6153846153846154
 40
0.6153846153846154
 40
0.6923076923076923
 40
0.6923076923076923
 40
0.6923076923076923
 40
0.6923076923076923
 40
0.7692307692307693
 40
0.7692307692307693
 40
0.7692307692307693
 40
0.7692307692307693
 40
0.8461538461538461
 40
0.8461538461538461
 40
0.8461538461538461
 40
0.8461538461538461
 40
1.0
 40
1.0
 40
1.0
 40
1.0
 10
4.2125
 20
2.5408
 30
0.0
 10
4.2125
 20
2.7798
 30
0.0
 10
4.237
 20
2.9722
 30
0.0
 10
4.2864
 20
3.1175
 30
0.0
 10
4.2864
 20
3.1175
 30
0.0
 10
4.3353
 20
3.2633
 30
0.0
 10
4.4087
 20
3.3757
 30
0.0
 10
4.5056
 20
3.4548
 30
0.0
 10
4.5056
 20
3.4548
 30
0.0
 10
4.6025
 20
3.5338
 30
0.0
 10
4.7243
 20
3.5733
 30
0.0
 10
4.871
 20
3.5733
 30
0.0
 10
4.871
 20
3.5733
 30
0.0
 10
4.9797
 20
3.5733
 30
0.0
 10
5.0747
 20
3.5512
 30
0.0
 10
5.1565
 20
3.5074
 30
0.0
 10
5.1565
 20
3.5074
 30
0.0
 10
5.2384
 20
3.4642
 30
0.0
 10
5.3057
 20
3.4011
 30
0.0
 10
5.3593
 20
3.3188
 30
0.0
 10
5.3593
 20
3.3188
 30
0.0
 10
5.4124
 20
3.2365
 30
0.0
 10
5.4543
 20
3.1363
 30
0.0
 10
5.4844
 20
3.0183
 30
0.0
 10
5.4844
 20
3.0183
 30
0.0
 10
5.515
 20
2.9002
 30
0.0
 10
5.53
 20
2.7412
 30
0.0
 10
5.53
 20
2.5408
 30
0.0
 10
5.53
 20
2.5408
 30
0.0
 10
5.53
 20
2.3038
 30
0.0
 10
5.5056
 20
2.1128
 30
0.0
 10
5.4571
 20
1.967
 30
0.0
 10
5.4571
 20
1.967
 30
0.0
 10
5.4082
 20
1.8212
 30
0.0
 10
5.3353
 20
1.7088
 30
0.0
 10
5.2384
 20
1.6293
 30
0.0
 10
5.2384
 20
1.6293
 30
0.0
 10
5.1415
 20
1.5498
 30
0.0
 10
5.0192
 20
1.5103
 30
0.0
 10
4.871
 20
1.5103
 30
0.0
 10
4.871
 20
1.5103
 30
0.0
 10
4.6763
 20
1.5103
 30
0.0
 10
4.5234
 20
1.5799
 30
0.0
 10
4.4124
 20
1.7196
 30
0.0
 10
4.4124
 20
1.7196
 30
0.0
 10
4.2793
 20
1.8875
 30
0.0
 10
4.2125
 20
2.1617
 30
0.0
 10
4.2125
 20
2.5408
 30
0.0
  0
SPLINE
  5
AC
330
1F
100
AcDbEntity
  8
DEFAULT_1
 62
   250
100
AcDbSpline
210
0.0
220
0.0
230
1.0
 70
    11
 71
     3
 72
    36
 73
    32
 74
     0
 42
0.0000000001
 43
0.0000000001
 40
0.0
 40
0.0
 40
0.0
 40
0.0
 40
0.1111111111111111
 40
0.1111111111111111
 40
0.1111111111111111
 40
0.1111111111111111
 40
0.2222222222222222
 40
0.2222222222222222
 40
0.2222222222222222
 40
0.2222222222222222
 40
0.3333333333333333
 40
0.3333333333333333
 40
0.3333333333333333
 40
0.3333333333333333
 40
0.4444444444444444
 40
0.4444444444444444
 40
0.4444444444444444
 40
0.4444444444444444
 40
0.5555555555555556
 40
0.5555555555555556
 40
0.5555555555555556
 40
0.5555555555555556
 40
0.6666666666666666
 40
0.6666666666666666
 40
0.6666666666666666
 40
0.6666666666666666
 40
0.7777777777777778
 40
0.7777777777777778
 40
0.7777777777777778
 40
0.7777777777777778
 40
1.0
 40
1.0
 40
1.0
 40
1.0
 10
4.4675
 20
2.5408
 30
0.0
 10
4.4675
 20
2.2092
 30
0.0
 10
4.5065
 20
1.9886
 30
0.0
 10
4.5841
 20
1.8786
 30
0.0
 10
4.5841
 20
1.8786
 30
0.0
 10
4.6617
 20
1.769
 30
0.0
 10
4.7572
 20
1.7139
 30
0.0
 10
4.871
 20
1.7139
 30
0.0
 10
4.871
 20
1.7139
 30
0.0
 10
4.9853
 20
1.7139
 30
0.0
 10
5.0808
 20
1.7694
 30
0.0
 10
5.1584
 20
1.8795
 30
0.0
 10
5.1584
 20
1.8795
 30
0.0
 10
5.236
 20
1.9896
 30
0.0
 10
5.2751
 20
2.2102
 30
0.0
 10
5.2751
 20
2.5408
 30
0.0
 10
5.2751
 20
2.5408
 30
0.0
 10
5.2751
 20
2.8734
 30
0.0
 10
5.236
 20
3.0945
 30
0.0
 10
5.1584
 20
3.2036
 30
0.0
 10
5.1584
 20
3.2036
 30
0.0
 10
5.0808
 20
3.3132
 30
0.0
 10
4.9844
 20
3.3677
 30
0.0
 10
4.8687
 20
3.3677
 30
0.0
 10
4.8687
 20
3.3677
 30
0.0
 10
4.7544
 20
3.3677
 30
0.0
 10
4.6636
 20
3.3193
 30
0.0
 10
4.5954
 20
3.2229
 30
0.0
 10
4.5954
 20
3.2229
 30
0.0
 10
4.5103
 20
3.1001
 30
0.0
 10
4.4675
 20
2.8724
 30
0.0
 10
4.4675
 20
2.5408
 30
0.0
  0
SPLINE
  5
AD
330
1F
100
AcDbEntity
  8
DEFAULT_1
 62
   250
100
AcDbSpline
210
0.0
220
0.0
230
1.0
 70
    11
 71
     3
 72
    48
 73
    44
 74
     0
 42
0.0000000001
 43
0.0000000001
 40
0.0
 40
0.0
 40
0.0
 40
0.0
 40
0.0833333333333333
 40
0.0833333333333333
 40
0.0833333333333333
 40
0.0833333333333333
 40
0.1666666666666667
 40
0.1666666666666667
 40
0.1666666666666667
 40
0.1666666666666667
 40
0.25
 40
0.25
 40
0.25
 40
0.25
 40
0.3333333333333333
 40
0.3333333333333333
 40
0.3333333333333333
 40
0.3333333333333333
 40
0.4166666666666667
 40
0.4166666666666667
 40
0.4166666666666667
 40
0.4166666666666667
 40
0.5
 40
0.5
 40
0.5
 40
0.5
 40
0.5833333333333334
 40
0.5833333333333334
 40
0.5833333333333334
 40
0.5833333333333334
 40
0.6666666666666666
 40
0.6666666666666666
 40
0.6666666666666666
 40
0.6666666666666666
 40
0.75
 40
0.75
 40
0.75
 40
0.75
 40
0.8333333333333334
 40
0.8333333333333334
 40
0.8333333333333334
 40
0.8333333333333334
 40
1.0
 40
1.0
 40
1.0
 40
1.0
 10
6.577
 20
1.5446
 30
0.0
 10
6.577
 20
1.5446
 30
0.0
 10
6.577
 20
2.0281
 30
0.0
 10
6.577
 20
2.0281
 30
0.0
 10
6.577
 20
2.0281
 30
0.0
 10
6.577
 20
2.0281
 30
0.0
 10
5.7007
 20
2.0281
 30
0.0
 10
5.7007
 20
2.0281
 30
0.0
 10
5.7007
 20
2.0281
 30
0.0
 10
5.7007
 20
2.0281
 30
0.0
 10
5.7007
 20
2.2558
 30
0.0
 10
5.7007
 20
2.2558
 30
0.0
 10
5.7007
 20
2.2558
 30
0.0
 10
5.7007
 20
2.2558
 30
0.0
 10
6.6227
 20
3.5648
 30
0.0
 10
6.6227
 20
3.5648
 30
0.0
 10
6.6227
 20
3.5648
 30
0.0
 10
6.6227
 20
3.5648
 30
0.0
 10
6.8254
 20
3.5648
 30
0.0
 10
6.8254
 20
3.5648
 30
0.0
 10
6.8254
 20
3.5648
 30
0.0
 10
6.8254
 20
3.5648
 30
0.0
 10
6.8254
 20
2.2558
 30
0.0
 10
6.8254
 20
2.2558
 30
0.0
 10
6.8254
 20
2.2558
 30
0.0
 10
6.8254
 20
2.2558
 30
0.0
 10
7.0982
 20
2.2558
 30
0.0
 10
7.0982
 20
2.2558
 30
0.0
 10
7.0982
 20
2.2558
 30
0.0
 10
7.0982
 20
2.2558
 30
0.0
 10
7.0982
 20
2.0281
 30
0.0
 10
7.0982
 20
2.0281
 30
0.0
 10
7.0982
 20
2.0281
 30
0.0
 10
7.0982
 20
2.0281
 30
0.0
 10
6.8254
 20
2.0281
 30
0.0
 10
6.8254
 20
2.0281
 30
0.0
 10
6.8254
 20
2.0281
 30
0.0
 10
6.8254
 20
2.0281
 30
0.0
 10
6.8254
 20
1.5446
 30
0.0
 10
6.8254
 20
1.5446
 30
0.0
 10
6.8254
 20
1.5446
 30
0.0
 10
6.8254
 20
1.5446
 30
0.0
 10
6.577
 20
1.5446
 30
0.0
 10
6.577
 20
1.5446
 30
0.0
  0
SPLINE
  5
AE
330
1F
100
AcDbEntity
  8
DEFAULT_1
 62
   250
100
AcDbSpline
210
0.0
220
0.0
230
1.0
 70
    11
 71
     3
 72
    16
 73
    12
 74
     0
 42
0.0000000001
 43
0.0000000001
 40
0.0
 40
0.0
 40
0.0
 40
0.0
 40
0.25
 40
0.25
 40
0.25
 40
0.25
 40
0.5
 40
0.5
 40
0.5
 40
0.5
 40
1.0
 40
1.0
 40
1.0
 40
1.0
 10
6.577
 20
2.2558
 30
0.0
 10
6.577
 20
2.2558
 30
0.0
 10
6.577
 20
3.1664
 30
0.0
 10
6.577
 20
3.1664
 30
0.0
 10
6.577
 20
3.1664
 30
0.0
 10
6.577
 20
3.1664
 30
0.0
 10
5.9449
 20
2.2558
 30
0.0
 10
5.9449
 20
2.2558
 30
0.0
 10
5.9449
 20
2.2558
 30
0.0
 10
5.9449
 20
2.2558
 30
0.0
 10
6.577
 20
2.2558
 30
0.0
 10
6.577
 20
2.2558
 30
0.0
  0
SPLINE
  5
AF
330
1F
100
AcDbEntity
  8
DEFAULT_1
 62
   250
100
AcDbSpline
210
0.0
220
0.0
230
1.0
 70
    11
 71
     3
 72
    20
 73
    16
 74
     0
 42
0.0000000001
 43
0.0000000001
 40
0.0
 40
0.0
 40
0.0
 40
0.0
 40
0.2
 40
0.2
 40
0.2
 40
0.2
 40
0.4
 40
0.4
 40
0.4
 40
0.4
 40
0.6
 40
0.6
 40
0.6
 40
0.6
 40
1.0
 40
1.0
 40
1.0
 40
1.0
 10
9.0353
 20
1.4869
 30
0.0
 10
9.0353
 20
1.4869
 30
0.0
 10
11.5353
 20
1.134
 30
0.0
 10
11.5353
 20
1.134
 30
0.0
 10
11.5353
 20
1.134
 30
0.0
 10
11.5353
 20
1.134
 30
0.0
 10
11.5353
 20
1.0557
 30
0.0
 10
11.5353
 20
1.0557
 30
0.0
 10
11.5353
 20
1.0557
 30
0.0
 10
11.5353
 20
1.0557
 30
0.0
 10
9.0353
 20
0.6794
 30
0.0
 10
9.0353
 20
0.6794
 30
0.0
 10
9.0353
 20
0.6794
 30
0.0
 10
9.0353
 20
0.6794
 30
0.0
 10
9.0353
 20
1.4869
 30
0.0
 10
9.0353
 20
1.4869
 30
0.0
  0
SPLINE
  5
B0
330
1F
100
AcDbEntity
  8
DEFAULT_1
 62
   250
100
AcDbSpline
210
0.0
220
0.0
230
1.0
 70
    11
 71
     3
 72
    20
 73
    16
 74
     0
 42
0.0000000001
 43
0.0000000001
 40
0.0
 40
0.0
 40
0.0
 40
0.0
 40
0.2
 40
0.2
 40
0.2
 40
0.2
 40
0.4
 40
0.4
 40
0.4
 40
0.4
 40
0.6
 40
0.6
 40
0.6
 40
0.6
 40
1.0
 40
1.0
 40
1.0
 40
1.0
 10
-3.6704
 20
0.722
 30
0.0
 10
-3.6704
 20
0.722
 30
0.0
 10
-6.1704
 20
1.0749
 30
0.0
 10
-6.1704
 20
1.0749
 30
0.0
 10
-6.1704
 20
1.0749
 30
0.0
 10
-6.1704
 20
1.0749
 30
0.0
 10
-6.1704
 20
1.1532
 30
0.0
 10
-6.1704
 20
1.1532
 30
0.0
 10
-6.1704
 20
1.1532
 30
0.0
 10
-6.1704
 20
1.1532
 30
0.0
 10
-3.6704
 20
1.5295
 30
0.0
 10
-3.6704
 20
1.5295
 30
0.0
 10
-3.6704
 20
1.5295
 30
0.0
 10
-3.6704
 20
1.5295
 30
0.0
 10
-3.6704
 20
0.722
 30
0.0
 10
-3.6704
 20
0.722
 30
0.0
  0
SPLINE
  5
B1
330
1F
100
AcDbEntity
  8
DEFAULT_1
 62
   250
100
AcDbSpline
210
0.0
220
0.0
230
1.0
 70
    24
 71
     3
 72
     8
 73
     4
 74
     0
 42
0.0000000001
 43
0.0000000001
 40
0.0
 40
0.0
 40
0.0
 40
0.0
 40
1.0
 40
1.0
 40
1.0
 40
1.0
 10
-5.8327
 20
6.7077
 30
0.0
 10
-5.8327
 20
6.7077
 30
0.0
 10
11.2708
 20
6.7077
 30
0.0
 10
11.2708
 20
6.7077
 30
0.0
  0
SPLINE
  5
B2
330
1F
100
AcDbEntity
  8
DEFAULT_1
 62
   250
100
AcDbSpline
210
0.0
220
0.0
230
1.0
 70
    24
 71
     3
 72
     8
 73
     4
 74
     0
 42
0.0000000001
 43
0.0000000001
 40
0.0
 40
0.0
 40
0.0
 40
0.0
 40
1.0
 40
1.0
 40
1.0
 40
1.0
 10
11.4994
 20
7.4931
 30
0.0
 10
11.4994
 20
7.4931
 30
0.0
 10
11.4994
 20
7.2769
 30
0.0
 10
11.4994
 20
7.2769
 30
0.0
  0
SPLINE
  5
B3
330
1F
100
AcDbEntity
  8
DEFAULT_1
 62
   250
100
AcDbSpline
210
0.0
220
0.0
230
1.0
 70
    24
 71
     3
 72
     8
 73
     4
 74
     0
 42
0.0000000001
 43
0.0000000001
 40
0.0
 40
0.0
 40
0.0
 40
0.0
 40
1.0
 40
1.0
 40
1.0
 40
1.0
 10
11.2708
 20
7.2157
 30
0.0
 10
11.2708
 20
7.2157
 30
0.0
 10
11.2708
 20
6.7077
 30
0.0
 10
11.2708
 20
6.7077
 30
0.0
  0
SPLINE
  5
B4
330
1F
100
AcDbEntity
  8
DEFAULT_1
 62
   250
100
AcDbSpline
210
0.0
220
0.0
230
1.0
 70
    24
 71
     3
 72
     8
 73
     4
 74
     0
 42
0.0000000001
 43
0.0000000001
 40
0.0
 40
0.0
 40
0.0
 40
0.0
 40
1.0
 40
1.0
 40
1.0
 40
1.0
 10
11.2708
 20
7.2157
 30
0.0
 10
11.2708
 20
7.2157
 30
0.0
 10
11.4994
 20
7.2769
 30
0.0
 10
11.4994
 20
7.2769
 30
0.0
  0
SPLINE
  5
B5
330
1F
100
AcDbEntity
  8
DEFAULT_1
 62
   250
100
AcDbSpline
210
0.0
220
0.0
230
1.0
 70
    24
 71
     3
 72
     8
 73
     4
 74
     0
 42
0.0000000001
 43
0.0000000001
 40
0.0
 40
0.0
 40
0.0
 40
0.0
 40
1.0
 40
1.0
 40
1.0
 40
1.0
 10
11.2708
 20
7.5544
 30
0.0
 10
11.2708
 20
7.5544
 30
0.0
 10
11.4994
 20
7.4931
 30
0.0
 10
11.4994
 20
7.4931
 30
0.0
  0
SPLINE
  5
B6
330
1F
100
AcDbEntity
  8
DEFAULT_1
 62
   250
100
AcDbSpline
210
0.0
220
0.0
230
1.0
 70
    24
 71
     3
 72
     8
 73
     4
 74
     0
 42
0.0000000001
 43
0.0000000001
 40
0.0
 40
0.0
 40
0.0
 40
0.0
 40
1.0
 40
1.0
 40
1.0
 40
1.0
 10
11.2708
 20
7.5544
 30
0.0
 10
11.2708
 20
7.5544
 30
0.0
 10
11.2708
 20
7.9778
 30
0.0
 10
11.2708
 20
7.9778
 30
0.0
  0
SPLINE
  5
B7
330
1F
100
AcDbEntity
  8
DEFAULT_1
 62
   250
100
AcDbSpline
210
0.0
220
0.0
230
1.0
 70
    24
 71
     3
 72
     8
 73
     4
 74
     0
 42
0.0000000001
 43
0.0000000001
 40
0.0
 40
0.0
 40
0.0
 40
0.0
 40
1.0
 40
1.0
 40
1.0
 40
1.0
 10
11.2708
 20
8.655
 30
0.0
 10
11.2708
 20
8.655
 30
0.0
 10
11.2708
 20
8.2317
 30
0.0
 10
11.2708
 20
8.2317
 30
0.0
  0
SPLINE
  5
B8
330
1F
100
AcDbEntity
  8
DEFAULT_1
 62
   250
100
AcDbSpline
210
0.0
220
0.0
230
1.0
 70
    24
 71
     3
 72
     8
 73
     4
 74
     0
 42
0.0000000001
 43
0.0000000001
 40
0.0
 40
0.0
 40
0.0
 40
0.0
 40
1.0
 40
1.0
 40
1.0
 40
1.0
 10
11.4994
 20
8.1705
 30
0.0
 10
11.4994
 20
8.1705
 30
0.0
 10
11.4994
 20
8.039
 30
0.0
 10
11.4994
 20
8.039
 30
0.0
  0
SPLINE
  5
B9
330
1F
100
AcDbEntity
  8
DEFAULT_1
 62
   250
100
AcDbSpline
210
0.0
220
0.0
230
1.0
 70
    24
 71
     3
 72
     8
 73
     4
 74
     0
 42
0.0000000001
 43
0.0000000001
 40
0.0
 40
0.0
 40
0.0
 40
0.0
 40
1.0
 40
1.0
 40
1.0
 40
1.0
 10
11.2708
 20
7.9778
 30
0.0
 10
11.2708
 20
7.9778
 30
0.0
 10
11.4994
 20
8.039
 30
0.0
 10
11.4994
 20
8.039
 30
0.0
  0
SPLINE
  5
BA
330
1F
100
AcDbEntity
  8
DEFAULT_1
 62
   250
100
AcDbSpline
210
0.0
220
0.0
230
1.0
 70
    24
 71
     3
 72
     8
 73
     4
 74
     0
 42
0.0000000001
 43
0.0000000001
 40
0.0
 40
0.0
 40
0.0
 40
0.0
 40
1.0
 40
1.0
 40
1.0
 40
1.0
 10
11.4994
 20
8.7164
 30
0.0
 10
11.4994
 20
8.7164
 30
0.0
 10
11.2708
 20
8.655
 30
0.0
 10
11.2708
 20
8.655
 30
0.0
  0
SPLINE
  5
BB
330
1F
100
AcDbEntity
  8
DEFAULT_1
 62
   250
100
AcDbSpline
210
0.0
220
0.0
230
1.0
 70
    24
 71
     3
 72
     8
 73
     4
 74
     0
 42
0.0000000001
 43
0.0000000001
 40
0.0
 40
0.0
 40
0.0
 40
0.0
 40
1.0
 40
1.0
 40
1.0
 40
1.0
 10
11.4994
 20
8.1705
 30
0.0
 10
11.4994
 20
8.1705
 30
0.0
 10
11.2708
 20
8.2317
 30
0.0
 10
11.2708
 20
8.2317
 30
0.0
  0
SPLINE
  5
BC
330
1F
100
AcDbEntity
  8
DEFAULT_1
 62
   250
100
AcDbSpline
210
0.0
220
0.0
230
1.0
 70
    24
 71
     3
 72
     8
 73
     4
 74
     0
 42
0.0000000001
 43
0.0000000001
 40
0.0
 40
0.0
 40
0.0
 40
0.0
 40
1.0
 40
1.0
 40
1.0
 40
1.0
 10
11.2708
 20
8.9091
 30
0.0
 10
11.2708
 20
8.9091
 30
0.0
 10
11.4994
 20
8.8479
 30
0.0
 10
11.4994
 20
8.8479
 30
0.0
  0
SPLINE
  5
BD
330
1F
100
AcDbEntity
  8
DEFAULT_1
 62
   250
100
AcDbSpline
210
0.0
220
0.0
230
1.0
 70
    24
 71
     3
 72
     8
 73
     4
 74
     0
 42
0.0000000001
 43
0.0000000001
 40
0.0
 40
0.0
 40
0.0
 40
0.0
 40
1.0
 40
1.0
 40
1.0
 40
1.0
 10
11.4994
 20
8.7164
 30
0.0
 10
11.4994
 20
8.7164
 30
0.0
 10
11.4994
 20
8.8479
 30
0.0
 10
11.4994
 20
8.8479
 30
0.0
  0
SPLINE
  5
BE
330
1F
100
AcDbEntity
  8
DEFAULT_1
 62
   250
100
AcDbSpline
210
0.0
220
0.0
230
1.0
 70
    24
 71
     3
 72
     8
 73
     4
 74
     0
 42
0.0000000001
 43
0.0000000001
 40
0.0
 40
0.0
 40
0.0
 40
0.0
 40
1.0
 40
1.0
 40
1.0
 40
1.0
 10
11.4994
 20
9.5252
 30
0.0
 10
11.4994
 20
9.5252
 30
0.0
 10
11.4994
 20
9.3937
 30
0.0
 10
11.4994
 20
9.3937
 30
0.0
  0
SPLINE
  5
BF
330
1F
100
AcDbEntity
  8
DEFAULT_1
 62
   250
100
AcDbSpline
210
0.0
220
0.0
230
1.0
 70
    24
 71
     3
 72
     8
 73
     4
 74
     0
 42
0.0000000001
 43
0.0000000001
 40
0.0
 40
0.0
 40
0.0
 40
0.0
 40
1.0
 40
1.0
 40
1.0
 40
1.0
 10
11.2708
 20
8.9091
 30
0.0
 10
11.2708
 20
8.9091
 30
0.0
 10
11.2708
 20
9.3324
 30
0.0
 10
11.2708
 20
9.3324
 30
0.0
  0
SPLINE
  5
C0
330
1F
100
AcDbEntity
  8
DEFAULT_1
 62
   250
100
AcDbSpline
210
0.0
220
0.0
230
1.0
 70
    24
 71
     3
 72
     8
 73
     4
 74
     0
 42
0.0000000001
 43
0.0000000001
 40
0.0
 40
0.0
 40
0.0
 40
0.0
 40
1.0
 40
1.0
 40
1.0
 40
1.0
 10
11.2708
 20
10.0098
 30
0.0
 10
11.2708
 20
10.0098
 30
0.0
 10
11.2708
 20
9.5865
 30
0.0
 10
11.2708
 20
9.5865
 30
0.0
  0
SPLINE
  5
C1
330
1F
100
AcDbEntity
  8
DEFAULT_1
 62
   250
100
AcDbSpline
210
0.0
220
0.0
230
1.0
 70
    24
 71
     3
 72
     8
 73
     4
 74
     0
 42
0.0000000001
 43
0.0000000001
 40
0.0
 40
0.0
 40
0.0
 40
0.0
 40
1.0
 40
1.0
 40
1.0
 40
1.0
 10
11.4994
 20
9.3937
 30
0.0
 10
11.4994
 20
9.3937
 30
0.0
 10
11.2708
 20
9.3324
 30
0.0
 10
11.2708
 20
9.3324
 30
0.0
  0
SPLINE
  5
C2
330
1F
100
AcDbEntity
  8
DEFAULT_1
 62
   250
100
AcDbSpline
210
0.0
220
0.0
230
1.0
 70
    24
 71
     3
 72
     8
 73
     4
 74
     0
 42
0.0000000001
 43
0.0000000001
 40
0.0
 40
0.0
 40
0.0
 40
0.0
 40
1.0
 40
1.0
 40
1.0
 40
1.0
 10
11.4994
 20
9.5252
 30
0.0
 10
11.4994
 20
9.5252
 30
0.0
 10
11.2708
 20
9.5865
 30
0.0
 10
11.2708
 20
9.5865
 30
0.0
  0
SPLINE
  5
C3
330
1F
100
AcDbEntity
  8
DEFAULT_1
 62
   250
100
AcDbSpline
210
0.0
220
0.0
230
1.0
 70
    24
 71
     3
 72
     8
 73
     4
 74
     0
 42
0.0000000001
 43
0.0000000001
 40
0.0
 40
0.0
 40
0.0
 40
0.0
 40
1.0
 40
1.0
 40
1.0
 40
1.0
 10
11.2708
 20
10.2638
 30
0.0
 10
11.2708
 20
10.2638
 30
0.0
 10
11.4994
 20
10.2026
 30
0.0
 10
11.4994
 20
10.2026
 30
0.0
  0
SPLINE
  5
C4
330
1F
100
AcDbEntity
  8
DEFAULT_1
 62
   250
100
AcDbSpline
210
0.0
220
0.0
230
1.0
 70
    24
 71
     3
 72
     8
 73
     4
 74
     0
 42
0.0000000001
 43
0.0000000001
 40
0.0
 40
0.0
 40
0.0
 40
0.0
 40
1.0
 40
1.0
 40
1.0
 40
1.0
 10
11.4994
 20
10.0711
 30
0.0
 10
11.4994
 20
10.0711
 30
0.0
 10
11.2708
 20
10.0098
 30
0.0
 10
11.2708
 20
10.0098
 30
0.0
  0
SPLINE
  5
C5
330
1F
100
AcDbEntity
  8
DEFAULT_1
 62
   250
100
AcDbSpline
210
0.0
220
0.0
230
1.0
 70
    24
 71
     3
 72
     8
 73
     4
 74
     0
 42
0.0000000001
 43
0.0000000001
 40
0.0
 40
0.0
 40
0.0
 40
0.0
 40
1.0
 40
1.0
 40
1.0
 40
1.0
 10
11.4994
 20
10.0711
 30
0.0
 10
11.4994
 20
10.0711
 30
0.0
 10
11.4994
 20
10.2026
 30
0.0
 10
11.4994
 20
10.2026
 30
0.0
  0
SPLINE
  5
C6
330
1F
100
AcDbEntity
  8
DEFAULT_1
 62
   250
100
AcDbSpline
210
0.0
220
0.0
230
1.0
 70
    24
 71
     3
 72
     8
 73
     4
 74
     0
 42
0.0000000001
 43
0.0000000001
 40
0.0
 40
0.0
 40
0.0
 40
0.0
 40
1.0
 40
1.0
 40
1.0
 40
1.0
 10
11.4994
 20
10.8799
 30
0.0
 10
11.4994
 20
10.8799
 30
0.0
 10
11.4994
 20
10.7484
 30
0.0
 10
11.4994
 20
10.7484
 30
0.0
  0
SPLINE
  5
C7
330
1F
100
AcDbEntity
  8
DEFAULT_1
 62
   250
100
AcDbSpline
210
0.0
220
0.0
230
1.0
 70
    24
 71
     3
 72
     8
 73
     4
 74
     0
 42
0.0000000001
 43
0.0000000001
 40
0.0
 40
0.0
 40
0.0
 40
0.0
 40
1.0
 40
1.0
 40
1.0
 40
1.0
 10
11.2708
 20
10.2638
 30
0.0
 10
11.2708
 20
10.2638
 30
0.0
 10
11.2708
 20
10.6872
 30
0.0
 10
11.2708
 20
10.6872
 30
0.0
  0
SPLINE
  5
C8
330
1F
100
AcDbEntity
  8
DEFAULT_1
 62
   250
100
AcDbSpline
210
0.0
220
0.0
230
1.0
 70
    24
 71
     3
 72
     8
 73
     4
 74
     0
 42
0.0000000001
 43
0.0000000001
 40
0.0
 40
0.0
 40
0.0
 40
0.0
 40
1.0
 40
1.0
 40
1.0
 40
1.0
 10
11.2708
 20
11.3645
 30
0.0
 10
11.2708
 20
11.3645
 30
0.0
 10
11.2708
 20
10.9412
 30
0.0
 10
11.2708
 20
10.9412
 30
0.0
  0
SPLINE
  5
C9
330
1F
100
AcDbEntity
  8
DEFAULT_1
 62
   250
100
AcDbSpline
210
0.0
220
0.0
230
1.0
 70
    24
 71
     3
 72
     8
 73
     4
 74
     0
 42
0.0000000001
 43
0.0000000001
 40
0.0
 40
0.0
 40
0.0
 40
0.0
 40
1.0
 40
1.0
 40
1.0
 40
1.0
 10
11.4994
 20
10.7484
 30
0.0
 10
11.4994
 20
10.7484
 30
0.0
 10
11.2708
 20
10.6872
 30
0.0
 10
11.2708
 20
10.6872
 30
0.0
  0
SPLINE
  5
CA
330
1F
100
AcDbEntity
  8
DEFAULT_1
 62
   250
100
AcDbSpline
210
0.0
220
0.0
230
1.0
 70
    24
 71
     3
 72
     8
 73
     4
 74
     0
 42
0.0000000001
 43
0.0000000001
 40
0.0
 40
0.0
 40
0.0
 40
0.0
 40
1.0
 40
1.0
 40
1.0
 40
1.0
 10
11.4994
 20
10.8799
 30
0.0
 10
11.4994
 20
10.8799
 30
0.0
 10
11.2708
 20
10.9412
 30
0.0
 10
11.2708
 20
10.9412
 30
0.0
  0
SPLINE
  5
CB
330
1F
100
AcDbEntity
  8
DEFAULT_1
 62
   250
100
AcDbSpline
210
0.0
220
0.0
230
1.0
 70
    24
 71
     3
 72
     8
 73
     4
 74
     0
 42
0.0000000001
 43
0.0000000001
 40
0.0
 40
0.0
 40
0.0
 40
0.0
 40
1.0
 40
1.0
 40
1.0
 40
1.0
 10
11.2708
 20
11.6186
 30
0.0
 10
11.2708
 20
11.6186
 30
0.0
 10
11.4994
 20
11.5573
 30
0.0
 10
11.4994
 20
11.5573
 30
0.0
  0
SPLINE
  5
CC
330
1F
100
AcDbEntity
  8
DEFAULT_1
 62
   250
100
AcDbSpline
210
0.0
220
0.0
230
1.0
 70
    24
 71
     3
 72
     8
 73
     4
 74
     0
 42
0.0000000001
 43
0.0000000001
 40
0.0
 40
0.0
 40
0.0
 40
0.0
 40
1.0
 40
1.0
 40
1.0
 40
1.0
 10
11.4994
 20
11.4258
 30
0.0
 10
11.4994
 20
11.4258
 30
0.0
 10
11.2708
 20
11.3645
 30
0.0
 10
11.2708
 20
11.3645
 30
0.0
  0
SPLINE
  5
CD
330
1F
100
AcDbEntity
  8
DEFAULT_1
 62
   250
100
AcDbSpline
210
0.0
220
0.0
230
1.0
 70
    24
 71
     3
 72
     8
 73
     4
 74
     0
 42
0.0000000001
 43
0.0000000001
 40
0.0
 40
0.0
 40
0.0
 40
0.0
 40
1.0
 40
1.0
 40
1.0
 40
1.0
 10
11.4994
 20
11.4258
 30
0.0
 10
11.4994
 20
11.4258
 30
0.0
 10
11.4994
 20
11.5573
 30
0.0
 10
11.4994
 20
11.5573
 30
0.0
  0
SPLINE
  5
CE
330
1F
100
AcDbEntity
  8
DEFAULT_1
 62
   250
100
AcDbSpline
210
0.0
220
0.0
230
1.0
 70
    24
 71
     3
 72
     8
 73
     4
 74
     0
 42
0.0000000001
 43
0.0000000001
 40
0.0
 40
0.0
 40
0.0
 40
0.0
 40
1.0
 40
1.0
 40
1.0
 40
1.0
 10
11.4994
 20
12.2347
 30
0.0
 10
11.4994
 20
12.2347
 30
0.0
 10
11.4994
 20
12.1032
 30
0.0
 10
11.4994
 20
12.1032
 30
0.0
  0
SPLINE
  5
CF
330
1F
100
AcDbEntity
  8
DEFAULT_1
 62
   250
100
AcDbSpline
210
0.0
220
0.0
230
1.0
 70
    24
 71
     3
 72
     8
 73
     4
 74
     0
 42
0.0000000001
 43
0.0000000001
 40
0.0
 40
0.0
 40
0.0
 40
0.0
 40
1.0
 40
1.0
 40
1.0
 40
1.0
 10
11.2708
 20
11.6186
 30
0.0
 10
11.2708
 20
11.6186
 30
0.0
 10
11.2708
 20
12.0419
 30
0.0
 10
11.2708
 20
12.0419
 30
0.0
  0
SPLINE
  5
D0
330
1F
100
AcDbEntity
  8
DEFAULT_1
 62
   250
100
AcDbSpline
210
0.0
220
0.0
230
1.0
 70
    24
 71
     3
 72
     8
 73
     4
 74
     0
 42
0.0000000001
 43
0.0000000001
 40
0.0
 40
0.0
 40
0.0
 40
0.0
 40
1.0
 40
1.0
 40
1.0
 40
1.0
 10
11.2708
 20
12.7193
 30
0.0
 10
11.2708
 20
12.7193
 30
0.0
 10
11.2708
 20
12.2959
 30
0.0
 10
11.2708
 20
12.2959
 30
0.0
  0
SPLINE
  5
D1
330
1F
100
AcDbEntity
  8
DEFAULT_1
 62
   250
100
AcDbSpline
210
0.0
220
0.0
230
1.0
 70
    24
 71
     3
 72
     8
 73
     4
 74
     0
 42
0.0000000001
 43
0.0000000001
 40
0.0
 40
0.0
 40
0.0
 40
0.0
 40
1.0
 40
1.0
 40
1.0
 40
1.0
 10
11.4994
 20
12.1032
 30
0.0
 10
11.4994
 20
12.1032
 30
0.0
 10
11.2708
 20
12.0419
 30
0.0
 10
11.2708
 20
12.0419
 30
0.0
  0
SPLINE
  5
D2
330
1F
100
AcDbEntity
  8
DEFAULT_1
 62
   250
100
AcDbSpline
210
0.0
220
0.0
230
1.0
 70
    24
 71
     3
 72
     8
 73
     4
 74
     0
 42
0.0000000001
 43
0.0000000001
 40
0.0
 40
0.0
 40
0.0
 40
0.0
 40
1.0
 40
1.0
 40
1.0
 40
1.0
 10
11.4994
 20
12.2347
 30
0.0
 10
11.4994
 20
12.2347
 30
0.0
 10
11.2708
 20
12.2959
 30
0.0
 10
11.2708
 20
12.2959
 30
0.0
  0
SPLINE
  5
D3
330
1F
100
AcDbEntity
  8
DEFAULT_1
 62
   250
100
AcDbSpline
210
0.0
220
0.0
230
1.0
 70
    24
 71
     3
 72
     8
 73
     4
 74
     0
 42
0.0000000001
 43
0.0000000001
 40
0.0
 40
0.0
 40
0.0
 40
0.0
 40
1.0
 40
1.0
 40
1.0
 40
1.0
 10
11.2708
 20
12.9733
 30
0.0
 10
11.2708
 20
12.9733
 30
0.0
 10
11.4994
 20
12.9121
 30
0.0
 10
11.4994
 20
12.9121
 30
0.0
  0
SPLINE
  5
D4
330
1F
100
AcDbEntity
  8
DEFAULT_1
 62
   250
100
AcDbSpline
210
0.0
220
0.0
230
1.0
 70
    24
 71
     3
 72
     8
 73
     4
 74
     0
 42
0.0000000001
 43
0.0000000001
 40
0.0
 40
0.0
 40
0.0
 40
0.0
 40
1.0
 40
1.0
 40
1.0
 40
1.0
 10
11.4994
 20
12.7805
 30
0.0
 10
11.4994
 20
12.7805
 30
0.0
 10
11.2708
 20
12.7193
 30
0.0
 10
11.2708
 20
12.7193
 30
0.0
  0
SPLINE
  5
D5
330
1F
100
AcDbEntity
  8
DEFAULT_1
 62
   250
100
AcDbSpline
210
0.0
220
0.0
230
1.0
 70
    24
 71
     3
 72
     8
 73
     4
 74
     0
 42
0.0000000001
 43
0.0000000001
 40
0.0
 40
0.0
 40
0.0
 40
0.0
 40
1.0
 40
1.0
 40
1.0
 40
1.0
 10
11.4994
 20
12.7805
 30
0.0
 10
11.4994
 20
12.7805
 30
0.0
 10
11.4994
 20
12.9121
 30
0.0
 10
11.4994
 20
12.9121
 30
0.0
  0
SPLINE
  5
D6
330
1F
100
AcDbEntity
  8
DEFAULT_1
 62
   250
100
AcDbSpline
210
0.0
220
0.0
230
1.0
 70
    24
 71
     3
 72
     8
 73
     4
 74
     0
 42
0.0000000001
 43
0.0000000001
 40
0.0
 40
0.0
 40
0.0
 40
0.0
 40
1.0
 40
1.0
 40
1.0
 40
1.0
 10
11.4994
 20
13.5894
 30
0.0
 10
11.4994
 20
13.5894
 30
0.0
 10
11.4994
 20
13.4579
 30
0.0
 10
11.4994
 20
13.4579
 30
0.0
  0
SPLINE
  5
D7
330
1F
100
AcDbEntity
  8
DEFAULT_1
 62
   250
100
AcDbSpline
210
0.0
220
0.0
230
1.0
 70
    24
 71
     3
 72
     8
 73
     4
 74
     0
 42
0.0000000001
 43
0.0000000001
 40
0.0
 40
0.0
 40
0.0
 40
0.0
 40
1.0
 40
1.0
 40
1.0
 40
1.0
 10
11.2708
 20
12.9733
 30
0.0
 10
11.2708
 20
12.9733
 30
0.0
 10
11.2708
 20
13.3967
 30
0.0
 10
11.2708
 20
13.3967
 30
0.0
  0
SPLINE
  5
D8
330
1F
100
AcDbEntity
  8
DEFAULT_1
 62
   250
100
AcDbSpline
210
0.0
220
0.0
230
1.0
 70
    24
 71
     3
 72
     8
 73
     4
 74
     0
 42
0.0000000001
 43
0.0000000001
 40
0.0
 40
0.0
 40
0.0
 40
0.0
 40
1.0
 40
1.0
 40
1.0
 40
1.0
 10
11.2708
 20
14.0741
 30
0.0
 10
11.2708
 20
14.0741
 30
0.0
 10
11.2708
 20
13.6507
 30
0.0
 10
11.2708
 20
13.6507
 30
0.0
  0
SPLINE
  5
D9
330
1F
100
AcDbEntity
  8
DEFAULT_1
 62
   250
100
AcDbSpline
210
0.0
220
0.0
230
1.0
 70
    24
 71
     3
 72
     8
 73
     4
 74
     0
 42
0.0000000001
 43
0.0000000001
 40
0.0
 40
0.0
 40
0.0
 40
0.0
 40
1.0
 40
1.0
 40
1.0
 40
1.0
 10
11.4994
 20
13.4579
 30
0.0
 10
11.4994
 20
13.4579
 30
0.0
 10
11.2708
 20
13.3967
 30
0.0
 10
11.2708
 20
13.3967
 30
0.0
  0
SPLINE
  5
DA
330
1F
100
AcDbEntity
  8
DEFAULT_1
 62
   250
100
AcDbSpline
210
0.0
220
0.0
230
1.0
 70
    24
 71
     3
 72
     8
 73
     4
 74
     0
 42
0.0000000001
 43
0.0000000001
 40
0.0
 40
0.0
 40
0.0
 40
0.0
 40
1.0
 40
1.0
 40
1.0
 40
1.0
 10
11.4994
 20
13.5894
 30
0.0
 10
11.4994
 20
13.5894
 30
0.0
 10
11.2708
 20
13.6507
 30
0.0
 10
11.2708
 20
13.6507
 30
0.0
  0
SPLINE
  5
DB
330
1F
100
AcDbEntity
  8
DEFAULT_1
 62
   250
100
AcDbSpline
210
0.0
220
0.0
230
1.0
 70
    24
 71
     3
 72
     8
 73
     4
 74
     0
 42
0.0000000001
 43
0.0000000001
 40
0.0
 40
0.0
 40
0.0
 40
0.0
 40
1.0
 40
1.0
 40
1.0
 40
1.0
 10
11.2708
 20
14.3281
 30
0.0
 10
11.2708
 20
14.3281
 30
0.0
 10
11.4994
 20
14.2668
 30
0.0
 10
11.4994
 20
14.2668
 30
0.0
  0
SPLINE
  5
DC
330
1F
100
AcDbEntity
  8
DEFAULT_1
 62
   250
100
AcDbSpline
210
0.0
220
0.0
230
1.0
 70
    24
 71
     3
 72
     8
 73
     4
 74
     0
 42
0.0000000001
 43
0.0000000001
 40
0.0
 40
0.0
 40
0.0
 40
0.0
 40
1.0
 40
1.0
 40
1.0
 40
1.0
 10
11.4994
 20
14.1353
 30
0.0
 10
11.4994
 20
14.1353
 30
0.0
 10
11.2708
 20
14.0741
 30
0.0
 10
11.2708
 20
14.0741
 30
0.0
  0
SPLINE
  5
DD
330
1F
100
AcDbEntity
  8
DEFAULT_1
 62
   250
100
AcDbSpline
210
0.0
220
0.0
230
1.0
 70
    24
 71
     3
 72
     8
 73
     4
 74
     0
 42
0.0000000001
 43
0.0000000001
 40
0.0
 40
0.0
 40
0.0
 40
0.0
 40
1.0
 40
1.0
 40
1.0
 40
1.0
 10
11.4994
 20
14.1353
 30
0.0
 10
11.4994
 20
14.1353
 30
0.0
 10
11.4994
 20
14.2668
 30
0.0
 10
11.4994
 20
14.2668
 30
0.0
  0
SPLINE
  5
DE
330
1F
100
AcDbEntity
  8
DEFAULT_1
 62
   250
100
AcDbSpline
210
0.0
220
0.0
230
1.0
 70
    24
 71
     3
 72
     8
 73
     4
 74
     0
 42
0.0000000001
 43
0.0000000001
 40
0.0
 40
0.0
 40
0.0
 40
0.0
 40
1.0
 40
1.0
 40
1.0
 40
1.0
 10
11.4994
 20
14.9442
 30
0.0
 10
11.4994
 20
14.9442
 30
0.0
 10
11.4994
 20
14.8127
 30
0.0
 10
11.4994
 20
14.8127
 30
0.0
  0
SPLINE
  5
DF
330
1F
100
AcDbEntity
  8
DEFAULT_1
 62
   250
100
AcDbSpline
210
0.0
220
0.0
230
1.0
 70
    24
 71
     3
 72
     8
 73
     4
 74
     0
 42
0.0000000001
 43
0.0000000001
 40
0.0
 40
0.0
 40
0.0
 40
0.0
 40
1.0
 40
1.0
 40
1.0
 40
1.0
 10
11.2708
 20
14.3281
 30
0.0
 10
11.2708
 20
14.3281
 30
0.0
 10
11.2708
 20
14.7514
 30
0.0
 10
11.2708
 20
14.7514
 30
0.0
  0
SPLINE
  5
E0
330
1F
100
AcDbEntity
  8
DEFAULT_1
 62
   250
100
AcDbSpline
210
0.0
220
0.0
230
1.0
 70
    24
 71
     3
 72
     8
 73
     4
 74
     0
 42
0.0000000001
 43
0.0000000001
 40
0.0
 40
0.0
 40
0.0
 40
0.0
 40
1.0
 40
1.0
 40
1.0
 40
1.0
 10
11.2708
 20
15.4287
 30
0.0
 10
11.2708
 20
15.4287
 30
0.0
 10
11.2708
 20
15.0054
 30
0.0
 10
11.2708
 20
15.0054
 30
0.0
  0
SPLINE
  5
E1
330
1F
100
AcDbEntity
  8
DEFAULT_1
 62
   250
100
AcDbSpline
210
0.0
220
0.0
230
1.0
 70
    24
 71
     3
 72
     8
 73
     4
 74
     0
 42
0.0000000001
 43
0.0000000001
 40
0.0
 40
0.0
 40
0.0
 40
0.0
 40
1.0
 40
1.0
 40
1.0
 40
1.0
 10
11.4994
 20
14.8127
 30
0.0
 10
11.4994
 20
14.8127
 30
0.0
 10
11.2708
 20
14.7514
 30
0.0
 10
11.2708
 20
14.7514
 30
0.0
  0
SPLINE
  5
E2
330
1F
100
AcDbEntity
  8
DEFAULT_1
 62
   250
100
AcDbSpline
210
0.0
220
0.0
230
1.0
 70
    24
 71
     3
 72
     8
 73
     4
 74
     0
 42
0.0000000001
 43
0.0000000001
 40
0.0
 40
0.0
 40
0.0
 40
0.0
 40
1.0
 40
1.0
 40
1.0
 40
1.0
 10
11.4994
 20
14.9442
 30
0.0
 10
11.4994
 20
14.9442
 30
0.0
 10
11.2708
 20
15.0054
 30
0.0
 10
11.2708
 20
15.0054
 30
0.0
  0
SPLINE
  5
E3
330
1F
100
AcDbEntity
  8
DEFAULT_1
 62
   250
100
AcDbSpline
210
0.0
220
0.0
230
1.0
 70
    24
 71
     3
 72
     8
 73
     4
 74
     0
 42
0.0000000001
 43
0.0000000001
 40
0.0
 40
0.0
 40
0.0
 40
0.0
 40
1.0
 40
1.0
 40
1.0
 40
1.0
 10
11.2708
 20
15.6828
 30
0.0
 10
11.2708
 20
15.6828
 30
0.0
 10
11.4994
 20
15.6215
 30
0.0
 10
11.4994
 20
15.6215
 30
0.0
  0
SPLINE
  5
E4
330
1F
100
AcDbEntity
  8
DEFAULT_1
 62
   250
100
AcDbSpline
210
0.0
220
0.0
230
1.0
 70
    24
 71
     3
 72
     8
 73
     4
 74
     0
 42
0.0000000001
 43
0.0000000001
 40
0.0
 40
0.0
 40
0.0
 40
0.0
 40
1.0
 40
1.0
 40
1.0
 40
1.0
 10
11.4994
 20
15.49
 30
0.0
 10
11.4994
 20
15.49
 30
0.0
 10
11.2708
 20
15.4287
 30
0.0
 10
11.2708
 20
15.4287
 30
0.0
  0
SPLINE
  5
E5
330
1F
100
AcDbEntity
  8
DEFAULT_1
 62
   250
100
AcDbSpline
210
0.0
220
0.0
230
1.0
 70
    24
 71
     3
 72
     8
 73
     4
 74
     0
 42
0.0000000001
 43
0.0000000001
 40
0.0
 40
0.0
 40
0.0
 40
0.0
 40
1.0
 40
1.0
 40
1.0
 40
1.0
 10
11.4994
 20
15.49
 30
0.0
 10
11.4994
 20
15.49
 30
0.0
 10
11.4994
 20
15.6215
 30
0.0
 10
11.4994
 20
15.6215
 30
0.0
  0
SPLINE
  5
E6
330
1F
100
AcDbEntity
  8
DEFAULT_1
 62
   250
100
AcDbSpline
210
0.0
220
0.0
230
1.0
 70
    24
 71
     3
 72
     8
 73
     4
 74
     0
 42
0.0000000001
 43
0.0000000001
 40
0.0
 40
0.0
 40
0.0
 40
0.0
 40
1.0
 40
1.0
 40
1.0
 40
1.0
 10
11.4994
 20
16.2988
 30
0.0
 10
11.4994
 20
16.2988
 30
0.0
 10
11.4994
 20
16.1674
 30
0.0
 10
11.4994
 20
16.1674
 30
0.0
  0
SPLINE
  5
E7
330
1F
100
AcDbEntity
  8
DEFAULT_1
 62
   250
100
AcDbSpline
210
0.0
220
0.0
230
1.0
 70
    24
 71
     3
 72
     8
 73
     4
 74
     0
 42
0.0000000001
 43
0.0000000001
 40
0.0
 40
0.0
 40
0.0
 40
0.0
 40
1.0
 40
1.0
 40
1.0
 40
1.0
 10
11.2708
 20
15.6828
 30
0.0
 10
11.2708
 20
15.6828
 30
0.0
 10
11.2708
 20
16.1061
 30
0.0
 10
11.2708
 20
16.1061
 30
0.0
  0
SPLINE
  5
E8
330
1F
100
AcDbEntity
  8
DEFAULT_1
 62
   250
100
AcDbSpline
210
0.0
220
0.0
230
1.0
 70
    24
 71
     3
 72
     8
 73
     4
 74
     0
 42
0.0000000001
 43
0.0000000001
 40
0.0
 40
0.0
 40
0.0
 40
0.0
 40
1.0
 40
1.0
 40
1.0
 40
1.0
 10
11.2708
 20
16.7835
 30
0.0
 10
11.2708
 20
16.7835
 30
0.0
 10
11.2708
 20
16.3602
 30
0.0
 10
11.2708
 20
16.3602
 30
0.0
  0
SPLINE
  5
E9
330
1F
100
AcDbEntity
  8
DEFAULT_1
 62
   250
100
AcDbSpline
210
0.0
220
0.0
230
1.0
 70
    24
 71
     3
 72
     8
 73
     4
 74
     0
 42
0.0000000001
 43
0.0000000001
 40
0.0
 40
0.0
 40
0.0
 40
0.0
 40
1.0
 40
1.0
 40
1.0
 40
1.0
 10
11.4994
 20
16.1674
 30
0.0
 10
11.4994
 20
16.1674
 30
0.0
 10
11.2708
 20
16.1061
 30
0.0
 10
11.2708
 20
16.1061
 30
0.0
  0
SPLINE
  5
EA
330
1F
100
AcDbEntity
  8
DEFAULT_1
 62
   250
100
AcDbSpline
210
0.0
220
0.0
230
1.0
 70
    24
 71
     3
 72
     8
 73
     4
 74
     0
 42
0.0000000001
 43
0.0000000001
 40
0.0
 40
0.0
 40
0.0
 40
0.0
 40
1.0
 40
1.0
 40
1.0
 40
1.0
 10
11.4994
 20
16.2988
 30
0.0
 10
11.4994
 20
16.2988
 30
0.0
 10
11.2708
 20
16.3602
 30
0.0
 10
11.2708
 20
16.3602
 30
0.0
  0
SPLINE
  5
EB
330
1F
100
AcDbEntity
  8
DEFAULT_1
 62
   250
100
AcDbSpline
210
0.0
220
0.0
230
1.0
 70
    24
 71
     3
 72
     8
 73
     4
 74
     0
 42
0.0000000001
 43
0.0000000001
 40
0.0
 40
0.0
 40
0.0
 40
0.0
 40
1.0
 40
1.0
 40
1.0
 40
1.0
 10
11.2708
 20
17.0375
 30
0.0
 10
11.2708
 20
17.0375
 30
0.0
 10
11.4994
 20
16.9762
 30
0.0
 10
11.4994
 20
16.9762
 30
0.0
  0
SPLINE
  5
EC
330
1F
100
AcDbEntity
  8
DEFAULT_1
 62
   250
100
AcDbSpline
210
0.0
220
0.0
230
1.0
 70
    24
 71
     3
 72
     8
 73
     4
 74
     0
 42
0.0000000001
 43
0.0000000001
 40
0.0
 40
0.0
 40
0.0
 40
0.0
 40
1.0
 40
1.0
 40
1.0
 40
1.0
 10
11.4994
 20
16.8448
 30
0.0
 10
11.4994
 20
16.8448
 30
0.0
 10
11.2708
 20
16.7835
 30
0.0
 10
11.2708
 20
16.7835
 30
0.0
  0
SPLINE
  5
ED
330
1F
100
AcDbEntity
  8
DEFAULT_1
 62
   250
100
AcDbSpline
210
0.0
220
0.0
230
1.0
 70
    24
 71
     3
 72
     8
 73
     4
 74
     0
 42
0.0000000001
 43
0.0000000001
 40
0.0
 40
0.0
 40
0.0
 40
0.0
 40
1.0
 40
1.0
 40
1.0
 40
1.0
 10
11.4994
 20
16.8448
 30
0.0
 10
11.4994
 20
16.8448
 30
0.0
 10
11.4994
 20
16.9762
 30
0.0
 10
11.4994
 20
16.9762
 30
0.0
  0
SPLINE
  5
EE
330
1F
100
AcDbEntity
  8
DEFAULT_1
 62
   250
100
AcDbSpline
210
0.0
220
0.0
230
1.0
 70
    24
 71
     3
 72
     8
 73
     4
 74
     0
 42
0.0000000001
 43
0.0000000001
 40
0.0
 40
0.0
 40
0.0
 40
0.0
 40
1.0
 40
1.0
 40
1.0
 40
1.0
 10
11.4994
 20
17.6536
 30
0.0
 10
11.4994
 20
17.6536
 30
0.0
 10
11.4994
 20
17.522
 30
0.0
 10
11.4994
 20
17.522
 30
0.0
  0
SPLINE
  5
EF
330
1F
100
AcDbEntity
  8
DEFAULT_1
 62
   250
100
AcDbSpline
210
0.0
220
0.0
230
1.0
 70
    24
 71
     3
 72
     8
 73
     4
 74
     0
 42
0.0000000001
 43
0.0000000001
 40
0.0
 40
0.0
 40
0.0
 40
0.0
 40
1.0
 40
1.0
 40
1.0
 40
1.0
 10
11.2708
 20
17.0375
 30
0.0
 10
11.2708
 20
17.0375
 30
0.0
 10
11.2708
 20
17.4609
 30
0.0
 10
11.2708
 20
17.4609
 30
0.0
  0
SPLINE
  5
F0
330
1F
100
AcDbEntity
  8
DEFAULT_1
 62
   250
100
AcDbSpline
210
0.0
220
0.0
230
1.0
 70
    24
 71
     3
 72
     8
 73
     4
 74
     0
 42
0.0000000001
 43
0.0000000001
 40
0.0
 40
0.0
 40
0.0
 40
0.0
 40
1.0
 40
1.0
 40
1.0
 40
1.0
 10
11.2708
 20
18.1381
 30
0.0
 10
11.2708
 20
18.1381
 30
0.0
 10
11.2708
 20
17.7149
 30
0.0
 10
11.2708
 20
17.7149
 30
0.0
  0
SPLINE
  5
F1
330
1F
100
AcDbEntity
  8
DEFAULT_1
 62
   250
100
AcDbSpline
210
0.0
220
0.0
230
1.0
 70
    24
 71
     3
 72
     8
 73
     4
 74
     0
 42
0.0000000001
 43
0.0000000001
 40
0.0
 40
0.0
 40
0.0
 40
0.0
 40
1.0
 40
1.0
 40
1.0
 40
1.0
 10
11.4994
 20
17.522
 30
0.0
 10
11.4994
 20
17.522
 30
0.0
 10
11.2708
 20
17.4609
 30
0.0
 10
11.2708
 20
17.4609
 30
0.0
  0
SPLINE
  5
F2
330
1F
100
AcDbEntity
  8
DEFAULT_1
 62
   250
100
AcDbSpline
210
0.0
220
0.0
230
1.0
 70
    24
 71
     3
 72
     8
 73
     4
 74
     0
 42
0.0000000001
 43
0.0000000001
 40
0.0
 40
0.0
 40
0.0
 40
0.0
 40
1.0
 40
1.0
 40
1.0
 40
1.0
 10
11.4994
 20
17.6536
 30
0.0
 10
11.4994
 20
17.6536
 30
0.0
 10
11.2708
 20
17.7149
 30
0.0
 10
11.2708
 20
17.7149
 30
0.0
  0
SPLINE
  5
F3
330
1F
100
AcDbEntity
  8
DEFAULT_1
 62
   250
100
AcDbSpline
210
0.0
220
0.0
230
1.0
 70
    24
 71
     3
 72
     8
 73
     4
 74
     0
 42
0.0000000001
 43
0.0000000001
 40
0.0
 40
0.0
 40
0.0
 40
0.0
 40
1.0
 40
1.0
 40
1.0
 40
1.0
 10
11.2708
 20
18.3922
 30
0.0
 10
11.2708
 20
18.3922
 30
0.0
 10
11.4994
 20
18.331
 30
0.0
 10
11.4994
 20
18.331
 30
0.0
  0
SPLINE
  5
F4
330
1F
100
AcDbEntity
  8
DEFAULT_1
 62
   250
100
AcDbSpline
210
0.0
220
0.0
230
1.0
 70
    24
 71
     3
 72
     8
 73
     4
 74
     0
 42
0.0000000001
 43
0.0000000001
 40
0.0
 40
0.0
 40
0.0
 40
0.0
 40
1.0
 40
1.0
 40
1.0
 40
1.0
 10
11.4994
 20
18.1994
 30
0.0
 10
11.4994
 20
18.1994
 30
0.0
 10
11.2708
 20
18.1381
 30
0.0
 10
11.2708
 20
18.1381
 30
0.0
  0
SPLINE
  5
F5
330
1F
100
AcDbEntity
  8
DEFAULT_1
 62
   250
100
AcDbSpline
210
0.0
220
0.0
230
1.0
 70
    24
 71
     3
 72
     8
 73
     4
 74
     0
 42
0.0000000001
 43
0.0000000001
 40
0.0
 40
0.0
 40
0.0
 40
0.0
 40
1.0
 40
1.0
 40
1.0
 40
1.0
 10
11.4994
 20
18.1994
 30
0.0
 10
11.4994
 20
18.1994
 30
0.0
 10
11.4994
 20
18.331
 30
0.0
 10
11.4994
 20
18.331
 30
0.0
  0
SPLINE
  5
F6
330
1F
100
AcDbEntity
  8
DEFAULT_1
 62
   250
100
AcDbSpline
210
0.0
220
0.0
230
1.0
 70
    24
 71
     3
 72
     8
 73
     4
 74
     0
 42
0.0000000001
 43
0.0000000001
 40
0.0
 40
0.0
 40
0.0
 40
0.0
 40
1.0
 40
1.0
 40
1.0
 40
1.0
 10
11.4994
 20
19.0084
 30
0.0
 10
11.4994
 20
19.0084
 30
0.0
 10
11.4994
 20
18.8768
 30
0.0
 10
11.4994
 20
18.8768
 30
0.0
  0
SPLINE
  5
F7
330
1F
100
AcDbEntity
  8
DEFAULT_1
 62
   250
100
AcDbSpline
210
0.0
220
0.0
230
1.0
 70
    24
 71
     3
 72
     8
 73
     4
 74
     0
 42
0.0000000001
 43
0.0000000001
 40
0.0
 40
0.0
 40
0.0
 40
0.0
 40
1.0
 40
1.0
 40
1.0
 40
1.0
 10
11.2708
 20
18.3922
 30
0.0
 10
11.2708
 20
18.3922
 30
0.0
 10
11.2708
 20
18.8155
 30
0.0
 10
11.2708
 20
18.8155
 30
0.0
  0
SPLINE
  5
F8
330
1F
100
AcDbEntity
  8
DEFAULT_1
 62
   250
100
AcDbSpline
210
0.0
220
0.0
230
1.0
 70
    24
 71
     3
 72
     8
 73
     4
 74
     0
 42
0.0000000001
 43
0.0000000001
 40
0.0
 40
0.0
 40
0.0
 40
0.0
 40
1.0
 40
1.0
 40
1.0
 40
1.0
 10
11.2708
 20
19.4929
 30
0.0
 10
11.2708
 20
19.4929
 30
0.0
 10
11.2708
 20
19.0695
 30
0.0
 10
11.2708
 20
19.0695
 30
0.0
  0
SPLINE
  5
F9
330
1F
100
AcDbEntity
  8
DEFAULT_1
 62
   250
100
AcDbSpline
210
0.0
220
0.0
230
1.0
 70
    24
 71
     3
 72
     8
 73
     4
 74
     0
 42
0.0000000001
 43
0.0000000001
 40
0.0
 40
0.0
 40
0.0
 40
0.0
 40
1.0
 40
1.0
 40
1.0
 40
1.0
 10
11.4994
 20
18.8768
 30
0.0
 10
11.4994
 20
18.8768
 30
0.0
 10
11.2708
 20
18.8155
 30
0.0
 10
11.2708
 20
18.8155
 30
0.0
  0
SPLINE
  5
FA
330
1F
100
AcDbEntity
  8
DEFAULT_1
 62
   250
100
AcDbSpline
210
0.0
220
0.0
230
1.0
 70
    24
 71
     3
 72
     8
 73
     4
 74
     0
 42
0.0000000001
 43
0.0000000001
 40
0.0
 40
0.0
 40
0.0
 40
0.0
 40
1.0
 40
1.0
 40
1.0
 40
1.0
 10
11.4994
 20
19.0084
 30
0.0
 10
11.4994
 20
19.0084
 30
0.0
 10
11.2708
 20
19.0695
 30
0.0
 10
11.2708
 20
19.0695
 30
0.0
  0
SPLINE
  5
FB
330
1F
100
AcDbEntity
  8
DEFAULT_1
 62
   250
100
AcDbSpline
210
0.0
220
0.0
230
1.0
 70
    24
 71
     3
 72
     8
 73
     4
 74
     0
 42
0.0000000001
 43
0.0000000001
 40
0.0
 40
0.0
 40
0.0
 40
0.0
 40
1.0
 40
1.0
 40
1.0
 40
1.0
 10
11.2708
 20
19.7469
 30
0.0
 10
11.2708
 20
19.7469
 30
0.0
 10
11.4994
 20
19.6856
 30
0.0
 10
11.4994
 20
19.6856
 30
0.0
  0
SPLINE
  5
FC
330
1F
100
AcDbEntity
  8
DEFAULT_1
 62
   250
100
AcDbSpline
210
0.0
220
0.0
230
1.0
 70
    24
 71
     3
 72
     8
 73
     4
 74
     0
 42
0.0000000001
 43
0.0000000001
 40
0.0
 40
0.0
 40
0.0
 40
0.0
 40
1.0
 40
1.0
 40
1.0
 40
1.0
 10
11.4994
 20
19.5542
 30
0.0
 10
11.4994
 20
19.5542
 30
0.0
 10
11.2708
 20
19.4929
 30
0.0
 10
11.2708
 20
19.4929
 30
0.0
  0
SPLINE
  5
FD
330
1F
100
AcDbEntity
  8
DEFAULT_1
 62
   250
100
AcDbSpline
210
0.0
220
0.0
230
1.0
 70
    24
 71
     3
 72
     8
 73
     4
 74
     0
 42
0.0000000001
 43
0.0000000001
 40
0.0
 40
0.0
 40
0.0
 40
0.0
 40
1.0
 40
1.0
 40
1.0
 40
1.0
 10
11.4994
 20
19.5542
 30
0.0
 10
11.4994
 20
19.5542
 30
0.0
 10
11.4994
 20
19.6856
 30
0.0
 10
11.4994
 20
19.6856
 30
0.0
  0
SPLINE
  5
FE
330
1F
100
AcDbEntity
  8
DEFAULT_1
 62
   250
100
AcDbSpline
210
0.0
220
0.0
230
1.0
 70
    24
 71
     3
 72
     8
 73
     4
 74
     0
 42
0.0000000001
 43
0.0000000001
 40
0.0
 40
0.0
 40
0.0
 40
0.0
 40
1.0
 40
1.0
 40
1.0
 40
1.0
 10
11.4994
 20
20.363
 30
0.0
 10
11.4994
 20
20.363
 30
0.0
 10
11.4994
 20
20.2316
 30
0.0
 10
11.4994
 20
20.2316
 30
0.0
  0
SPLINE
  5
FF
330
1F
100
AcDbEntity
  8
DEFAULT_1
 62
   250
100
AcDbSpline
210
0.0
220
0.0
230
1.0
 70
    24
 71
     3
 72
     8
 73
     4
 74
     0
 42
0.0000000001
 43
0.0000000001
 40
0.0
 40
0.0
 40
0.0
 40
0.0
 40
1.0
 40
1.0
 40
1.0
 40
1.0
 10
11.2708
 20
19.7469
 30
0.0
 10
11.2708
 20
19.7469
 30
0.0
 10
11.2708
 20
20.1702
 30
0.0
 10
11.2708
 20
20.1702
 30
0.0
  0
SPLINE
  5
100
330
1F
100
AcDbEntity
  8
DEFAULT_1
 62
   250
100
AcDbSpline
210
0.0
220
0.0
230
1.0
 70
    24
 71
     3
 72
     8
 73
     4
 74
     0
 42
0.0000000001
 43
0.0000000001
 40
0.0
 40
0.0
 40
0.0
 40
0.0
 40
1.0
 40
1.0
 40
1.0
 40
1.0
 10
11.2708
 20
20.8476
 30
0.0
 10
11.2708
 20
20.8476
 30
0.0
 10
11.2708
 20
20.4243
 30
0.0
 10
11.2708
 20
20.4243
 30
0.0
  0
SPLINE
  5
101
330
1F
100
AcDbEntity
  8
DEFAULT_1
 62
   250
100
AcDbSpline
210
0.0
220
0.0
230
1.0
 70
    24
 71
     3
 72
     8
 73
     4
 74
     0
 42
0.0000000001
 43
0.0000000001
 40
0.0
 40
0.0
 40
0.0
 40
0.0
 40
1.0
 40
1.0
 40
1.0
 40
1.0
 10
11.4994
 20
20.2316
 30
0.0
 10
11.4994
 20
20.2316
 30
0.0
 10
11.2708
 20
20.1702
 30
0.0
 10
11.2708
 20
20.1702
 30
0.0
  0
SPLINE
  5
102
330
1F
100
AcDbEntity
  8
DEFAULT_1
 62
   250
100
AcDbSpline
210
0.0
220
0.0
230
1.0
 70
    24
 71
     3
 72
     8
 73
     4
 74
     0
 42
0.0000000001
 43
0.0000000001
 40
0.0
 40
0.0
 40
0.0
 40
0.0
 40
1.0
 40
1.0
 40
1.0
 40
1.0
 10
11.4994
 20
20.363
 30
0.0
 10
11.4994
 20
20.363
 30
0.0
 10
11.2708
 20
20.4243
 30
0.0
 10
11.2708
 20
20.4243
 30
0.0
  0
SPLINE
  5
103
330
1F
100
AcDbEntity
  8
DEFAULT_1
 62
   250
100
AcDbSpline
210
0.0
220
0.0
230
1.0
 70
    24
 71
     3
 72
     8
 73
     4
 74
     0
 42
0.0000000001
 43
0.0000000001
 40
0.0
 40
0.0
 40
0.0
 40
0.0
 40
1.0
 40
1.0
 40
1.0
 40
1.0
 10
11.2708
 20
21.1017
 30
0.0
 10
11.2708
 20
21.1017
 30
0.0
 10
11.4994
 20
21.0403
 30
0.0
 10
11.4994
 20
21.0403
 30
0.0
  0
SPLINE
  5
104
330
1F
100
AcDbEntity
  8
DEFAULT_1
 62
   250
100
AcDbSpline
210
0.0
220
0.0
230
1.0
 70
    24
 71
     3
 72
     8
 73
     4
 74
     0
 42
0.0000000001
 43
0.0000000001
 40
0.0
 40
0.0
 40
0.0
 40
0.0
 40
1.0
 40
1.0
 40
1.0
 40
1.0
 10
11.4994
 20
20.9089
 30
0.0
 10
11.4994
 20
20.9089
 30
0.0
 10
11.2708
 20
20.8476
 30
0.0
 10
11.2708
 20
20.8476
 30
0.0
  0
SPLINE
  5
105
330
1F
100
AcDbEntity
  8
DEFAULT_1
 62
   250
100
AcDbSpline
210
0.0
220
0.0
230
1.0
 70
    24
 71
     3
 72
     8
 73
     4
 74
     0
 42
0.0000000001
 43
0.0000000001
 40
0.0
 40
0.0
 40
0.0
 40
0.0
 40
1.0
 40
1.0
 40
1.0
 40
1.0
 10
11.4994
 20
20.9089
 30
0.0
 10
11.4994
 20
20.9089
 30
0.0
 10
11.4994
 20
21.0403
 30
0.0
 10
11.4994
 20
21.0403
 30
0.0
  0
SPLINE
  5
106
330
1F
100
AcDbEntity
  8
DEFAULT_1
 62
   250
100
AcDbSpline
210
0.0
220
0.0
230
1.0
 70
    24
 71
     3
 72
     8
 73
     4
 74
     0
 42
0.0000000001
 43
0.0000000001
 40
0.0
 40
0.0
 40
0.0
 40
0.0
 40
1.0
 40
1.0
 40
1.0
 40
1.0
 10
11.4994
 20
23.6418
 30
0.0
 10
11.4994
 20
23.6418
 30
0.0
 10
11.4994
 20
21.5863
 30
0.0
 10
11.4994
 20
21.5863
 30
0.0
  0
SPLINE
  5
107
330
1F
100
AcDbEntity
  8
DEFAULT_1
 62
   250
100
AcDbSpline
210
0.0
220
0.0
230
1.0
 70
    24
 71
     3
 72
     8
 73
     4
 74
     0
 42
0.0000000001
 43
0.0000000001
 40
0.0
 40
0.0
 40
0.0
 40
0.0
 40
1.0
 40
1.0
 40
1.0
 40
1.0
 10
11.2708
 20
21.525
 30
0.0
 10
11.2708
 20
21.525
 30
0.0
 10
11.4994
 20
21.5863
 30
0.0
 10
11.4994
 20
21.5863
 30
0.0
  0
SPLINE
  5
108
330
1F
100
AcDbEntity
  8
DEFAULT_1
 62
   250
100
AcDbSpline
210
0.0
220
0.0
230
1.0
 70
    24
 71
     3
 72
     8
 73
     4
 74
     0
 42
0.0000000001
 43
0.0000000001
 40
0.0
 40
0.0
 40
0.0
 40
0.0
 40
1.0
 40
1.0
 40
1.0
 40
1.0
 10
11.2708
 20
21.525
 30
0.0
 10
11.2708
 20
21.525
 30
0.0
 10
11.2708
 20
21.1017
 30
0.0
 10
11.2708
 20
21.1017
 30
0.0
  0
SPLINE
  5
109
330
1F
100
AcDbEntity
  8
DEFAULT_1
 62
   250
100
AcDbSpline
210
0.0
220
0.0
230
1.0
 70
    24
 71
     3
 72
     8
 73
     4
 74
     0
 42
0.0000000001
 43
0.0000000001
 40
0.0
 40
0.0
 40
0.0
 40
0.0
 40
1.0
 40
1.0
 40
1.0
 40
1.0
 10
-6.0614
 20
23.6418
 30
0.0
 10
-6.0614
 20
23.6418
 30
0.0
 10
-6.0614
 20
21.5863
 30
0.0
 10
-6.0614
 20
21.5863
 30
0.0
  0
SPLINE
  5
10A
330
1F
100
AcDbEntity
  8
DEFAULT_1
 62
   250
100
AcDbSpline
210
0.0
220
0.0
230
1.0
 70
    24
 71
     3
 72
     8
 73
     4
 74
     0
 42
0.0000000001
 43
0.0000000001
 40
0.0
 40
0.0
 40
0.0
 40
0.0
 40
1.0
 40
1.0
 40
1.0
 40
1.0
 10
-5.8327
 20
21.525
 30
0.0
 10
-5.8327
 20
21.525
 30
0.0
 10
-6.0614
 20
21.5863
 30
0.0
 10
-6.0614
 20
21.5863
 30
0.0
  0
SPLINE
  5
10B
330
1F
100
AcDbEntity
  8
DEFAULT_1
 62
   250
100
AcDbSpline
210
0.0
220
0.0
230
1.0
 70
    24
 71
     3
 72
     8
 73
     4
 74
     0
 42
0.0000000001
 43
0.0000000001
 40
0.0
 40
0.0
 40
0.0
 40
0.0
 40
1.0
 40
1.0
 40
1.0
 40
1.0
 10
-6.0614
 20
21.0403
 30
0.0
 10
-6.0614
 20
21.0403
 30
0.0
 10
-6.0614
 20
20.9089
 30
0.0
 10
-6.0614
 20
20.9089
 30
0.0
  0
SPLINE
  5
10C
330
1F
100
AcDbEntity
  8
DEFAULT_1
 62
   250
100
AcDbSpline
210
0.0
220
0.0
230
1.0
 70
    24
 71
     3
 72
     8
 73
     4
 74
     0
 42
0.0000000001
 43
0.0000000001
 40
0.0
 40
0.0
 40
0.0
 40
0.0
 40
1.0
 40
1.0
 40
1.0
 40
1.0
 10
-6.0614
 20
20.363
 30
0.0
 10
-6.0614
 20
20.363
 30
0.0
 10
-6.0614
 20
20.2316
 30
0.0
 10
-6.0614
 20
20.2316
 30
0.0
  0
SPLINE
  5
10D
330
1F
100
AcDbEntity
  8
DEFAULT_1
 62
   250
100
AcDbSpline
210
0.0
220
0.0
230
1.0
 70
    24
 71
     3
 72
     8
 73
     4
 74
     0
 42
0.0000000001
 43
0.0000000001
 40
0.0
 40
0.0
 40
0.0
 40
0.0
 40
1.0
 40
1.0
 40
1.0
 40
1.0
 10
-6.0614
 20
19.5542
 30
0.0
 10
-6.0614
 20
19.5542
 30
0.0
 10
-6.0614
 20
19.6856
 30
0.0
 10
-6.0614
 20
19.6856
 30
0.0
  0
SPLINE
  5
10E
330
1F
100
AcDbEntity
  8
DEFAULT_1
 62
   250
100
AcDbSpline
210
0.0
220
0.0
230
1.0
 70
    24
 71
     3
 72
     8
 73
     4
 74
     0
 42
0.0000000001
 43
0.0000000001
 40
0.0
 40
0.0
 40
0.0
 40
0.0
 40
1.0
 40
1.0
 40
1.0
 40
1.0
 10
-5.8327
 20
19.7469
 30
0.0
 10
-5.8327
 20
19.7469
 30
0.0
 10
-6.0614
 20
19.6856
 30
0.0
 10
-6.0614
 20
19.6856
 30
0.0
  0
SPLINE
  5
10F
330
1F
100
AcDbEntity
  8
DEFAULT_1
 62
   250
100
AcDbSpline
210
0.0
220
0.0
230
1.0
 70
    24
 71
     3
 72
     8
 73
     4
 74
     0
 42
0.0000000001
 43
0.0000000001
 40
0.0
 40
0.0
 40
0.0
 40
0.0
 40
1.0
 40
1.0
 40
1.0
 40
1.0
 10
-6.0614
 20
19.0084
 30
0.0
 10
-6.0614
 20
19.0084
 30
0.0
 10
-5.8327
 20
19.0695
 30
0.0
 10
-5.8327
 20
19.0695
 30
0.0
  0
SPLINE
  5
110
330
1F
100
AcDbEntity
  8
DEFAULT_1
 62
   250
100
AcDbSpline
210
0.0
220
0.0
230
1.0
 70
    24
 71
     3
 72
     8
 73
     4
 74
     0
 42
0.0000000001
 43
0.0000000001
 40
0.0
 40
0.0
 40
0.0
 40
0.0
 40
1.0
 40
1.0
 40
1.0
 40
1.0
 10
-6.0614
 20
19.5542
 30
0.0
 10
-6.0614
 20
19.5542
 30
0.0
 10
-5.8327
 20
19.4929
 30
0.0
 10
-5.8327
 20
19.4929
 30
0.0
  0
SPLINE
  5
111
330
1F
100
AcDbEntity
  8
DEFAULT_1
 62
   250
100
AcDbSpline
210
0.0
220
0.0
230
1.0
 70
    24
 71
     3
 72
     8
 73
     4
 74
     0
 42
0.0000000001
 43
0.0000000001
 40
0.0
 40
0.0
 40
0.0
 40
0.0
 40
1.0
 40
1.0
 40
1.0
 40
1.0
 10
-6.0614
 20
18.8768
 30
0.0
 10
-6.0614
 20
18.8768
 30
0.0
 10
-5.8327
 20
18.8155
 30
0.0
 10
-5.8327
 20
18.8155
 30
0.0
  0
SPLINE
  5
112
330
1F
100
AcDbEntity
  8
DEFAULT_1
 62
   250
100
AcDbSpline
210
0.0
220
0.0
230
1.0
 70
    24
 71
     3
 72
     8
 73
     4
 74
     0
 42
0.0000000001
 43
0.0000000001
 40
0.0
 40
0.0
 40
0.0
 40
0.0
 40
1.0
 40
1.0
 40
1.0
 40
1.0
 10
-6.0614
 20
18.1994
 30
0.0
 10
-6.0614
 20
18.1994
 30
0.0
 10
-5.8327
 20
18.1381
 30
0.0
 10
-5.8327
 20
18.1381
 30
0.0
  0
SPLINE
  5
113
330
1F
100
AcDbEntity
  8
DEFAULT_1
 62
   250
100
AcDbSpline
210
0.0
220
0.0
230
1.0
 70
    24
 71
     3
 72
     8
 73
     4
 74
     0
 42
0.0000000001
 43
0.0000000001
 40
0.0
 40
0.0
 40
0.0
 40
0.0
 40
1.0
 40
1.0
 40
1.0
 40
1.0
 10
-6.0614
 20
17.522
 30
0.0
 10
-6.0614
 20
17.522
 30
0.0
 10
-5.8327
 20
17.4609
 30
0.0
 10
-5.8327
 20
17.4609
 30
0.0
  0
SPLINE
  5
114
330
1F
100
AcDbEntity
  8
DEFAULT_1
 62
   250
100
AcDbSpline
210
0.0
220
0.0
230
1.0
 70
    24
 71
     3
 72
     8
 73
     4
 74
     0
 42
0.0000000001
 43
0.0000000001
 40
0.0
 40
0.0
 40
0.0
 40
0.0
 40
1.0
 40
1.0
 40
1.0
 40
1.0
 10
-6.0614
 20
16.8448
 30
0.0
 10
-6.0614
 20
16.8448
 30
0.0
 10
-5.8327
 20
16.7835
 30
0.0
 10
-5.8327
 20
16.7835
 30
0.0
  0
SPLINE
  5
115
330
1F
100
AcDbEntity
  8
DEFAULT_1
 62
   250
100
AcDbSpline
210
0.0
220
0.0
230
1.0
 70
    24
 71
     3
 72
     8
 73
     4
 74
     0
 42
0.0000000001
 43
0.0000000001
 40
0.0
 40
0.0
 40
0.0
 40
0.0
 40
1.0
 40
1.0
 40
1.0
 40
1.0
 10
-6.0614
 20
16.1674
 30
0.0
 10
-6.0614
 20
16.1674
 30
0.0
 10
-5.8327
 20
16.1061
 30
0.0
 10
-5.8327
 20
16.1061
 30
0.0
  0
SPLINE
  5
116
330
1F
100
AcDbEntity
  8
DEFAULT_1
 62
   250
100
AcDbSpline
210
0.0
220
0.0
230
1.0
 70
    24
 71
     3
 72
     8
 73
     4
 74
     0
 42
0.0000000001
 43
0.0000000001
 40
0.0
 40
0.0
 40
0.0
 40
0.0
 40
1.0
 40
1.0
 40
1.0
 40
1.0
 10
-6.0614
 20
15.49
 30
0.0
 10
-6.0614
 20
15.49
 30
0.0
 10
-5.8327
 20
15.4287
 30
0.0
 10
-5.8327
 20
15.4287
 30
0.0
  0
SPLINE
  5
117
330
1F
100
AcDbEntity
  8
DEFAULT_1
 62
   250
100
AcDbSpline
210
0.0
220
0.0
230
1.0
 70
    24
 71
     3
 72
     8
 73
     4
 74
     0
 42
0.0000000001
 43
0.0000000001
 40
0.0
 40
0.0
 40
0.0
 40
0.0
 40
1.0
 40
1.0
 40
1.0
 40
1.0
 10
-6.0614
 20
14.8127
 30
0.0
 10
-6.0614
 20
14.8127
 30
0.0
 10
-5.8327
 20
14.7514
 30
0.0
 10
-5.8327
 20
14.7514
 30
0.0
  0
SPLINE
  5
118
330
1F
100
AcDbEntity
  8
DEFAULT_1
 62
   250
100
AcDbSpline
210
0.0
220
0.0
230
1.0
 70
    24
 71
     3
 72
     8
 73
     4
 74
     0
 42
0.0000000001
 43
0.0000000001
 40
0.0
 40
0.0
 40
0.0
 40
0.0
 40
1.0
 40
1.0
 40
1.0
 40
1.0
 10
-6.0614
 20
14.1353
 30
0.0
 10
-6.0614
 20
14.1353
 30
0.0
 10
-5.8327
 20
14.0741
 30
0.0
 10
-5.8327
 20
14.0741
 30
0.0
  0
SPLINE
  5
119
330
1F
100
AcDbEntity
  8
DEFAULT_1
 62
   250
100
AcDbSpline
210
0.0
220
0.0
230
1.0
 70
    24
 71
     3
 72
     8
 73
     4
 74
     0
 42
0.0000000001
 43
0.0000000001
 40
0.0
 40
0.0
 40
0.0
 40
0.0
 40
1.0
 40
1.0
 40
1.0
 40
1.0
 10
-6.0614
 20
13.4579
 30
0.0
 10
-6.0614
 20
13.4579
 30
0.0
 10
-5.8327
 20
13.3967
 30
0.0
 10
-5.8327
 20
13.3967
 30
0.0
  0
SPLINE
  5
11A
330
1F
100
AcDbEntity
  8
DEFAULT_1
 62
   250
100
AcDbSpline
210
0.0
220
0.0
230
1.0
 70
    24
 71
     3
 72
     8
 73
     4
 74
     0
 42
0.0000000001
 43
0.0000000001
 40
0.0
 40
0.0
 40
0.0
 40
0.0
 40
1.0
 40
1.0
 40
1.0
 40
1.0
 10
-6.0614
 20
12.7805
 30
0.0
 10
-6.0614
 20
12.7805
 30
0.0
 10
-5.8327
 20
12.7193
 30
0.0
 10
-5.8327
 20
12.7193
 30
0.0
  0
SPLINE
  5
11B
330
1F
100
AcDbEntity
  8
DEFAULT_1
 62
   250
100
AcDbSpline
210
0.0
220
0.0
230
1.0
 70
    24
 71
     3
 72
     8
 73
     4
 74
     0
 42
0.0000000001
 43
0.0000000001
 40
0.0
 40
0.0
 40
0.0
 40
0.0
 40
1.0
 40
1.0
 40
1.0
 40
1.0
 10
-6.0614
 20
12.1032
 30
0.0
 10
-6.0614
 20
12.1032
 30
0.0
 10
-5.8327
 20
12.0419
 30
0.0
 10
-5.8327
 20
12.0419
 30
0.0
  0
SPLINE
  5
11C
330
1F
100
AcDbEntity
  8
DEFAULT_1
 62
   250
100
AcDbSpline
210
0.0
220
0.0
230
1.0
 70
    24
 71
     3
 72
     8
 73
     4
 74
     0
 42
0.0000000001
 43
0.0000000001
 40
0.0
 40
0.0
 40
0.0
 40
0.0
 40
1.0
 40
1.0
 40
1.0
 40
1.0
 10
-6.0614
 20
11.4258
 30
0.0
 10
-6.0614
 20
11.4258
 30
0.0
 10
-5.8327
 20
11.3645
 30
0.0
 10
-5.8327
 20
11.3645
 30
0.0
  0
SPLINE
  5
11D
330
1F
100
AcDbEntity
  8
DEFAULT_1
 62
   250
100
AcDbSpline
210
0.0
220
0.0
230
1.0
 70
    24
 71
     3
 72
     8
 73
     4
 74
     0
 42
0.0000000001
 43
0.0000000001
 40
0.0
 40
0.0
 40
0.0
 40
0.0
 40
1.0
 40
1.0
 40
1.0
 40
1.0
 10
-6.0614
 20
10.7484
 30
0.0
 10
-6.0614
 20
10.7484
 30
0.0
 10
-5.8327
 20
10.6872
 30
0.0
 10
-5.8327
 20
10.6872
 30
0.0
  0
SPLINE
  5
11E
330
1F
100
AcDbEntity
  8
DEFAULT_1
 62
   250
100
AcDbSpline
210
0.0
220
0.0
230
1.0
 70
    24
 71
     3
 72
     8
 73
     4
 74
     0
 42
0.0000000001
 43
0.0000000001
 40
0.0
 40
0.0
 40
0.0
 40
0.0
 40
1.0
 40
1.0
 40
1.0
 40
1.0
 10
-6.0614
 20
10.0711
 30
0.0
 10
-6.0614
 20
10.0711
 30
0.0
 10
-5.8327
 20
10.0098
 30
0.0
 10
-5.8327
 20
10.0098
 30
0.0
  0
SPLINE
  5
11F
330
1F
100
AcDbEntity
  8
DEFAULT_1
 62
   250
100
AcDbSpline
210
0.0
220
0.0
230
1.0
 70
    24
 71
     3
 72
     8
 73
     4
 74
     0
 42
0.0000000001
 43
0.0000000001
 40
0.0
 40
0.0
 40
0.0
 40
0.0
 40
1.0
 40
1.0
 40
1.0
 40
1.0
 10
-6.0614
 20
9.3937
 30
0.0
 10
-6.0614
 20
9.3937
 30
0.0
 10
-5.8327
 20
9.3324
 30
0.0
 10
-5.8327
 20
9.3324
 30
0.0
  0
SPLINE
  5
120
330
1F
100
AcDbEntity
  8
DEFAULT_1
 62
   250
100
AcDbSpline
210
0.0
220
0.0
230
1.0
 70
    24
 71
     3
 72
     8
 73
     4
 74
     0
 42
0.0000000001
 43
0.0000000001
 40
0.0
 40
0.0
 40
0.0
 40
0.0
 40
1.0
 40
1.0
 40
1.0
 40
1.0
 10
-6.0614
 20
8.7164
 30
0.0
 10
-6.0614
 20
8.7164
 30
0.0
 10
-5.8327
 20
8.655
 30
0.0
 10
-5.8327
 20
8.655
 30
0.0
  0
SPLINE
  5
121
330
1F
100
AcDbEntity
  8
DEFAULT_1
 62
   250
100
AcDbSpline
210
0.0
220
0.0
230
1.0
 70
    24
 71
     3
 72
     8
 73
     4
 74
     0
 42
0.0000000001
 43
0.0000000001
 40
0.0
 40
0.0
 40
0.0
 40
0.0
 40
1.0
 40
1.0
 40
1.0
 40
1.0
 10
-6.0614
 20
8.039
 30
0.0
 10
-6.0614
 20
8.039
 30
0.0
 10
-5.8327
 20
7.9778
 30
0.0
 10
-5.8327
 20
7.9778
 30
0.0
  0
SPLINE
  5
122
330
1F
100
AcDbEntity
  8
DEFAULT_1
 62
   250
100
AcDbSpline
210
0.0
220
0.0
230
1.0
 70
    24
 71
     3
 72
     8
 73
     4
 74
     0
 42
0.0000000001
 43
0.0000000001
 40
0.0
 40
0.0
 40
0.0
 40
0.0
 40
1.0
 40
1.0
 40
1.0
 40
1.0
 10
-5.8327
 20
8.2317
 30
0.0
 10
-5.8327
 20
8.2317
 30
0.0
 10
-6.0614
 20
8.1705
 30
0.0
 10
-6.0614
 20
8.1705
 30
0.0
  0
SPLINE
  5
123
330
1F
100
AcDbEntity
  8
DEFAULT_1
 62
   250
100
AcDbSpline
210
0.0
220
0.0
230
1.0
 70
    24
 71
     3
 72
     8
 73
     4
 74
     0
 42
0.0000000001
 43
0.0000000001
 40
0.0
 40
0.0
 40
0.0
 40
0.0
 40
1.0
 40
1.0
 40
1.0
 40
1.0
 10
-6.0614
 20
7.4931
 30
0.0
 10
-6.0614
 20
7.4931
 30
0.0
 10
-5.8327
 20
7.5544
 30
0.0
 10
-5.8327
 20
7.5544
 30
0.0
  0
SPLINE
  5
124
330
1F
100
AcDbEntity
  8
DEFAULT_1
 62
   250
100
AcDbSpline
210
0.0
220
0.0
230
1.0
 70
    24
 71
     3
 72
     8
 73
     4
 74
     0
 42
0.0000000001
 43
0.0000000001
 40
0.0
 40
0.0
 40
0.0
 40
0.0
 40
1.0
 40
1.0
 40
1.0
 40
1.0
 10
-6.0614
 20
8.039
 30
0.0
 10
-6.0614
 20
8.039
 30
0.0
 10
-6.0614
 20
8.1705
 30
0.0
 10
-6.0614
 20
8.1705
 30
0.0
  0
SPLINE
  5
125
330
1F
100
AcDbEntity
  8
DEFAULT_1
 62
   250
100
AcDbSpline
210
0.0
220
0.0
230
1.0
 70
    24
 71
     3
 72
     8
 73
     4
 74
     0
 42
0.0000000001
 43
0.0000000001
 40
0.0
 40
0.0
 40
0.0
 40
0.0
 40
1.0
 40
1.0
 40
1.0
 40
1.0
 10
-6.0614
 20
8.8479
 30
0.0
 10
-6.0614
 20
8.8479
 30
0.0
 10
-6.0614
 20
8.7164
 30
0.0
 10
-6.0614
 20
8.7164
 30
0.0
  0
SPLINE
  5
126
330
1F
100
AcDbEntity
  8
DEFAULT_1
 62
   250
100
AcDbSpline
210
0.0
220
0.0
230
1.0
 70
    24
 71
     3
 72
     8
 73
     4
 74
     0
 42
0.0000000001
 43
0.0000000001
 40
0.0
 40
0.0
 40
0.0
 40
0.0
 40
1.0
 40
1.0
 40
1.0
 40
1.0
 10
-5.8327
 20
8.2317
 30
0.0
 10
-5.8327
 20
8.2317
 30
0.0
 10
-5.8327
 20
8.655
 30
0.0
 10
-5.8327
 20
8.655
 30
0.0
  0
SPLINE
  5
127
330
1F
100
AcDbEntity
  8
DEFAULT_1
 62
   250
100
AcDbSpline
210
0.0
220
0.0
230
1.0
 70
    24
 71
     3
 72
     8
 73
     4
 74
     0
 42
0.0000000001
 43
0.0000000001
 40
0.0
 40
0.0
 40
0.0
 40
0.0
 40
1.0
 40
1.0
 40
1.0
 40
1.0
 10
-5.8327
 20
9.3324
 30
0.0
 10
-5.8327
 20
9.3324
 30
0.0
 10
-5.8327
 20
8.9091
 30
0.0
 10
-5.8327
 20
8.9091
 30
0.0
  0
SPLINE
  5
128
330
1F
100
AcDbEntity
  8
DEFAULT_1
 62
   250
100
AcDbSpline
210
0.0
220
0.0
230
1.0
 70
    24
 71
     3
 72
     8
 73
     4
 74
     0
 42
0.0000000001
 43
0.0000000001
 40
0.0
 40
0.0
 40
0.0
 40
0.0
 40
1.0
 40
1.0
 40
1.0
 40
1.0
 10
-6.0614
 20
8.8479
 30
0.0
 10
-6.0614
 20
8.8479
 30
0.0
 10
-5.8327
 20
8.9091
 30
0.0
 10
-5.8327
 20
8.9091
 30
0.0
  0
SPLINE
  5
129
330
1F
100
AcDbEntity
  8
DEFAULT_1
 62
   250
100
AcDbSpline
210
0.0
220
0.0
230
1.0
 70
    24
 71
     3
 72
     8
 73
     4
 74
     0
 42
0.0000000001
 43
0.0000000001
 40
0.0
 40
0.0
 40
0.0
 40
0.0
 40
1.0
 40
1.0
 40
1.0
 40
1.0
 10
-6.0614
 20
9.5252
 30
0.0
 10
-6.0614
 20
9.5252
 30
0.0
 10
-5.8327
 20
9.5865
 30
0.0
 10
-5.8327
 20
9.5865
 30
0.0
  0
SPLINE
  5
12A
330
1F
100
AcDbEntity
  8
DEFAULT_1
 62
   250
100
AcDbSpline
210
0.0
220
0.0
230
1.0
 70
    24
 71
     3
 72
     8
 73
     4
 74
     0
 42
0.0000000001
 43
0.0000000001
 40
0.0
 40
0.0
 40
0.0
 40
0.0
 40
1.0
 40
1.0
 40
1.0
 40
1.0
 10
-6.0614
 20
10.2026
 30
0.0
 10
-6.0614
 20
10.2026
 30
0.0
 10
-5.8327
 20
10.2638
 30
0.0
 10
-5.8327
 20
10.2638
 30
0.0
  0
SPLINE
  5
12B
330
1F
100
AcDbEntity
  8
DEFAULT_1
 62
   250
100
AcDbSpline
210
0.0
220
0.0
230
1.0
 70
    24
 71
     3
 72
     8
 73
     4
 74
     0
 42
0.0000000001
 43
0.0000000001
 40
0.0
 40
0.0
 40
0.0
 40
0.0
 40
1.0
 40
1.0
 40
1.0
 40
1.0
 10
-6.0614
 20
10.8799
 30
0.0
 10
-6.0614
 20
10.8799
 30
0.0
 10
-5.8327
 20
10.9412
 30
0.0
 10
-5.8327
 20
10.9412
 30
0.0
  0
SPLINE
  5
12C
330
1F
100
AcDbEntity
  8
DEFAULT_1
 62
   250
100
AcDbSpline
210
0.0
220
0.0
230
1.0
 70
    24
 71
     3
 72
     8
 73
     4
 74
     0
 42
0.0000000001
 43
0.0000000001
 40
0.0
 40
0.0
 40
0.0
 40
0.0
 40
1.0
 40
1.0
 40
1.0
 40
1.0
 10
-6.0614
 20
11.5573
 30
0.0
 10
-6.0614
 20
11.5573
 30
0.0
 10
-5.8327
 20
11.6186
 30
0.0
 10
-5.8327
 20
11.6186
 30
0.0
  0
SPLINE
  5
12D
330
1F
100
AcDbEntity
  8
DEFAULT_1
 62
   250
100
AcDbSpline
210
0.0
220
0.0
230
1.0
 70
    24
 71
     3
 72
     8
 73
     4
 74
     0
 42
0.0000000001
 43
0.0000000001
 40
0.0
 40
0.0
 40
0.0
 40
0.0
 40
1.0
 40
1.0
 40
1.0
 40
1.0
 10
-6.0614
 20
12.2347
 30
0.0
 10
-6.0614
 20
12.2347
 30
0.0
 10
-5.8327
 20
12.2959
 30
0.0
 10
-5.8327
 20
12.2959
 30
0.0
  0
SPLINE
  5
12E
330
1F
100
AcDbEntity
  8
DEFAULT_1
 62
   250
100
AcDbSpline
210
0.0
220
0.0
230
1.0
 70
    24
 71
     3
 72
     8
 73
     4
 74
     0
 42
0.0000000001
 43
0.0000000001
 40
0.0
 40
0.0
 40
0.0
 40
0.0
 40
1.0
 40
1.0
 40
1.0
 40
1.0
 10
-6.0614
 20
12.9121
 30
0.0
 10
-6.0614
 20
12.9121
 30
0.0
 10
-5.8327
 20
12.9733
 30
0.0
 10
-5.8327
 20
12.9733
 30
0.0
  0
SPLINE
  5
12F
330
1F
100
AcDbEntity
  8
DEFAULT_1
 62
   250
100
AcDbSpline
210
0.0
220
0.0
230
1.0
 70
    24
 71
     3
 72
     8
 73
     4
 74
     0
 42
0.0000000001
 43
0.0000000001
 40
0.0
 40
0.0
 40
0.0
 40
0.0
 40
1.0
 40
1.0
 40
1.0
 40
1.0
 10
-6.0614
 20
13.5894
 30
0.0
 10
-6.0614
 20
13.5894
 30
0.0
 10
-5.8327
 20
13.6507
 30
0.0
 10
-5.8327
 20
13.6507
 30
0.0
  0
SPLINE
  5
130
330
1F
100
AcDbEntity
  8
DEFAULT_1
 62
   250
100
AcDbSpline
210
0.0
220
0.0
230
1.0
 70
    24
 71
     3
 72
     8
 73
     4
 74
     0
 42
0.0000000001
 43
0.0000000001
 40
0.0
 40
0.0
 40
0.0
 40
0.0
 40
1.0
 40
1.0
 40
1.0
 40
1.0
 10
-6.0614
 20
14.2668
 30
0.0
 10
-6.0614
 20
14.2668
 30
0.0
 10
-5.8327
 20
14.3281
 30
0.0
 10
-5.8327
 20
14.3281
 30
0.0
  0
SPLINE
  5
131
330
1F
100
AcDbEntity
  8
DEFAULT_1
 62
   250
100
AcDbSpline
210
0.0
220
0.0
230
1.0
 70
    24
 71
     3
 72
     8
 73
     4
 74
     0
 42
0.0000000001
 43
0.0000000001
 40
0.0
 40
0.0
 40
0.0
 40
0.0
 40
1.0
 40
1.0
 40
1.0
 40
1.0
 10
-6.0614
 20
14.9442
 30
0.0
 10
-6.0614
 20
14.9442
 30
0.0
 10
-5.8327
 20
15.0054
 30
0.0
 10
-5.8327
 20
15.0054
 30
0.0
  0
SPLINE
  5
132
330
1F
100
AcDbEntity
  8
DEFAULT_1
 62
   250
100
AcDbSpline
210
0.0
220
0.0
230
1.0
 70
    24
 71
     3
 72
     8
 73
     4
 74
     0
 42
0.0000000001
 43
0.0000000001
 40
0.0
 40
0.0
 40
0.0
 40
0.0
 40
1.0
 40
1.0
 40
1.0
 40
1.0
 10
-6.0614
 20
15.6215
 30
0.0
 10
-6.0614
 20
15.6215
 30
0.0
 10
-5.8327
 20
15.6828
 30
0.0
 10
-5.8327
 20
15.6828
 30
0.0
  0
SPLINE
  5
133
330
1F
100
AcDbEntity
  8
DEFAULT_1
 62
   250
100
AcDbSpline
210
0.0
220
0.0
230
1.0
 70
    24
 71
     3
 72
     8
 73
     4
 74
     0
 42
0.0000000001
 43
0.0000000001
 40
0.0
 40
0.0
 40
0.0
 40
0.0
 40
1.0
 40
1.0
 40
1.0
 40
1.0
 10
-6.0614
 20
16.2988
 30
0.0
 10
-6.0614
 20
16.2988
 30
0.0
 10
-5.8327
 20
16.3602
 30
0.0
 10
-5.8327
 20
16.3602
 30
0.0
  0
SPLINE
  5
134
330
1F
100
AcDbEntity
  8
DEFAULT_1
 62
   250
100
AcDbSpline
210
0.0
220
0.0
230
1.0
 70
    24
 71
     3
 72
     8
 73
     4
 74
     0
 42
0.0000000001
 43
0.0000000001
 40
0.0
 40
0.0
 40
0.0
 40
0.0
 40
1.0
 40
1.0
 40
1.0
 40
1.0
 10
-6.0614
 20
16.9762
 30
0.0
 10
-6.0614
 20
16.9762
 30
0.0
 10
-5.8327
 20
17.0375
 30
0.0
 10
-5.8327
 20
17.0375
 30
0.0
  0
SPLINE
  5
135
330
1F
100
AcDbEntity
  8
DEFAULT_1
 62
   250
100
AcDbSpline
210
0.0
220
0.0
230
1.0
 70
    24
 71
     3
 72
     8
 73
     4
 74
     0
 42
0.0000000001
 43
0.0000000001
 40
0.0
 40
0.0
 40
0.0
 40
0.0
 40
1.0
 40
1.0
 40
1.0
 40
1.0
 10
-6.0614
 20
17.6536
 30
0.0
 10
-6.0614
 20
17.6536
 30
0.0
 10
-5.8327
 20
17.7149
 30
0.0
 10
-5.8327
 20
17.7149
 30
0.0
  0
SPLINE
  5
136
330
1F
100
AcDbEntity
  8
DEFAULT_1
 62
   250
100
AcDbSpline
210
0.0
220
0.0
230
1.0
 70
    24
 71
     3
 72
     8
 73
     4
 74
     0
 42
0.0000000001
 43
0.0000000001
 40
0.0
 40
0.0
 40
0.0
 40
0.0
 40
1.0
 40
1.0
 40
1.0
 40
1.0
 10
-5.8327
 20
18.3922
 30
0.0
 10
-5.8327
 20
18.3922
 30
0.0
 10
-6.0614
 20
18.331
 30
0.0
 10
-6.0614
 20
18.331
 30
0.0
  0
SPLINE
  5
137
330
1F
100
AcDbEntity
  8
DEFAULT_1
 62
   250
100
AcDbSpline
210
0.0
220
0.0
230
1.0
 70
    24
 71
     3
 72
     8
 73
     4
 74
     0
 42
0.0000000001
 43
0.0000000001
 40
0.0
 40
0.0
 40
0.0
 40
0.0
 40
1.0
 40
1.0
 40
1.0
 40
1.0
 10
-5.8327
 20
18.1381
 30
0.0
 10
-5.8327
 20
18.1381
 30
0.0
 10
-5.8327
 20
17.7149
 30
0.0
 10
-5.8327
 20
17.7149
 30
0.0
  0
SPLINE
  5
138
330
1F
100
AcDbEntity
  8
DEFAULT_1
 62
   250
100
AcDbSpline
210
0.0
220
0.0
230
1.0
 70
    24
 71
     3
 72
     8
 73
     4
 74
     0
 42
0.0000000001
 43
0.0000000001
 40
0.0
 40
0.0
 40
0.0
 40
0.0
 40
1.0
 40
1.0
 40
1.0
 40
1.0
 10
-5.8327
 20
17.0375
 30
0.0
 10
-5.8327
 20
17.0375
 30
0.0
 10
-5.8327
 20
17.4609
 30
0.0
 10
-5.8327
 20
17.4609
 30
0.0
  0
SPLINE
  5
139
330
1F
100
AcDbEntity
  8
DEFAULT_1
 62
   250
100
AcDbSpline
210
0.0
220
0.0
230
1.0
 70
    24
 71
     3
 72
     8
 73
     4
 74
     0
 42
0.0000000001
 43
0.0000000001
 40
0.0
 40
0.0
 40
0.0
 40
0.0
 40
1.0
 40
1.0
 40
1.0
 40
1.0
 10
-6.0614
 20
17.6536
 30
0.0
 10
-6.0614
 20
17.6536
 30
0.0
 10
-6.0614
 20
17.522
 30
0.0
 10
-6.0614
 20
17.522
 30
0.0
  0
SPLINE
  5
13A
330
1F
100
AcDbEntity
  8
DEFAULT_1
 62
   250
100
AcDbSpline
210
0.0
220
0.0
230
1.0
 70
    24
 71
     3
 72
     8
 73
     4
 74
     0
 42
0.0000000001
 43
0.0000000001
 40
0.0
 40
0.0
 40
0.0
 40
0.0
 40
1.0
 40
1.0
 40
1.0
 40
1.0
 10
-6.0614
 20
16.8448
 30
0.0
 10
-6.0614
 20
16.8448
 30
0.0
 10
-6.0614
 20
16.9762
 30
0.0
 10
-6.0614
 20
16.9762
 30
0.0
  0
SPLINE
  5
13B
330
1F
100
AcDbEntity
  8
DEFAULT_1
 62
   250
100
AcDbSpline
210
0.0
220
0.0
230
1.0
 70
    24
 71
     3
 72
     8
 73
     4
 74
     0
 42
0.0000000001
 43
0.0000000001
 40
0.0
 40
0.0
 40
0.0
 40
0.0
 40
1.0
 40
1.0
 40
1.0
 40
1.0
 10
-5.8327
 20
16.3602
 30
0.0
 10
-5.8327
 20
16.3602
 30
0.0
 10
-5.8327
 20
16.7835
 30
0.0
 10
-5.8327
 20
16.7835
 30
0.0
  0
SPLINE
  5
13C
330
1F
100
AcDbEntity
  8
DEFAULT_1
 62
   250
100
AcDbSpline
210
0.0
220
0.0
230
1.0
 70
    24
 71
     3
 72
     8
 73
     4
 74
     0
 42
0.0000000001
 43
0.0000000001
 40
0.0
 40
0.0
 40
0.0
 40
0.0
 40
1.0
 40
1.0
 40
1.0
 40
1.0
 10
-6.0614
 20
16.1674
 30
0.0
 10
-6.0614
 20
16.1674
 30
0.0
 10
-6.0614
 20
16.2988
 30
0.0
 10
-6.0614
 20
16.2988
 30
0.0
  0
SPLINE
  5
13D
330
1F
100
AcDbEntity
  8
DEFAULT_1
 62
   250
100
AcDbSpline
210
0.0
220
0.0
230
1.0
 70
    24
 71
     3
 72
     8
 73
     4
 74
     0
 42
0.0000000001
 43
0.0000000001
 40
0.0
 40
0.0
 40
0.0
 40
0.0
 40
1.0
 40
1.0
 40
1.0
 40
1.0
 10
-5.8327
 20
15.6828
 30
0.0
 10
-5.8327
 20
15.6828
 30
0.0
 10
-5.8327
 20
16.1061
 30
0.0
 10
-5.8327
 20
16.1061
 30
0.0
  0
SPLINE
  5
13E
330
1F
100
AcDbEntity
  8
DEFAULT_1
 62
   250
100
AcDbSpline
210
0.0
220
0.0
230
1.0
 70
    24
 71
     3
 72
     8
 73
     4
 74
     0
 42
0.0000000001
 43
0.0000000001
 40
0.0
 40
0.0
 40
0.0
 40
0.0
 40
1.0
 40
1.0
 40
1.0
 40
1.0
 10
-6.0614
 20
15.49
 30
0.0
 10
-6.0614
 20
15.49
 30
0.0
 10
-6.0614
 20
15.6215
 30
0.0
 10
-6.0614
 20
15.6215
 30
0.0
  0
SPLINE
  5
13F
330
1F
100
AcDbEntity
  8
DEFAULT_1
 62
   250
100
AcDbSpline
210
0.0
220
0.0
230
1.0
 70
    24
 71
     3
 72
     8
 73
     4
 74
     0
 42
0.0000000001
 43
0.0000000001
 40
0.0
 40
0.0
 40
0.0
 40
0.0
 40
1.0
 40
1.0
 40
1.0
 40
1.0
 10
-5.8327
 20
15.0054
 30
0.0
 10
-5.8327
 20
15.0054
 30
0.0
 10
-5.8327
 20
15.4287
 30
0.0
 10
-5.8327
 20
15.4287
 30
0.0
  0
SPLINE
  5
140
330
1F
100
AcDbEntity
  8
DEFAULT_1
 62
   250
100
AcDbSpline
210
0.0
220
0.0
230
1.0
 70
    24
 71
     3
 72
     8
 73
     4
 74
     0
 42
0.0000000001
 43
0.0000000001
 40
0.0
 40
0.0
 40
0.0
 40
0.0
 40
1.0
 40
1.0
 40
1.0
 40
1.0
 10
-6.0614
 20
14.8127
 30
0.0
 10
-6.0614
 20
14.8127
 30
0.0
 10
-6.0614
 20
14.9442
 30
0.0
 10
-6.0614
 20
14.9442
 30
0.0
  0
SPLINE
  5
141
330
1F
100
AcDbEntity
  8
DEFAULT_1
 62
   250
100
AcDbSpline
210
0.0
220
0.0
230
1.0
 70
    24
 71
     3
 72
     8
 73
     4
 74
     0
 42
0.0000000001
 43
0.0000000001
 40
0.0
 40
0.0
 40
0.0
 40
0.0
 40
1.0
 40
1.0
 40
1.0
 40
1.0
 10
-5.8327
 20
14.3281
 30
0.0
 10
-5.8327
 20
14.3281
 30
0.0
 10
-5.8327
 20
14.7514
 30
0.0
 10
-5.8327
 20
14.7514
 30
0.0
  0
SPLINE
  5
142
330
1F
100
AcDbEntity
  8
DEFAULT_1
 62
   250
100
AcDbSpline
210
0.0
220
0.0
230
1.0
 70
    24
 71
     3
 72
     8
 73
     4
 74
     0
 42
0.0000000001
 43
0.0000000001
 40
0.0
 40
0.0
 40
0.0
 40
0.0
 40
1.0
 40
1.0
 40
1.0
 40
1.0
 10
-6.0614
 20
14.1353
 30
0.0
 10
-6.0614
 20
14.1353
 30
0.0
 10
-6.0614
 20
14.2668
 30
0.0
 10
-6.0614
 20
14.2668
 30
0.0
  0
SPLINE
  5
143
330
1F
100
AcDbEntity
  8
DEFAULT_1
 62
   250
100
AcDbSpline
210
0.0
220
0.0
230
1.0
 70
    24
 71
     3
 72
     8
 73
     4
 74
     0
 42
0.0000000001
 43
0.0000000001
 40
0.0
 40
0.0
 40
0.0
 40
0.0
 40
1.0
 40
1.0
 40
1.0
 40
1.0
 10
-5.8327
 20
13.6507
 30
0.0
 10
-5.8327
 20
13.6507
 30
0.0
 10
-5.8327
 20
14.0741
 30
0.0
 10
-5.8327
 20
14.0741
 30
0.0
  0
SPLINE
  5
144
330
1F
100
AcDbEntity
  8
DEFAULT_1
 62
   250
100
AcDbSpline
210
0.0
220
0.0
230
1.0
 70
    24
 71
     3
 72
     8
 73
     4
 74
     0
 42
0.0000000001
 43
0.0000000001
 40
0.0
 40
0.0
 40
0.0
 40
0.0
 40
1.0
 40
1.0
 40
1.0
 40
1.0
 10
-6.0614
 20
13.4579
 30
0.0
 10
-6.0614
 20
13.4579
 30
0.0
 10
-6.0614
 20
13.5894
 30
0.0
 10
-6.0614
 20
13.5894
 30
0.0
  0
SPLINE
  5
145
330
1F
100
AcDbEntity
  8
DEFAULT_1
 62
   250
100
AcDbSpline
210
0.0
220
0.0
230
1.0
 70
    24
 71
     3
 72
     8
 73
     4
 74
     0
 42
0.0000000001
 43
0.0000000001
 40
0.0
 40
0.0
 40
0.0
 40
0.0
 40
1.0
 40
1.0
 40
1.0
 40
1.0
 10
-5.8327
 20
12.9733
 30
0.0
 10
-5.8327
 20
12.9733
 30
0.0
 10
-5.8327
 20
13.3967
 30
0.0
 10
-5.8327
 20
13.3967
 30
0.0
  0
SPLINE
  5
146
330
1F
100
AcDbEntity
  8
DEFAULT_1
 62
   250
100
AcDbSpline
210
0.0
220
0.0
230
1.0
 70
    24
 71
     3
 72
     8
 73
     4
 74
     0
 42
0.0000000001
 43
0.0000000001
 40
0.0
 40
0.0
 40
0.0
 40
0.0
 40
1.0
 40
1.0
 40
1.0
 40
1.0
 10
-6.0614
 20
12.7805
 30
0.0
 10
-6.0614
 20
12.7805
 30
0.0
 10
-6.0614
 20
12.9121
 30
0.0
 10
-6.0614
 20
12.9121
 30
0.0
  0
SPLINE
  5
147
330
1F
100
AcDbEntity
  8
DEFAULT_1
 62
   250
100
AcDbSpline
210
0.0
220
0.0
230
1.0
 70
    24
 71
     3
 72
     8
 73
     4
 74
     0
 42
0.0000000001
 43
0.0000000001
 40
0.0
 40
0.0
 40
0.0
 40
0.0
 40
1.0
 40
1.0
 40
1.0
 40
1.0
 10
-5.8327
 20
12.2959
 30
0.0
 10
-5.8327
 20
12.2959
 30
0.0
 10
-5.8327
 20
12.7193
 30
0.0
 10
-5.8327
 20
12.7193
 30
0.0
  0
SPLINE
  5
148
330
1F
100
AcDbEntity
  8
DEFAULT_1
 62
   250
100
AcDbSpline
210
0.0
220
0.0
230
1.0
 70
    24
 71
     3
 72
     8
 73
     4
 74
     0
 42
0.0000000001
 43
0.0000000001
 40
0.0
 40
0.0
 40
0.0
 40
0.0
 40
1.0
 40
1.0
 40
1.0
 40
1.0
 10
-6.0614
 20
12.1032
 30
0.0
 10
-6.0614
 20
12.1032
 30
0.0
 10
-6.0614
 20
12.2347
 30
0.0
 10
-6.0614
 20
12.2347
 30
0.0
  0
SPLINE
  5
149
330
1F
100
AcDbEntity
  8
DEFAULT_1
 62
   250
100
AcDbSpline
210
0.0
220
0.0
230
1.0
 70
    24
 71
     3
 72
     8
 73
     4
 74
     0
 42
0.0000000001
 43
0.0000000001
 40
0.0
 40
0.0
 40
0.0
 40
0.0
 40
1.0
 40
1.0
 40
1.0
 40
1.0
 10
-5.8327
 20
11.6186
 30
0.0
 10
-5.8327
 20
11.6186
 30
0.0
 10
-5.8327
 20
12.0419
 30
0.0
 10
-5.8327
 20
12.0419
 30
0.0
  0
SPLINE
  5
14A
330
1F
100
AcDbEntity
  8
DEFAULT_1
 62
   250
100
AcDbSpline
210
0.0
220
0.0
230
1.0
 70
    24
 71
     3
 72
     8
 73
     4
 74
     0
 42
0.0000000001
 43
0.0000000001
 40
0.0
 40
0.0
 40
0.0
 40
0.0
 40
1.0
 40
1.0
 40
1.0
 40
1.0
 10
-6.0614
 20
11.4258
 30
0.0
 10
-6.0614
 20
11.4258
 30
0.0
 10
-6.0614
 20
11.5573
 30
0.0
 10
-6.0614
 20
11.5573
 30
0.0
  0
SPLINE
  5
14B
330
1F
100
AcDbEntity
  8
DEFAULT_1
 62
   250
100
AcDbSpline
210
0.0
220
0.0
230
1.0
 70
    24
 71
     3
 72
     8
 73
     4
 74
     0
 42
0.0000000001
 43
0.0000000001
 40
0.0
 40
0.0
 40
0.0
 40
0.0
 40
1.0
 40
1.0
 40
1.0
 40
1.0
 10
-5.8327
 20
10.9412
 30
0.0
 10
-5.8327
 20
10.9412
 30
0.0
 10
-5.8327
 20
11.3645
 30
0.0
 10
-5.8327
 20
11.3645
 30
0.0
  0
SPLINE
  5
14C
330
1F
100
AcDbEntity
  8
DEFAULT_1
 62
   250
100
AcDbSpline
210
0.0
220
0.0
230
1.0
 70
    24
 71
     3
 72
     8
 73
     4
 74
     0
 42
0.0000000001
 43
0.0000000001
 40
0.0
 40
0.0
 40
0.0
 40
0.0
 40
1.0
 40
1.0
 40
1.0
 40
1.0
 10
-6.0614
 20
10.7484
 30
0.0
 10
-6.0614
 20
10.7484
 30
0.0
 10
-6.0614
 20
10.8799
 30
0.0
 10
-6.0614
 20
10.8799
 30
0.0
  0
SPLINE
  5
14D
330
1F
100
AcDbEntity
  8
DEFAULT_1
 62
   250
100
AcDbSpline
210
0.0
220
0.0
230
1.0
 70
    24
 71
     3
 72
     8
 73
     4
 74
     0
 42
0.0000000001
 43
0.0000000001
 40
0.0
 40
0.0
 40
0.0
 40
0.0
 40
1.0
 40
1.0
 40
1.0
 40
1.0
 10
-5.8327
 20
10.2638
 30
0.0
 10
-5.8327
 20
10.2638
 30
0.0
 10
-5.8327
 20
10.6872
 30
0.0
 10
-5.8327
 20
10.6872
 30
0.0
  0
SPLINE
  5
14E
330
1F
100
AcDbEntity
  8
DEFAULT_1
 62
   250
100
AcDbSpline
210
0.0
220
0.0
230
1.0
 70
    24
 71
     3
 72
     8
 73
     4
 74
     0
 42
0.0000000001
 43
0.0000000001
 40
0.0
 40
0.0
 40
0.0
 40
0.0
 40
1.0
 40
1.0
 40
1.0
 40
1.0
 10
-6.0614
 20
10.0711
 30
0.0
 10
-6.0614
 20
10.0711
 30
0.0
 10
-6.0614
 20
10.2026
 30
0.0
 10
-6.0614
 20
10.2026
 30
0.0
  0
SPLINE
  5
14F
330
1F
100
AcDbEntity
  8
DEFAULT_1
 62
   250
100
AcDbSpline
210
0.0
220
0.0
230
1.0
 70
    24
 71
     3
 72
     8
 73
     4
 74
     0
 42
0.0000000001
 43
0.0000000001
 40
0.0
 40
0.0
 40
0.0
 40
0.0
 40
1.0
 40
1.0
 40
1.0
 40
1.0
 10
-5.8327
 20
9.5865
 30
0.0
 10
-5.8327
 20
9.5865
 30
0.0
 10
-5.8327
 20
10.0098
 30
0.0
 10
-5.8327
 20
10.0098
 30
0.0
  0
SPLINE
  5
150
330
1F
100
AcDbEntity
  8
DEFAULT_1
 62
   250
100
AcDbSpline
210
0.0
220
0.0
230
1.0
 70
    24
 71
     3
 72
     8
 73
     4
 74
     0
 42
0.0000000001
 43
0.0000000001
 40
0.0
 40
0.0
 40
0.0
 40
0.0
 40
1.0
 40
1.0
 40
1.0
 40
1.0
 10
-6.0614
 20
9.3937
 30
0.0
 10
-6.0614
 20
9.3937
 30
0.0
 10
-6.0614
 20
9.5252
 30
0.0
 10
-6.0614
 20
9.5252
 30
0.0
  0
SPLINE
  5
151
330
1F
100
AcDbEntity
  8
DEFAULT_1
 62
   250
100
AcDbSpline
210
0.0
220
0.0
230
1.0
 70
    24
 71
     3
 72
     8
 73
     4
 74
     0
 42
0.0000000001
 43
0.0000000001
 40
0.0
 40
0.0
 40
0.0
 40
0.0
 40
1.0
 40
1.0
 40
1.0
 40
1.0
 10
-6.0614
 20
18.331
 30
0.0
 10
-6.0614
 20
18.331
 30
0.0
 10
-6.0614
 20
18.1994
 30
0.0
 10
-6.0614
 20
18.1994
 30
0.0
  0
SPLINE
  5
152
330
1F
100
AcDbEntity
  8
DEFAULT_1
 62
   250
100
AcDbSpline
210
0.0
220
0.0
230
1.0
 70
    24
 71
     3
 72
     8
 73
     4
 74
     0
 42
0.0000000001
 43
0.0000000001
 40
0.0
 40
0.0
 40
0.0
 40
0.0
 40
1.0
 40
1.0
 40
1.0
 40
1.0
 10
-5.8327
 20
18.8155
 30
0.0
 10
-5.8327
 20
18.8155
 30
0.0
 10
-5.8327
 20
18.3922
 30
0.0
 10
-5.8327
 20
18.3922
 30
0.0
  0
SPLINE
  5
153
330
1F
100
AcDbEntity
  8
DEFAULT_1
 62
   250
100
AcDbSpline
210
0.0
220
0.0
230
1.0
 70
    24
 71
     3
 72
     8
 73
     4
 74
     0
 42
0.0000000001
 43
0.0000000001
 40
0.0
 40
0.0
 40
0.0
 40
0.0
 40
1.0
 40
1.0
 40
1.0
 40
1.0
 10
-6.0614
 20
19.0084
 30
0.0
 10
-6.0614
 20
19.0084
 30
0.0
 10
-6.0614
 20
18.8768
 30
0.0
 10
-6.0614
 20
18.8768
 30
0.0
  0
SPLINE
  5
154
330
1F
100
AcDbEntity
  8
DEFAULT_1
 62
   250
100
AcDbSpline
210
0.0
220
0.0
230
1.0
 70
    24
 71
     3
 72
     8
 73
     4
 74
     0
 42
0.0000000001
 43
0.0000000001
 40
0.0
 40
0.0
 40
0.0
 40
0.0
 40
1.0
 40
1.0
 40
1.0
 40
1.0
 10
-5.8327
 20
19.4929
 30
0.0
 10
-5.8327
 20
19.4929
 30
0.0
 10
-5.8327
 20
19.0695
 30
0.0
 10
-5.8327
 20
19.0695
 30
0.0
  0
SPLINE
  5
155
330
1F
100
AcDbEntity
  8
DEFAULT_1
 62
   250
100
AcDbSpline
210
0.0
220
0.0
230
1.0
 70
    24
 71
     3
 72
     8
 73
     4
 74
     0
 42
0.0000000001
 43
0.0000000001
 40
0.0
 40
0.0
 40
0.0
 40
0.0
 40
1.0
 40
1.0
 40
1.0
 40
1.0
 10
-5.8327
 20
20.1702
 30
0.0
 10
-5.8327
 20
20.1702
 30
0.0
 10
-5.8327
 20
19.7469
 30
0.0
 10
-5.8327
 20
19.7469
 30
0.0
  0
SPLINE
  5
156
330
1F
100
AcDbEntity
  8
DEFAULT_1
 62
   250
100
AcDbSpline
210
0.0
220
0.0
230
1.0
 70
    24
 71
     3
 72
     8
 73
     4
 74
     0
 42
0.0000000001
 43
0.0000000001
 40
0.0
 40
0.0
 40
0.0
 40
0.0
 40
1.0
 40
1.0
 40
1.0
 40
1.0
 10
-5.8327
 20
20.1702
 30
0.0
 10
-5.8327
 20
20.1702
 30
0.0
 10
-6.0614
 20
20.2316
 30
0.0
 10
-6.0614
 20
20.2316
 30
0.0
  0
SPLINE
  5
157
330
1F
100
AcDbEntity
  8
DEFAULT_1
 62
   250
100
AcDbSpline
210
0.0
220
0.0
230
1.0
 70
    24
 71
     3
 72
     8
 73
     4
 74
     0
 42
0.0000000001
 43
0.0000000001
 40
0.0
 40
0.0
 40
0.0
 40
0.0
 40
1.0
 40
1.0
 40
1.0
 40
1.0
 10
-6.0614
 20
20.9089
 30
0.0
 10
-6.0614
 20
20.9089
 30
0.0
 10
-5.8327
 20
20.8476
 30
0.0
 10
-5.8327
 20
20.8476
 30
0.0
  0
SPLINE
  5
158
330
1F
100
AcDbEntity
  8
DEFAULT_1
 62
   250
100
AcDbSpline
210
0.0
220
0.0
230
1.0
 70
    24
 71
     3
 72
     8
 73
     4
 74
     0
 42
0.0000000001
 43
0.0000000001
 40
0.0
 40
0.0
 40
0.0
 40
0.0
 40
1.0
 40
1.0
 40
1.0
 40
1.0
 10
-5.8327
 20
20.4243
 30
0.0
 10
-5.8327
 20
20.4243
 30
0.0
 10
-6.0614
 20
20.363
 30
0.0
 10
-6.0614
 20
20.363
 30
0.0
  0
SPLINE
  5
159
330
1F
100
AcDbEntity
  8
DEFAULT_1
 62
   250
100
AcDbSpline
210
0.0
220
0.0
230
1.0
 70
    24
 71
     3
 72
     8
 73
     4
 74
     0
 42
0.0000000001
 43
0.0000000001
 40
0.0
 40
0.0
 40
0.0
 40
0.0
 40
1.0
 40
1.0
 40
1.0
 40
1.0
 10
-5.8327
 20
20.4243
 30
0.0
 10
-5.8327
 20
20.4243
 30
0.0
 10
-5.8327
 20
20.8476
 30
0.0
 10
-5.8327
 20
20.8476
 30
0.0
  0
SPLINE
  5
15A
330
1F
100
AcDbEntity
  8
DEFAULT_1
 62
   250
100
AcDbSpline
210
0.0
220
0.0
230
1.0
 70
    24
 71
     3
 72
     8
 73
     4
 74
     0
 42
0.0000000001
 43
0.0000000001
 40
0.0
 40
0.0
 40
0.0
 40
0.0
 40
1.0
 40
1.0
 40
1.0
 40
1.0
 10
-5.8327
 20
21.1017
 30
0.0
 10
-5.8327
 20
21.1017
 30
0.0
 10
-5.8327
 20
21.525
 30
0.0
 10
-5.8327
 20
21.525
 30
0.0
  0
SPLINE
  5
15B
330
1F
100
AcDbEntity
  8
DEFAULT_1
 62
   250
100
AcDbSpline
210
0.0
220
0.0
230
1.0
 70
    24
 71
     3
 72
     8
 73
     4
 74
     0
 42
0.0000000001
 43
0.0000000001
 40
0.0
 40
0.0
 40
0.0
 40
0.0
 40
1.0
 40
1.0
 40
1.0
 40
1.0
 10
-5.8327
 20
21.1017
 30
0.0
 10
-5.8327
 20
21.1017
 30
0.0
 10
-6.0614
 20
21.0403
 30
0.0
 10
-6.0614
 20
21.0403
 30
0.0
  0
SPLINE
  5
15C
330
1F
100
AcDbEntity
  8
DEFAULT_1
 62
   250
100
AcDbSpline
210
0.0
220
0.0
230
1.0
 70
    24
 71
     3
 72
     8
 73
     4
 74
     0
 42
0.0000000001
 43
0.0000000001
 40
0.0
 40
0.0
 40
0.0
 40
0.0
 40
1.0
 40
1.0
 40
1.0
 40
1.0
 10
-5.8327
 20
7.5544
 30
0.0
 10
-5.8327
 20
7.5544
 30
0.0
 10
-5.8327
 20
7.9778
 30
0.0
 10
-5.8327
 20
7.9778
 30
0.0
  0
SPLINE
  5
15D
330
1F
100
AcDbEntity
  8
DEFAULT_1
 62
   250
100
AcDbSpline
210
0.0
220
0.0
230
1.0
 70
    24
 71
     3
 72
     8
 73
     4
 74
     0
 42
0.0000000001
 43
0.0000000001
 40
0.0
 40
0.0
 40
0.0
 40
0.0
 40
1.0
 40
1.0
 40
1.0
 40
1.0
 10
-6.0614
 20
7.2769
 30
0.0
 10
-6.0614
 20
7.2769
 30
0.0
 10
-6.0614
 20
7.4931
 30
0.0
 10
-6.0614
 20
7.4931
 30
0.0
  0
SPLINE
  5
15E
330
1F
100
AcDbEntity
  8
DEFAULT_1
 62
   250
100
AcDbSpline
210
0.0
220
0.0
230
1.0
 70
    24
 71
     3
 72
     8
 73
     4
 74
     0
 42
0.0000000001
 43
0.0000000001
 40
0.0
 40
0.0
 40
0.0
 40
0.0
 40
1.0
 40
1.0
 40
1.0
 40
1.0
 10
-5.8327
 20
6.7077
 30
0.0
 10
-5.8327
 20
6.7077
 30
0.0
 10
-5.8327
 20
7.2157
 30
0.0
 10
-5.8327
 20
7.2157
 30
0.0
  0
SPLINE
  5
15F
330
1F
100
AcDbEntity
  8
DEFAULT_1
 62
   250
100
AcDbSpline
210
0.0
220
0.0
230
1.0
 70
    24
 71
     3
 72
     8
 73
     4
 74
     0
 42
0.0000000001
 43
0.0000000001
 40
0.0
 40
0.0
 40
0.0
 40
0.0
 40
1.0
 40
1.0
 40
1.0
 40
1.0
 10
-6.0614
 20
7.2769
 30
0.0
 10
-6.0614
 20
7.2769
 30
0.0
 10
-5.8327
 20
7.2157
 30
0.0
 10
-5.8327
 20
7.2157
 30
0.0
  0
SPLINE
  5
160
330
1F
100
AcDbEntity
  8
DEFAULT_1
 62
   250
100
AcDbSpline
210
0.0
220
0.0
230
1.0
 70
    24
 71
     3
 72
     8
 73
     4
 74
     0
 42
0.0000000001
 43
0.0000000001
 40
0.0
 40
0.0
 40
0.0
 40
0.0
 40
1.0
 40
1.0
 40
1.0
 40
1.0
 10
-6.0614
 20
8.039
 30
0.0
 10
-6.0614
 20
8.039
 30
0.0
 10
2.5061
 20
8.039
 30
0.0
 10
2.5061
 20
8.039
 30
0.0
  0
SPLINE
  5
161
330
1F
100
AcDbEntity
  8
DEFAULT_1
 62
   250
100
AcDbSpline
210
0.0
220
0.0
230
1.0
 70
    24
 71
     3
 72
     8
 73
     4
 74
     0
 42
0.0000000001
 43
0.0000000001
 40
0.0
 40
0.0
 40
0.0
 40
0.0
 40
1.0
 40
1.0
 40
1.0
 40
1.0
 10
2.9318
 20
7.4931
 30
0.0
 10
2.9318
 20
7.4931
 30
0.0
 10
11.4994
 20
7.4931
 30
0.0
 10
11.4994
 20
7.4931
 30
0.0
  0
SPLINE
  5
162
330
1F
100
AcDbEntity
  8
DEFAULT_1
 62
   250
100
AcDbSpline
210
0.0
220
0.0
230
1.0
 70
    24
 71
     3
 72
     8
 73
     4
 74
     0
 42
0.0000000001
 43
0.0000000001
 40
0.0
 40
0.0
 40
0.0
 40
0.0
 40
1.0
 40
1.0
 40
1.0
 40
1.0
 10
2.9318
 20
7.2769
 30
0.0
 10
2.9318
 20
7.2769
 30
0.0
 10
11.4994
 20
7.2769
 30
0.0
 10
11.4994
 20
7.2769
 30
0.0
  0
SPLINE
  5
163
330
1F
100
AcDbEntity
  8
DEFAULT_1
 62
   250
100
AcDbSpline
210
0.0
220
0.0
230
1.0
 70
    24
 71
     3
 72
     8
 73
     4
 74
     0
 42
0.0000000001
 43
0.0000000001
 40
0.0
 40
0.0
 40
0.0
 40
0.0
 40
1.0
 40
1.0
 40
1.0
 40
1.0
 10
11.2708
 20
7.5544
 30
0.0
 10
11.2708
 20
7.5544
 30
0.0
 10
2.9306
 20
7.5544
 30
0.0
 10
2.9306
 20
7.5544
 30
0.0
  0
SPLINE
  5
164
330
1F
100
AcDbEntity
  8
DEFAULT_1
 62
   250
100
AcDbSpline
210
0.0
220
0.0
230
1.0
 70
    24
 71
     3
 72
     8
 73
     4
 74
     0
 42
0.0000000001
 43
0.0000000001
 40
0.0
 40
0.0
 40
0.0
 40
0.0
 40
1.0
 40
1.0
 40
1.0
 40
1.0
 10
2.5061
 20
8.1705
 30
0.0
 10
2.5061
 20
8.1705
 30
0.0
 10
-6.0614
 20
8.1705
 30
0.0
 10
-6.0614
 20
8.1705
 30
0.0
  0
SPLINE
  5
165
330
1F
100
AcDbEntity
  8
DEFAULT_1
 62
   250
100
AcDbSpline
210
0.0
220
0.0
230
1.0
 70
    24
 71
     3
 72
     8
 73
     4
 74
     0
 42
0.0000000001
 43
0.0000000001
 40
0.0
 40
0.0
 40
0.0
 40
0.0
 40
1.0
 40
1.0
 40
1.0
 40
1.0
 10
-6.0614
 20
8.7164
 30
0.0
 10
-6.0614
 20
8.7164
 30
0.0
 10
2.5061
 20
8.7164
 30
0.0
 10
2.5061
 20
8.7164
 30
0.0
  0
SPLINE
  5
166
330
1F
100
AcDbEntity
  8
DEFAULT_1
 62
   250
100
AcDbSpline
210
0.0
220
0.0
230
1.0
 70
    24
 71
     3
 72
     8
 73
     4
 74
     0
 42
0.0000000001
 43
0.0000000001
 40
0.0
 40
0.0
 40
0.0
 40
0.0
 40
1.0
 40
1.0
 40
1.0
 40
1.0
 10
2.9318
 20
8.7164
 30
0.0
 10
2.9318
 20
8.7164
 30
0.0
 10
11.4994
 20
8.7164
 30
0.0
 10
11.4994
 20
8.7164
 30
0.0
  0
SPLINE
  5
167
330
1F
100
AcDbEntity
  8
DEFAULT_1
 62
   250
100
AcDbSpline
210
0.0
220
0.0
230
1.0
 70
    24
 71
     3
 72
     8
 73
     4
 74
     0
 42
0.0000000001
 43
0.0000000001
 40
0.0
 40
0.0
 40
0.0
 40
0.0
 40
1.0
 40
1.0
 40
1.0
 40
1.0
 10
2.9318
 20
8.8479
 30
0.0
 10
2.9318
 20
8.8479
 30
0.0
 10
11.4994
 20
8.8479
 30
0.0
 10
11.4994
 20
8.8479
 30
0.0
  0
SPLINE
  5
168
330
1F
100
AcDbEntity
  8
DEFAULT_1
 62
   250
100
AcDbSpline
210
0.0
220
0.0
230
1.0
 70
    24
 71
     3
 72
     8
 73
     4
 74
     0
 42
0.0000000001
 43
0.0000000001
 40
0.0
 40
0.0
 40
0.0
 40
0.0
 40
1.0
 40
1.0
 40
1.0
 40
1.0
 10
2.9318
 20
9.3937
 30
0.0
 10
2.9318
 20
9.3937
 30
0.0
 10
11.4994
 20
9.3937
 30
0.0
 10
11.4994
 20
9.3937
 30
0.0
  0
SPLINE
  5
169
330
1F
100
AcDbEntity
  8
DEFAULT_1
 62
   250
100
AcDbSpline
210
0.0
220
0.0
230
1.0
 70
    24
 71
     3
 72
     8
 73
     4
 74
     0
 42
0.0000000001
 43
0.0000000001
 40
0.0
 40
0.0
 40
0.0
 40
0.0
 40
1.0
 40
1.0
 40
1.0
 40
1.0
 10
2.9318
 20
9.5252
 30
0.0
 10
2.9318
 20
9.5252
 30
0.0
 10
11.4994
 20
9.5252
 30
0.0
 10
11.4994
 20
9.5252
 30
0.0
  0
SPLINE
  5
16A
330
1F
100
AcDbEntity
  8
DEFAULT_1
 62
   250
100
AcDbSpline
210
0.0
220
0.0
230
1.0
 70
    24
 71
     3
 72
     8
 73
     4
 74
     0
 42
0.0000000001
 43
0.0000000001
 40
0.0
 40
0.0
 40
0.0
 40
0.0
 40
1.0
 40
1.0
 40
1.0
 40
1.0
 10
2.9318
 20
10.0711
 30
0.0
 10
2.9318
 20
10.0711
 30
0.0
 10
11.4994
 20
10.0711
 30
0.0
 10
11.4994
 20
10.0711
 30
0.0
  0
SPLINE
  5
16B
330
1F
100
AcDbEntity
  8
DEFAULT_1
 62
   250
100
AcDbSpline
210
0.0
220
0.0
230
1.0
 70
    24
 71
     3
 72
     8
 73
     4
 74
     0
 42
0.0000000001
 43
0.0000000001
 40
0.0
 40
0.0
 40
0.0
 40
0.0
 40
1.0
 40
1.0
 40
1.0
 40
1.0
 10
2.9318
 20
10.2026
 30
0.0
 10
2.9318
 20
10.2026
 30
0.0
 10
11.4994
 20
10.2026
 30
0.0
 10
11.4994
 20
10.2026
 30
0.0
  0
SPLINE
  5
16C
330
1F
100
AcDbEntity
  8
DEFAULT_1
 62
   250
100
AcDbSpline
210
0.0
220
0.0
230
1.0
 70
    24
 71
     3
 72
     8
 73
     4
 74
     0
 42
0.0000000001
 43
0.0000000001
 40
0.0
 40
0.0
 40
0.0
 40
0.0
 40
1.0
 40
1.0
 40
1.0
 40
1.0
 10
2.9318
 20
10.7484
 30
0.0
 10
2.9318
 20
10.7484
 30
0.0
 10
11.4994
 20
10.7484
 30
0.0
 10
11.4994
 20
10.7484
 30
0.0
  0
SPLINE
  5
16D
330
1F
100
AcDbEntity
  8
DEFAULT_1
 62
   250
100
AcDbSpline
210
0.0
220
0.0
230
1.0
 70
    24
 71
     3
 72
     8
 73
     4
 74
     0
 42
0.0000000001
 43
0.0000000001
 40
0.0
 40
0.0
 40
0.0
 40
0.0
 40
1.0
 40
1.0
 40
1.0
 40
1.0
 10
2.9318
 20
10.8799
 30
0.0
 10
2.9318
 20
10.8799
 30
0.0
 10
11.4994
 20
10.8799
 30
0.0
 10
11.4994
 20
10.8799
 30
0.0
  0
SPLINE
  5
16E
330
1F
100
AcDbEntity
  8
DEFAULT_1
 62
   250
100
AcDbSpline
210
0.0
220
0.0
230
1.0
 70
    24
 71
     3
 72
     8
 73
     4
 74
     0
 42
0.0000000001
 43
0.0000000001
 40
0.0
 40
0.0
 40
0.0
 40
0.0
 40
1.0
 40
1.0
 40
1.0
 40
1.0
 10
2.9318
 20
11.4258
 30
0.0
 10
2.9318
 20
11.4258
 30
0.0
 10
11.4994
 20
11.4258
 30
0.0
 10
11.4994
 20
11.4258
 30
0.0
  0
SPLINE
  5
16F
330
1F
100
AcDbEntity
  8
DEFAULT_1
 62
   250
100
AcDbSpline
210
0.0
220
0.0
230
1.0
 70
    24
 71
     3
 72
     8
 73
     4
 74
     0
 42
0.0000000001
 43
0.0000000001
 40
0.0
 40
0.0
 40
0.0
 40
0.0
 40
1.0
 40
1.0
 40
1.0
 40
1.0
 10
2.9318
 20
11.5573
 30
0.0
 10
2.9318
 20
11.5573
 30
0.0
 10
11.4994
 20
11.5573
 30
0.0
 10
11.4994
 20
11.5573
 30
0.0
  0
SPLINE
  5
170
330
1F
100
AcDbEntity
  8
DEFAULT_1
 62
   250
100
AcDbSpline
210
0.0
220
0.0
230
1.0
 70
    24
 71
     3
 72
     8
 73
     4
 74
     0
 42
0.0000000001
 43
0.0000000001
 40
0.0
 40
0.0
 40
0.0
 40
0.0
 40
1.0
 40
1.0
 40
1.0
 40
1.0
 10
2.9318
 20
12.1032
 30
0.0
 10
2.9318
 20
12.1032
 30
0.0
 10
11.4994
 20
12.1032
 30
0.0
 10
11.4994
 20
12.1032
 30
0.0
  0
SPLINE
  5
171
330
1F
100
AcDbEntity
  8
DEFAULT_1
 62
   250
100
AcDbSpline
210
0.0
220
0.0
230
1.0
 70
    24
 71
     3
 72
     8
 73
     4
 74
     0
 42
0.0000000001
 43
0.0000000001
 40
0.0
 40
0.0
 40
0.0
 40
0.0
 40
1.0
 40
1.0
 40
1.0
 40
1.0
 10
2.9318
 20
12.2347
 30
0.0
 10
2.9318
 20
12.2347
 30
0.0
 10
11.4994
 20
12.2347
 30
0.0
 10
11.4994
 20
12.2347
 30
0.0
  0
SPLINE
  5
172
330
1F
100
AcDbEntity
  8
DEFAULT_1
 62
   250
100
AcDbSpline
210
0.0
220
0.0
230
1.0
 70
    24
 71
     3
 72
     8
 73
     4
 74
     0
 42
0.0000000001
 43
0.0000000001
 40
0.0
 40
0.0
 40
0.0
 40
0.0
 40
1.0
 40
1.0
 40
1.0
 40
1.0
 10
2.9318
 20
12.7805
 30
0.0
 10
2.9318
 20
12.7805
 30
0.0
 10
11.4994
 20
12.7805
 30
0.0
 10
11.4994
 20
12.7805
 30
0.0
  0
SPLINE
  5
173
330
1F
100
AcDbEntity
  8
DEFAULT_1
 62
   250
100
AcDbSpline
210
0.0
220
0.0
230
1.0
 70
    24
 71
     3
 72
     8
 73
     4
 74
     0
 42
0.0000000001
 43
0.0000000001
 40
0.0
 40
0.0
 40
0.0
 40
0.0
 40
1.0
 40
1.0
 40
1.0
 40
1.0
 10
2.9318
 20
12.9121
 30
0.0
 10
2.9318
 20
12.9121
 30
0.0
 10
11.4994
 20
12.9121
 30
0.0
 10
11.4994
 20
12.9121
 30
0.0
  0
SPLINE
  5
174
330
1F
100
AcDbEntity
  8
DEFAULT_1
 62
   250
100
AcDbSpline
210
0.0
220
0.0
230
1.0
 70
    24
 71
     3
 72
     8
 73
     4
 74
     0
 42
0.0000000001
 43
0.0000000001
 40
0.0
 40
0.0
 40
0.0
 40
0.0
 40
1.0
 40
1.0
 40
1.0
 40
1.0
 10
2.9318
 20
13.4579
 30
0.0
 10
2.9318
 20
13.4579
 30
0.0
 10
11.4994
 20
13.4579
 30
0.0
 10
11.4994
 20
13.4579
 30
0.0
  0
SPLINE
  5
175
330
1F
100
AcDbEntity
  8
DEFAULT_1
 62
   250
100
AcDbSpline
210
0.0
220
0.0
230
1.0
 70
    24
 71
     3
 72
     8
 73
     4
 74
     0
 42
0.0000000001
 43
0.0000000001
 40
0.0
 40
0.0
 40
0.0
 40
0.0
 40
1.0
 40
1.0
 40
1.0
 40
1.0
 10
2.9318
 20
13.5894
 30
0.0
 10
2.9318
 20
13.5894
 30
0.0
 10
11.4994
 20
13.5894
 30
0.0
 10
11.4994
 20
13.5894
 30
0.0
  0
SPLINE
  5
176
330
1F
100
AcDbEntity
  8
DEFAULT_1
 62
   250
100
AcDbSpline
210
0.0
220
0.0
230
1.0
 70
    24
 71
     3
 72
     8
 73
     4
 74
     0
 42
0.0000000001
 43
0.0000000001
 40
0.0
 40
0.0
 40
0.0
 40
0.0
 40
1.0
 40
1.0
 40
1.0
 40
1.0
 10
2.9318
 20
14.1353
 30
0.0
 10
2.9318
 20
14.1353
 30
0.0
 10
11.4994
 20
14.1353
 30
0.0
 10
11.4994
 20
14.1353
 30
0.0
  0
SPLINE
  5
177
330
1F
100
AcDbEntity
  8
DEFAULT_1
 62
   250
100
AcDbSpline
210
0.0
220
0.0
230
1.0
 70
    24
 71
     3
 72
     8
 73
     4
 74
     0
 42
0.0000000001
 43
0.0000000001
 40
0.0
 40
0.0
 40
0.0
 40
0.0
 40
1.0
 40
1.0
 40
1.0
 40
1.0
 10
2.9318
 20
14.2668
 30
0.0
 10
2.9318
 20
14.2668
 30
0.0
 10
11.4994
 20
14.2668
 30
0.0
 10
11.4994
 20
14.2668
 30
0.0
  0
SPLINE
  5
178
330
1F
100
AcDbEntity
  8
DEFAULT_1
 62
   250
100
AcDbSpline
210
0.0
220
0.0
230
1.0
 70
    24
 71
     3
 72
     8
 73
     4
 74
     0
 42
0.0000000001
 43
0.0000000001
 40
0.0
 40
0.0
 40
0.0
 40
0.0
 40
1.0
 40
1.0
 40
1.0
 40
1.0
 10
2.9318
 20
14.8127
 30
0.0
 10
2.9318
 20
14.8127
 30
0.0
 10
11.4994
 20
14.8127
 30
0.0
 10
11.4994
 20
14.8127
 30
0.0
  0
SPLINE
  5
179
330
1F
100
AcDbEntity
  8
DEFAULT_1
 62
   250
100
AcDbSpline
210
0.0
220
0.0
230
1.0
 70
    24
 71
     3
 72
     8
 73
     4
 74
     0
 42
0.0000000001
 43
0.0000000001
 40
0.0
 40
0.0
 40
0.0
 40
0.0
 40
1.0
 40
1.0
 40
1.0
 40
1.0
 10
2.9318
 20
14.9442
 30
0.0
 10
2.9318
 20
14.9442
 30
0.0
 10
11.4994
 20
14.9442
 30
0.0
 10
11.4994
 20
14.9442
 30
0.0
  0
SPLINE
  5
17A
330
1F
100
AcDbEntity
  8
DEFAULT_1
 62
   250
100
AcDbSpline
210
0.0
220
0.0
230
1.0
 70
    24
 71
     3
 72
     8
 73
     4
 74
     0
 42
0.0000000001
 43
0.0000000001
 40
0.0
 40
0.0
 40
0.0
 40
0.0
 40
1.0
 40
1.0
 40
1.0
 40
1.0
 10
2.9318
 20
15.49
 30
0.0
 10
2.9318
 20
15.49
 30
0.0
 10
11.4994
 20
15.49
 30
0.0
 10
11.4994
 20
15.49
 30
0.0
  0
SPLINE
  5
17B
330
1F
100
AcDbEntity
  8
DEFAULT_1
 62
   250
100
AcDbSpline
210
0.0
220
0.0
230
1.0
 70
    24
 71
     3
 72
     8
 73
     4
 74
     0
 42
0.0000000001
 43
0.0000000001
 40
0.0
 40
0.0
 40
0.0
 40
0.0
 40
1.0
 40
1.0
 40
1.0
 40
1.0
 10
2.9318
 20
15.6215
 30
0.0
 10
2.9318
 20
15.6215
 30
0.0
 10
11.4994
 20
15.6215
 30
0.0
 10
11.4994
 20
15.6215
 30
0.0
  0
SPLINE
  5
17C
330
1F
100
AcDbEntity
  8
DEFAULT_1
 62
   250
100
AcDbSpline
210
0.0
220
0.0
230
1.0
 70
    24
 71
     3
 72
     8
 73
     4
 74
     0
 42
0.0000000001
 43
0.0000000001
 40
0.0
 40
0.0
 40
0.0
 40
0.0
 40
1.0
 40
1.0
 40
1.0
 40
1.0
 10
2.9318
 20
16.1674
 30
0.0
 10
2.9318
 20
16.1674
 30
0.0
 10
11.4994
 20
16.1674
 30
0.0
 10
11.4994
 20
16.1674
 30
0.0
  0
SPLINE
  5
17D
330
1F
100
AcDbEntity
  8
DEFAULT_1
 62
   250
100
AcDbSpline
210
0.0
220
0.0
230
1.0
 70
    24
 71
     3
 72
     8
 73
     4
 74
     0
 42
0.0000000001
 43
0.0000000001
 40
0.0
 40
0.0
 40
0.0
 40
0.0
 40
1.0
 40
1.0
 40
1.0
 40
1.0
 10
2.9318
 20
16.2988
 30
0.0
 10
2.9318
 20
16.2988
 30
0.0
 10
11.4994
 20
16.2988
 30
0.0
 10
11.4994
 20
16.2988
 30
0.0
  0
SPLINE
  5
17E
330
1F
100
AcDbEntity
  8
DEFAULT_1
 62
   250
100
AcDbSpline
210
0.0
220
0.0
230
1.0
 70
    24
 71
     3
 72
     8
 73
     4
 74
     0
 42
0.0000000001
 43
0.0000000001
 40
0.0
 40
0.0
 40
0.0
 40
0.0
 40
1.0
 40
1.0
 40
1.0
 40
1.0
 10
2.9318
 20
16.8448
 30
0.0
 10
2.9318
 20
16.8448
 30
0.0
 10
11.4994
 20
16.8448
 30
0.0
 10
11.4994
 20
16.8448
 30
0.0
  0
SPLINE
  5
17F
330
1F
100
AcDbEntity
  8
DEFAULT_1
 62
   250
100
AcDbSpline
210
0.0
220
0.0
230
1.0
 70
    24
 71
     3
 72
     8
 73
     4
 74
     0
 42
0.0000000001
 43
0.0000000001
 40
0.0
 40
0.0
 40
0.0
 40
0.0
 40
1.0
 40
1.0
 40
1.0
 40
1.0
 10
2.9318
 20
16.9762
 30
0.0
 10
2.9318
 20
16.9762
 30
0.0
 10
11.4994
 20
16.9762
 30
0.0
 10
11.4994
 20
16.9762
 30
0.0
  0
SPLINE
  5
180
330
1F
100
AcDbEntity
  8
DEFAULT_1
 62
   250
100
AcDbSpline
210
0.0
220
0.0
230
1.0
 70
    24
 71
     3
 72
     8
 73
     4
 74
     0
 42
0.0000000001
 43
0.0000000001
 40
0.0
 40
0.0
 40
0.0
 40
0.0
 40
1.0
 40
1.0
 40
1.0
 40
1.0
 10
2.9318
 20
17.522
 30
0.0
 10
2.9318
 20
17.522
 30
0.0
 10
11.4994
 20
17.522
 30
0.0
 10
11.4994
 20
17.522
 30
0.0
  0
SPLINE
  5
181
330
1F
100
AcDbEntity
  8
DEFAULT_1
 62
   250
100
AcDbSpline
210
0.0
220
0.0
230
1.0
 70
    24
 71
     3
 72
     8
 73
     4
 74
     0
 42
0.0000000001
 43
0.0000000001
 40
0.0
 40
0.0
 40
0.0
 40
0.0
 40
1.0
 40
1.0
 40
1.0
 40
1.0
 10
2.9318
 20
17.6536
 30
0.0
 10
2.9318
 20
17.6536
 30
0.0
 10
11.4994
 20
17.6536
 30
0.0
 10
11.4994
 20
17.6536
 30
0.0
  0
SPLINE
  5
182
330
1F
100
AcDbEntity
  8
DEFAULT_1
 62
   250
100
AcDbSpline
210
0.0
220
0.0
230
1.0
 70
    24
 71
     3
 72
     8
 73
     4
 74
     0
 42
0.0000000001
 43
0.0000000001
 40
0.0
 40
0.0
 40
0.0
 40
0.0
 40
1.0
 40
1.0
 40
1.0
 40
1.0
 10
2.9318
 20
18.1994
 30
0.0
 10
2.9318
 20
18.1994
 30
0.0
 10
11.4994
 20
18.1994
 30
0.0
 10
11.4994
 20
18.1994
 30
0.0
  0
SPLINE
  5
183
330
1F
100
AcDbEntity
  8
DEFAULT_1
 62
   250
100
AcDbSpline
210
0.0
220
0.0
230
1.0
 70
    24
 71
     3
 72
     8
 73
     4
 74
     0
 42
0.0000000001
 43
0.0000000001
 40
0.0
 40
0.0
 40
0.0
 40
0.0
 40
1.0
 40
1.0
 40
1.0
 40
1.0
 10
2.9318
 20
18.331
 30
0.0
 10
2.9318
 20
18.331
 30
0.0
 10
11.4994
 20
18.331
 30
0.0
 10
11.4994
 20
18.331
 30
0.0
  0
SPLINE
  5
184
330
1F
100
AcDbEntity
  8
DEFAULT_1
 62
   250
100
AcDbSpline
210
0.0
220
0.0
230
1.0
 70
    24
 71
     3
 72
     8
 73
     4
 74
     0
 42
0.0000000001
 43
0.0000000001
 40
0.0
 40
0.0
 40
0.0
 40
0.0
 40
1.0
 40
1.0
 40
1.0
 40
1.0
 10
2.9318
 20
18.8768
 30
0.0
 10
2.9318
 20
18.8768
 30
0.0
 10
11.4994
 20
18.8768
 30
0.0
 10
11.4994
 20
18.8768
 30
0.0
  0
SPLINE
  5
185
330
1F
100
AcDbEntity
  8
DEFAULT_1
 62
   250
100
AcDbSpline
210
0.0
220
0.0
230
1.0
 70
    24
 71
     3
 72
     8
 73
     4
 74
     0
 42
0.0000000001
 43
0.0000000001
 40
0.0
 40
0.0
 40
0.0
 40
0.0
 40
1.0
 40
1.0
 40
1.0
 40
1.0
 10
2.9318
 20
19.0084
 30
0.0
 10
2.9318
 20
19.0084
 30
0.0
 10
11.4994
 20
19.0084
 30
0.0
 10
11.4994
 20
19.0084
 30
0.0
  0
SPLINE
  5
186
330
1F
100
AcDbEntity
  8
DEFAULT_1
 62
   250
100
AcDbSpline
210
0.0
220
0.0
230
1.0
 70
    24
 71
     3
 72
     8
 73
     4
 74
     0
 42
0.0000000001
 43
0.0000000001
 40
0.0
 40
0.0
 40
0.0
 40
0.0
 40
1.0
 40
1.0
 40
1.0
 40
1.0
 10
2.9318
 20
19.5542
 30
0.0
 10
2.9318
 20
19.5542
 30
0.0
 10
11.4994
 20
19.5542
 30
0.0
 10
11.4994
 20
19.5542
 30
0.0
  0
SPLINE
  5
187
330
1F
100
AcDbEntity
  8
DEFAULT_1
 62
   250
100
AcDbSpline
210
0.0
220
0.0
230
1.0
 70
    24
 71
     3
 72
     8
 73
     4
 74
     0
 42
0.0000000001
 43
0.0000000001
 40
0.0
 40
0.0
 40
0.0
 40
0.0
 40
1.0
 40
1.0
 40
1.0
 40
1.0
 10
2.9318
 20
19.6856
 30
0.0
 10
2.9318
 20
19.6856
 30
0.0
 10
11.4994
 20
19.6856
 30
0.0
 10
11.4994
 20
19.6856
 30
0.0
  0
SPLINE
  5
188
330
1F
100
AcDbEntity
  8
DEFAULT_1
 62
   250
100
AcDbSpline
210
0.0
220
0.0
230
1.0
 70
    24
 71
     3
 72
     8
 73
     4
 74
     0
 42
0.0000000001
 43
0.0000000001
 40
0.0
 40
0.0
 40
0.0
 40
0.0
 40
1.0
 40
1.0
 40
1.0
 40
1.0
 10
2.9318
 20
20.2316
 30
0.0
 10
2.9318
 20
20.2316
 30
0.0
 10
11.4994
 20
20.2316
 30
0.0
 10
11.4994
 20
20.2316
 30
0.0
  0
SPLINE
  5
189
330
1F
100
AcDbEntity
  8
DEFAULT_1
 62
   250
100
AcDbSpline
210
0.0
220
0.0
230
1.0
 70
    24
 71
     3
 72
     8
 73
     4
 74
     0
 42
0.0000000001
 43
0.0000000001
 40
0.0
 40
0.0
 40
0.0
 40
0.0
 40
1.0
 40
1.0
 40
1.0
 40
1.0
 10
2.9318
 20
20.363
 30
0.0
 10
2.9318
 20
20.363
 30
0.0
 10
11.4994
 20
20.363
 30
0.0
 10
11.4994
 20
20.363
 30
0.0
  0
SPLINE
  5
18A
330
1F
100
AcDbEntity
  8
DEFAULT_1
 62
   250
100
AcDbSpline
210
0.0
220
0.0
230
1.0
 70
    24
 71
     3
 72
     8
 73
     4
 74
     0
 42
0.0000000001
 43
0.0000000001
 40
0.0
 40
0.0
 40
0.0
 40
0.0
 40
1.0
 40
1.0
 40
1.0
 40
1.0
 10
2.9318
 20
20.9089
 30
0.0
 10
2.9318
 20
20.9089
 30
0.0
 10
11.4994
 20
20.9089
 30
0.0
 10
11.4994
 20
20.9089
 30
0.0
  0
SPLINE
  5
18B
330
1F
100
AcDbEntity
  8
DEFAULT_1
 62
   250
100
AcDbSpline
210
0.0
220
0.0
230
1.0
 70
    24
 71
     3
 72
     8
 73
     4
 74
     0
 42
0.0000000001
 43
0.0000000001
 40
0.0
 40
0.0
 40
0.0
 40
0.0
 40
1.0
 40
1.0
 40
1.0
 40
1.0
 10
2.9318
 20
21.0403
 30
0.0
 10
2.9318
 20
21.0403
 30
0.0
 10
11.4994
 20
21.0403
 30
0.0
 10
11.4994
 20
21.0403
 30
0.0
  0
SPLINE
  5
18C
330
1F
100
AcDbEntity
  8
DEFAULT_1
 62
   250
100
AcDbSpline
210
0.0
220
0.0
230
1.0
 70
    24
 71
     3
 72
     8
 73
     4
 74
     0
 42
0.0000000001
 43
0.0000000001
 40
0.0
 40
0.0
 40
0.0
 40
0.0
 40
1.0
 40
1.0
 40
1.0
 40
1.0
 10
-6.0614
 20
21.5863
 30
0.0
 10
-6.0614
 20
21.5863
 30
0.0
 10
11.4994
 20
21.5863
 30
0.0
 10
11.4994
 20
21.5863
 30
0.0
  0
SPLINE
  5
18D
330
1F
100
AcDbEntity
  8
DEFAULT_1
 62
   250
100
AcDbSpline
210
0.0
220
0.0
230
1.0
 70
    24
 71
     3
 72
     8
 73
     4
 74
     0
 42
0.0000000001
 43
0.0000000001
 40
0.0
 40
0.0
 40
0.0
 40
0.0
 40
1.0
 40
1.0
 40
1.0
 40
1.0
 10
11.2708
 20
21.1017
 30
0.0
 10
11.2708
 20
21.1017
 30
0.0
 10
2.9306
 20
21.1017
 30
0.0
 10
2.9306
 20
21.1017
 30
0.0
  0
SPLINE
  5
18E
330
1F
100
AcDbEntity
  8
DEFAULT_1
 62
   250
100
AcDbSpline
210
0.0
220
0.0
230
1.0
 70
    24
 71
     3
 72
     8
 73
     4
 74
     0
 42
0.0000000001
 43
0.0000000001
 40
0.0
 40
0.0
 40
0.0
 40
0.0
 40
1.0
 40
1.0
 40
1.0
 40
1.0
 10
-5.8327
 20
20.8476
 30
0.0
 10
-5.8327
 20
20.8476
 30
0.0
 10
2.5073
 20
20.8476
 30
0.0
 10
2.5073
 20
20.8476
 30
0.0
  0
SPLINE
  5
18F
330
1F
100
AcDbEntity
  8
DEFAULT_1
 62
   250
100
AcDbSpline
210
0.0
220
0.0
230
1.0
 70
    24
 71
     3
 72
     8
 73
     4
 74
     0
 42
0.0000000001
 43
0.0000000001
 40
0.0
 40
0.0
 40
0.0
 40
0.0
 40
1.0
 40
1.0
 40
1.0
 40
1.0
 10
2.5061
 20
20.2316
 30
0.0
 10
2.5061
 20
20.2316
 30
0.0
 10
-6.0614
 20
20.2316
 30
0.0
 10
-6.0614
 20
20.2316
 30
0.0
  0
SPLINE
  5
190
330
1F
100
AcDbEntity
  8
DEFAULT_1
 62
   250
100
AcDbSpline
210
0.0
220
0.0
230
1.0
 70
    24
 71
     3
 72
     8
 73
     4
 74
     0
 42
0.0000000001
 43
0.0000000001
 40
0.0
 40
0.0
 40
0.0
 40
0.0
 40
1.0
 40
1.0
 40
1.0
 40
1.0
 10
-6.0614
 20
19.6856
 30
0.0
 10
-6.0614
 20
19.6856
 30
0.0
 10
2.5061
 20
19.6856
 30
0.0
 10
2.5061
 20
19.6856
 30
0.0
  0
SPLINE
  5
191
330
1F
100
AcDbEntity
  8
DEFAULT_1
 62
   250
100
AcDbSpline
210
0.0
220
0.0
230
1.0
 70
    24
 71
     3
 72
     8
 73
     4
 74
     0
 42
0.0000000001
 43
0.0000000001
 40
0.0
 40
0.0
 40
0.0
 40
0.0
 40
1.0
 40
1.0
 40
1.0
 40
1.0
 10
-6.0614
 20
19.0084
 30
0.0
 10
-6.0614
 20
19.0084
 30
0.0
 10
2.5061
 20
19.0084
 30
0.0
 10
2.5061
 20
19.0084
 30
0.0
  0
SPLINE
  5
192
330
1F
100
AcDbEntity
  8
DEFAULT_1
 62
   250
100
AcDbSpline
210
0.0
220
0.0
230
1.0
 70
    24
 71
     3
 72
     8
 73
     4
 74
     0
 42
0.0000000001
 43
0.0000000001
 40
0.0
 40
0.0
 40
0.0
 40
0.0
 40
1.0
 40
1.0
 40
1.0
 40
1.0
 10
11.2708
 20
20.1702
 30
0.0
 10
11.2708
 20
20.1702
 30
0.0
 10
2.9306
 20
20.1702
 30
0.0
 10
2.9306
 20
20.1702
 30
0.0
  0
SPLINE
  5
193
330
1F
100
AcDbEntity
  8
DEFAULT_1
 62
   250
100
AcDbSpline
210
0.0
220
0.0
230
1.0
 70
    24
 71
     3
 72
     8
 73
     4
 74
     0
 42
0.0000000001
 43
0.0000000001
 40
0.0
 40
0.0
 40
0.0
 40
0.0
 40
1.0
 40
1.0
 40
1.0
 40
1.0
 10
-5.8327
 20
20.4243
 30
0.0
 10
-5.8327
 20
20.4243
 30
0.0
 10
2.5073
 20
20.4243
 30
0.0
 10
2.5073
 20
20.4243
 30
0.0
  0
SPLINE
  5
194
330
1F
100
AcDbEntity
  8
DEFAULT_1
 62
   250
100
AcDbSpline
210
0.0
220
0.0
230
1.0
 70
    24
 71
     3
 72
     8
 73
     4
 74
     0
 42
0.0000000001
 43
0.0000000001
 40
0.0
 40
0.0
 40
0.0
 40
0.0
 40
1.0
 40
1.0
 40
1.0
 40
1.0
 10
11.2708
 20
20.4243
 30
0.0
 10
11.2708
 20
20.4243
 30
0.0
 10
2.9306
 20
20.4243
 30
0.0
 10
2.9306
 20
20.4243
 30
0.0
  0
SPLINE
  5
195
330
1F
100
AcDbEntity
  8
DEFAULT_1
 62
   250
100
AcDbSpline
210
0.0
220
0.0
230
1.0
 70
    24
 71
     3
 72
     8
 73
     4
 74
     0
 42
0.0000000001
 43
0.0000000001
 40
0.0
 40
0.0
 40
0.0
 40
0.0
 40
1.0
 40
1.0
 40
1.0
 40
1.0
 10
2.5073
 20
20.1702
 30
0.0
 10
2.5073
 20
20.1702
 30
0.0
 10
-5.8327
 20
20.1702
 30
0.0
 10
-5.8327
 20
20.1702
 30
0.0
  0
SPLINE
  5
196
330
1F
100
AcDbEntity
  8
DEFAULT_1
 62
   250
100
AcDbSpline
210
0.0
220
0.0
230
1.0
 70
    24
 71
     3
 72
     8
 73
     4
 74
     0
 42
0.0000000001
 43
0.0000000001
 40
0.0
 40
0.0
 40
0.0
 40
0.0
 40
1.0
 40
1.0
 40
1.0
 40
1.0
 10
-5.8327
 20
19.7469
 30
0.0
 10
-5.8327
 20
19.7469
 30
0.0
 10
2.5073
 20
19.7469
 30
0.0
 10
2.5073
 20
19.7469
 30
0.0
  0
SPLINE
  5
197
330
1F
100
AcDbEntity
  8
DEFAULT_1
 62
   250
100
AcDbSpline
210
0.0
220
0.0
230
1.0
 70
    24
 71
     3
 72
     8
 73
     4
 74
     0
 42
0.0000000001
 43
0.0000000001
 40
0.0
 40
0.0
 40
0.0
 40
0.0
 40
1.0
 40
1.0
 40
1.0
 40
1.0
 10
11.2708
 20
19.4929
 30
0.0
 10
11.2708
 20
19.4929
 30
0.0
 10
2.9306
 20
19.4929
 30
0.0
 10
2.9306
 20
19.4929
 30
0.0
  0
SPLINE
  5
198
330
1F
100
AcDbEntity
  8
DEFAULT_1
 62
   250
100
AcDbSpline
210
0.0
220
0.0
230
1.0
 70
    24
 71
     3
 72
     8
 73
     4
 74
     0
 42
0.0000000001
 43
0.0000000001
 40
0.0
 40
0.0
 40
0.0
 40
0.0
 40
1.0
 40
1.0
 40
1.0
 40
1.0
 10
-6.0614
 20
18.8768
 30
0.0
 10
-6.0614
 20
18.8768
 30
0.0
 10
2.5061
 20
18.8768
 30
0.0
 10
2.5061
 20
18.8768
 30
0.0
  0
SPLINE
  5
199
330
1F
100
AcDbEntity
  8
DEFAULT_1
 62
   250
100
AcDbSpline
210
0.0
220
0.0
230
1.0
 70
    24
 71
     3
 72
     8
 73
     4
 74
     0
 42
0.0000000001
 43
0.0000000001
 40
0.0
 40
0.0
 40
0.0
 40
0.0
 40
1.0
 40
1.0
 40
1.0
 40
1.0
 10
11.2708
 20
18.8155
 30
0.0
 10
11.2708
 20
18.8155
 30
0.0
 10
2.9306
 20
18.8155
 30
0.0
 10
2.9306
 20
18.8155
 30
0.0
  0
SPLINE
  5
19A
330
1F
100
AcDbEntity
  8
DEFAULT_1
 62
   250
100
AcDbSpline
210
0.0
220
0.0
230
1.0
 70
    24
 71
     3
 72
     8
 73
     4
 74
     0
 42
0.0000000001
 43
0.0000000001
 40
0.0
 40
0.0
 40
0.0
 40
0.0
 40
1.0
 40
1.0
 40
1.0
 40
1.0
 10
2.5061
 20
18.1994
 30
0.0
 10
2.5061
 20
18.1994
 30
0.0
 10
-6.0614
 20
18.1994
 30
0.0
 10
-6.0614
 20
18.1994
 30
0.0
  0
SPLINE
  5
19B
330
1F
100
AcDbEntity
  8
DEFAULT_1
 62
   250
100
AcDbSpline
210
0.0
220
0.0
230
1.0
 70
    24
 71
     3
 72
     8
 73
     4
 74
     0
 42
0.0000000001
 43
0.0000000001
 40
0.0
 40
0.0
 40
0.0
 40
0.0
 40
1.0
 40
1.0
 40
1.0
 40
1.0
 10
-6.0614
 20
17.6536
 30
0.0
 10
-6.0614
 20
17.6536
 30
0.0
 10
2.5061
 20
17.6536
 30
0.0
 10
2.5061
 20
17.6536
 30
0.0
  0
SPLINE
  5
19C
330
1F
100
AcDbEntity
  8
DEFAULT_1
 62
   250
100
AcDbSpline
210
0.0
220
0.0
230
1.0
 70
    24
 71
     3
 72
     8
 73
     4
 74
     0
 42
0.0000000001
 43
0.0000000001
 40
0.0
 40
0.0
 40
0.0
 40
0.0
 40
1.0
 40
1.0
 40
1.0
 40
1.0
 10
2.9306
 20
17.0375
 30
0.0
 10
2.9306
 20
17.0375
 30
0.0
 10
11.2708
 20
17.0375
 30
0.0
 10
11.2708
 20
17.0375
 30
0.0
  0
SPLINE
  5
19D
330
1F
100
AcDbEntity
  8
DEFAULT_1
 62
   250
100
AcDbSpline
210
0.0
220
0.0
230
1.0
 70
    24
 71
     3
 72
     8
 73
     4
 74
     0
 42
0.0000000001
 43
0.0000000001
 40
0.0
 40
0.0
 40
0.0
 40
0.0
 40
1.0
 40
1.0
 40
1.0
 40
1.0
 10
2.9306
 20
16.7835
 30
0.0
 10
2.9306
 20
16.7835
 30
0.0
 10
11.2708
 20
16.7835
 30
0.0
 10
11.2708
 20
16.7835
 30
0.0
  0
SPLINE
  5
19E
330
1F
100
AcDbEntity
  8
DEFAULT_1
 62
   250
100
AcDbSpline
210
0.0
220
0.0
230
1.0
 70
    24
 71
     3
 72
     8
 73
     4
 74
     0
 42
0.0000000001
 43
0.0000000001
 40
0.0
 40
0.0
 40
0.0
 40
0.0
 40
1.0
 40
1.0
 40
1.0
 40
1.0
 10
2.9306
 20
16.3602
 30
0.0
 10
2.9306
 20
16.3602
 30
0.0
 10
11.2708
 20
16.3602
 30
0.0
 10
11.2708
 20
16.3602
 30
0.0
  0
SPLINE
  5
19F
330
1F
100
AcDbEntity
  8
DEFAULT_1
 62
   250
100
AcDbSpline
210
0.0
220
0.0
230
1.0
 70
    24
 71
     3
 72
     8
 73
     4
 74
     0
 42
0.0000000001
 43
0.0000000001
 40
0.0
 40
0.0
 40
0.0
 40
0.0
 40
1.0
 40
1.0
 40
1.0
 40
1.0
 10
2.9306
 20
16.1061
 30
0.0
 10
2.9306
 20
16.1061
 30
0.0
 10
11.2708
 20
16.1061
 30
0.0
 10
11.2708
 20
16.1061
 30
0.0
  0
SPLINE
  5
1A0
330
1F
100
AcDbEntity
  8
DEFAULT_1
 62
   250
100
AcDbSpline
210
0.0
220
0.0
230
1.0
 70
    24
 71
     3
 72
     8
 73
     4
 74
     0
 42
0.0000000001
 43
0.0000000001
 40
0.0
 40
0.0
 40
0.0
 40
0.0
 40
1.0
 40
1.0
 40
1.0
 40
1.0
 10
2.9306
 20
15.6828
 30
0.0
 10
2.9306
 20
15.6828
 30
0.0
 10
11.2708
 20
15.6828
 30
0.0
 10
11.2708
 20
15.6828
 30
0.0
  0
SPLINE
  5
1A1
330
1F
100
AcDbEntity
  8
DEFAULT_1
 62
   250
100
AcDbSpline
210
0.0
220
0.0
230
1.0
 70
    24
 71
     3
 72
     8
 73
     4
 74
     0
 42
0.0000000001
 43
0.0000000001
 40
0.0
 40
0.0
 40
0.0
 40
0.0
 40
1.0
 40
1.0
 40
1.0
 40
1.0
 10
2.9306
 20
15.4287
 30
0.0
 10
2.9306
 20
15.4287
 30
0.0
 10
11.2708
 20
15.4287
 30
0.0
 10
11.2708
 20
15.4287
 30
0.0
  0
SPLINE
  5
1A2
330
1F
100
AcDbEntity
  8
DEFAULT_1
 62
   250
100
AcDbSpline
210
0.0
220
0.0
230
1.0
 70
    24
 71
     3
 72
     8
 73
     4
 74
     0
 42
0.0000000001
 43
0.0000000001
 40
0.0
 40
0.0
 40
0.0
 40
0.0
 40
1.0
 40
1.0
 40
1.0
 40
1.0
 10
2.9306
 20
15.0054
 30
0.0
 10
2.9306
 20
15.0054
 30
0.0
 10
11.2708
 20
15.0054
 30
0.0
 10
11.2708
 20
15.0054
 30
0.0
  0
SPLINE
  5
1A3
330
1F
100
AcDbEntity
  8
DEFAULT_1
 62
   250
100
AcDbSpline
210
0.0
220
0.0
230
1.0
 70
    24
 71
     3
 72
     8
 73
     4
 74
     0
 42
0.0000000001
 43
0.0000000001
 40
0.0
 40
0.0
 40
0.0
 40
0.0
 40
1.0
 40
1.0
 40
1.0
 40
1.0
 10
2.9306
 20
14.7514
 30
0.0
 10
2.9306
 20
14.7514
 30
0.0
 10
11.2708
 20
14.7514
 30
0.0
 10
11.2708
 20
14.7514
 30
0.0
  0
SPLINE
  5
1A4
330
1F
100
AcDbEntity
  8
DEFAULT_1
 62
   250
100
AcDbSpline
210
0.0
220
0.0
230
1.0
 70
    24
 71
     3
 72
     8
 73
     4
 74
     0
 42
0.0000000001
 43
0.0000000001
 40
0.0
 40
0.0
 40
0.0
 40
0.0
 40
1.0
 40
1.0
 40
1.0
 40
1.0
 10
2.9306
 20
14.3281
 30
0.0
 10
2.9306
 20
14.3281
 30
0.0
 10
11.2708
 20
14.3281
 30
0.0
 10
11.2708
 20
14.3281
 30
0.0
  0
SPLINE
  5
1A5
330
1F
100
AcDbEntity
  8
DEFAULT_1
 62
   250
100
AcDbSpline
210
0.0
220
0.0
230
1.0
 70
    24
 71
     3
 72
     8
 73
     4
 74
     0
 42
0.0000000001
 43
0.0000000001
 40
0.0
 40
0.0
 40
0.0
 40
0.0
 40
1.0
 40
1.0
 40
1.0
 40
1.0
 10
2.9306
 20
14.0741
 30
0.0
 10
2.9306
 20
14.0741
 30
0.0
 10
11.2708
 20
14.0741
 30
0.0
 10
11.2708
 20
14.0741
 30
0.0
  0
SPLINE
  5
1A6
330
1F
100
AcDbEntity
  8
DEFAULT_1
 62
   250
100
AcDbSpline
210
0.0
220
0.0
230
1.0
 70
    24
 71
     3
 72
     8
 73
     4
 74
     0
 42
0.0000000001
 43
0.0000000001
 40
0.0
 40
0.0
 40
0.0
 40
0.0
 40
1.0
 40
1.0
 40
1.0
 40
1.0
 10
2.9306
 20
13.6507
 30
0.0
 10
2.9306
 20
13.6507
 30
0.0
 10
11.2708
 20
13.6507
 30
0.0
 10
11.2708
 20
13.6507
 30
0.0
  0
SPLINE
  5
1A7
330
1F
100
AcDbEntity
  8
DEFAULT_1
 62
   250
100
AcDbSpline
210
0.0
220
0.0
230
1.0
 70
    24
 71
     3
 72
     8
 73
     4
 74
     0
 42
0.0000000001
 43
0.0000000001
 40
0.0
 40
0.0
 40
0.0
 40
0.0
 40
1.0
 40
1.0
 40
1.0
 40
1.0
 10
2.9306
 20
13.3967
 30
0.0
 10
2.9306
 20
13.3967
 30
0.0
 10
11.2708
 20
13.3967
 30
0.0
 10
11.2708
 20
13.3967
 30
0.0
  0
SPLINE
  5
1A8
330
1F
100
AcDbEntity
  8
DEFAULT_1
 62
   250
100
AcDbSpline
210
0.0
220
0.0
230
1.0
 70
    24
 71
     3
 72
     8
 73
     4
 74
     0
 42
0.0000000001
 43
0.0000000001
 40
0.0
 40
0.0
 40
0.0
 40
0.0
 40
1.0
 40
1.0
 40
1.0
 40
1.0
 10
2.9306
 20
12.9733
 30
0.0
 10
2.9306
 20
12.9733
 30
0.0
 10
11.2708
 20
12.9733
 30
0.0
 10
11.2708
 20
12.9733
 30
0.0
  0
SPLINE
  5
1A9
330
1F
100
AcDbEntity
  8
DEFAULT_1
 62
   250
100
AcDbSpline
210
0.0
220
0.0
230
1.0
 70
    24
 71
     3
 72
     8
 73
     4
 74
     0
 42
0.0000000001
 43
0.0000000001
 40
0.0
 40
0.0
 40
0.0
 40
0.0
 40
1.0
 40
1.0
 40
1.0
 40
1.0
 10
2.9306
 20
12.7193
 30
0.0
 10
2.9306
 20
12.7193
 30
0.0
 10
11.2708
 20
12.7193
 30
0.0
 10
11.2708
 20
12.7193
 30
0.0
  0
SPLINE
  5
1AA
330
1F
100
AcDbEntity
  8
DEFAULT_1
 62
   250
100
AcDbSpline
210
0.0
220
0.0
230
1.0
 70
    24
 71
     3
 72
     8
 73
     4
 74
     0
 42
0.0000000001
 43
0.0000000001
 40
0.0
 40
0.0
 40
0.0
 40
0.0
 40
1.0
 40
1.0
 40
1.0
 40
1.0
 10
2.9306
 20
12.2959
 30
0.0
 10
2.9306
 20
12.2959
 30
0.0
 10
11.2708
 20
12.2959
 30
0.0
 10
11.2708
 20
12.2959
 30
0.0
  0
SPLINE
  5
1AB
330
1F
100
AcDbEntity
  8
DEFAULT_1
 62
   250
100
AcDbSpline
210
0.0
220
0.0
230
1.0
 70
    24
 71
     3
 72
     8
 73
     4
 74
     0
 42
0.0000000001
 43
0.0000000001
 40
0.0
 40
0.0
 40
0.0
 40
0.0
 40
1.0
 40
1.0
 40
1.0
 40
1.0
 10
2.9306
 20
12.0419
 30
0.0
 10
2.9306
 20
12.0419
 30
0.0
 10
11.2708
 20
12.0419
 30
0.0
 10
11.2708
 20
12.0419
 30
0.0
  0
SPLINE
  5
1AC
330
1F
100
AcDbEntity
  8
DEFAULT_1
 62
   250
100
AcDbSpline
210
0.0
220
0.0
230
1.0
 70
    24
 71
     3
 72
     8
 73
     4
 74
     0
 42
0.0000000001
 43
0.0000000001
 40
0.0
 40
0.0
 40
0.0
 40
0.0
 40
1.0
 40
1.0
 40
1.0
 40
1.0
 10
2.9306
 20
11.6186
 30
0.0
 10
2.9306
 20
11.6186
 30
0.0
 10
11.2708
 20
11.6186
 30
0.0
 10
11.2708
 20
11.6186
 30
0.0
  0
SPLINE
  5
1AD
330
1F
100
AcDbEntity
  8
DEFAULT_1
 62
   250
100
AcDbSpline
210
0.0
220
0.0
230
1.0
 70
    24
 71
     3
 72
     8
 73
     4
 74
     0
 42
0.0000000001
 43
0.0000000001
 40
0.0
 40
0.0
 40
0.0
 40
0.0
 40
1.0
 40
1.0
 40
1.0
 40
1.0
 10
2.9306
 20
11.3645
 30
0.0
 10
2.9306
 20
11.3645
 30
0.0
 10
11.2708
 20
11.3645
 30
0.0
 10
11.2708
 20
11.3645
 30
0.0
  0
SPLINE
  5
1AE
330
1F
100
AcDbEntity
  8
DEFAULT_1
 62
   250
100
AcDbSpline
210
0.0
220
0.0
230
1.0
 70
    24
 71
     3
 72
     8
 73
     4
 74
     0
 42
0.0000000001
 43
0.0000000001
 40
0.0
 40
0.0
 40
0.0
 40
0.0
 40
1.0
 40
1.0
 40
1.0
 40
1.0
 10
2.9306
 20
10.9412
 30
0.0
 10
2.9306
 20
10.9412
 30
0.0
 10
11.2708
 20
10.9412
 30
0.0
 10
11.2708
 20
10.9412
 30
0.0
  0
SPLINE
  5
1AF
330
1F
100
AcDbEntity
  8
DEFAULT_1
 62
   250
100
AcDbSpline
210
0.0
220
0.0
230
1.0
 70
    24
 71
     3
 72
     8
 73
     4
 74
     0
 42
0.0000000001
 43
0.0000000001
 40
0.0
 40
0.0
 40
0.0
 40
0.0
 40
1.0
 40
1.0
 40
1.0
 40
1.0
 10
2.9306
 20
10.6872
 30
0.0
 10
2.9306
 20
10.6872
 30
0.0
 10
11.2708
 20
10.6872
 30
0.0
 10
11.2708
 20
10.6872
 30
0.0
  0
SPLINE
  5
1B0
330
1F
100
AcDbEntity
  8
DEFAULT_1
 62
   250
100
AcDbSpline
210
0.0
220
0.0
230
1.0
 70
    24
 71
     3
 72
     8
 73
     4
 74
     0
 42
0.0000000001
 43
0.0000000001
 40
0.0
 40
0.0
 40
0.0
 40
0.0
 40
1.0
 40
1.0
 40
1.0
 40
1.0
 10
2.9306
 20
10.2638
 30
0.0
 10
2.9306
 20
10.2638
 30
0.0
 10
11.2708
 20
10.2638
 30
0.0
 10
11.2708
 20
10.2638
 30
0.0
  0
SPLINE
  5
1B1
330
1F
100
AcDbEntity
  8
DEFAULT_1
 62
   250
100
AcDbSpline
210
0.0
220
0.0
230
1.0
 70
    24
 71
     3
 72
     8
 73
     4
 74
     0
 42
0.0000000001
 43
0.0000000001
 40
0.0
 40
0.0
 40
0.0
 40
0.0
 40
1.0
 40
1.0
 40
1.0
 40
1.0
 10
2.9306
 20
10.0098
 30
0.0
 10
2.9306
 20
10.0098
 30
0.0
 10
11.2708
 20
10.0098
 30
0.0
 10
11.2708
 20
10.0098
 30
0.0
  0
SPLINE
  5
1B2
330
1F
100
AcDbEntity
  8
DEFAULT_1
 62
   250
100
AcDbSpline
210
0.0
220
0.0
230
1.0
 70
    24
 71
     3
 72
     8
 73
     4
 74
     0
 42
0.0000000001
 43
0.0000000001
 40
0.0
 40
0.0
 40
0.0
 40
0.0
 40
1.0
 40
1.0
 40
1.0
 40
1.0
 10
2.9306
 20
9.5865
 30
0.0
 10
2.9306
 20
9.5865
 30
0.0
 10
11.2708
 20
9.5865
 30
0.0
 10
11.2708
 20
9.5865
 30
0.0
  0
SPLINE
  5
1B3
330
1F
100
AcDbEntity
  8
DEFAULT_1
 62
   250
100
AcDbSpline
210
0.0
220
0.0
230
1.0
 70
    24
 71
     3
 72
     8
 73
     4
 74
     0
 42
0.0000000001
 43
0.0000000001
 40
0.0
 40
0.0
 40
0.0
 40
0.0
 40
1.0
 40
1.0
 40
1.0
 40
1.0
 10
2.9306
 20
9.3324
 30
0.0
 10
2.9306
 20
9.3324
 30
0.0
 10
11.2708
 20
9.3324
 30
0.0
 10
11.2708
 20
9.3324
 30
0.0
  0
SPLINE
  5
1B4
330
1F
100
AcDbEntity
  8
DEFAULT_1
 62
   250
100
AcDbSpline
210
0.0
220
0.0
230
1.0
 70
    24
 71
     3
 72
     8
 73
     4
 74
     0
 42
0.0000000001
 43
0.0000000001
 40
0.0
 40
0.0
 40
0.0
 40
0.0
 40
1.0
 40
1.0
 40
1.0
 40
1.0
 10
2.9306
 20
8.9091
 30
0.0
 10
2.9306
 20
8.9091
 30
0.0
 10
11.2708
 20
8.9091
 30
0.0
 10
11.2708
 20
8.9091
 30
0.0
  0
SPLINE
  5
1B5
330
1F
100
AcDbEntity
  8
DEFAULT_1
 62
   250
100
AcDbSpline
210
0.0
220
0.0
230
1.0
 70
    24
 71
     3
 72
     8
 73
     4
 74
     0
 42
0.0000000001
 43
0.0000000001
 40
0.0
 40
0.0
 40
0.0
 40
0.0
 40
1.0
 40
1.0
 40
1.0
 40
1.0
 10
2.9306
 20
8.655
 30
0.0
 10
2.9306
 20
8.655
 30
0.0
 10
11.2708
 20
8.655
 30
0.0
 10
11.2708
 20
8.655
 30
0.0
  0
SPLINE
  5
1B6
330
1F
100
AcDbEntity
  8
DEFAULT_1
 62
   250
100
AcDbSpline
210
0.0
220
0.0
230
1.0
 70
    24
 71
     3
 72
     8
 73
     4
 74
     0
 42
0.0000000001
 43
0.0000000001
 40
0.0
 40
0.0
 40
0.0
 40
0.0
 40
1.0
 40
1.0
 40
1.0
 40
1.0
 10
2.9318
 20
8.1705
 30
0.0
 10
2.9318
 20
8.1705
 30
0.0
 10
11.4994
 20
8.1705
 30
0.0
 10
11.4994
 20
8.1705
 30
0.0
  0
SPLINE
  5
1B7
330
1F
100
AcDbEntity
  8
DEFAULT_1
 62
   250
100
AcDbSpline
210
0.0
220
0.0
230
1.0
 70
    24
 71
     3
 72
     8
 73
     4
 74
     0
 42
0.0000000001
 43
0.0000000001
 40
0.0
 40
0.0
 40
0.0
 40
0.0
 40
1.0
 40
1.0
 40
1.0
 40
1.0
 10
11.4994
 20
8.039
 30
0.0
 10
11.4994
 20
8.039
 30
0.0
 10
2.9318
 20
8.039
 30
0.0
 10
2.9318
 20
8.039
 30
0.0
  0
SPLINE
  5
1B8
330
1F
100
AcDbEntity
  8
DEFAULT_1
 62
   250
100
AcDbSpline
210
0.0
220
0.0
230
1.0
 70
    24
 71
     3
 72
     8
 73
     4
 74
     0
 42
0.0000000001
 43
0.0000000001
 40
0.0
 40
0.0
 40
0.0
 40
0.0
 40
1.0
 40
1.0
 40
1.0
 40
1.0
 10
-6.0614
 20
7.4931
 30
0.0
 10
-6.0614
 20
7.4931
 30
0.0
 10
2.5061
 20
7.4931
 30
0.0
 10
2.5061
 20
7.4931
 30
0.0
  0
SPLINE
  5
1B9
330
1F
100
AcDbEntity
  8
DEFAULT_1
 62
   250
100
AcDbSpline
210
0.0
220
0.0
230
1.0
 70
    24
 71
     3
 72
     8
 73
     4
 74
     0
 42
0.0000000001
 43
0.0000000001
 40
0.0
 40
0.0
 40
0.0
 40
0.0
 40
1.0
 40
1.0
 40
1.0
 40
1.0
 10
2.9306
 20
7.2157
 30
0.0
 10
2.9306
 20
7.2157
 30
0.0
 10
8.766
 20
7.2157
 30
0.0
 10
8.766
 20
7.2157
 30
0.0
  0
SPLINE
  5
1BA
330
1F
100
AcDbEntity
  8
DEFAULT_1
 62
   250
100
AcDbSpline
210
0.0
220
0.0
230
1.0
 70
    24
 71
     3
 72
     8
 73
     4
 74
     0
 42
0.0000000001
 43
0.0000000001
 40
0.0
 40
0.0
 40
0.0
 40
0.0
 40
1.0
 40
1.0
 40
1.0
 40
1.0
 10
11.2708
 20
7.2157
 30
0.0
 10
11.2708
 20
7.2157
 30
0.0
 10
8.8389
 20
7.2157
 30
0.0
 10
8.8389
 20
7.2157
 30
0.0
  0
SPLINE
  5
1BB
330
1F
100
AcDbEntity
  8
DEFAULT_1
 62
   250
100
AcDbSpline
210
0.0
220
0.0
230
1.0
 70
    24
 71
     3
 72
     8
 73
     4
 74
     0
 42
0.0000000001
 43
0.0000000001
 40
0.0
 40
0.0
 40
0.0
 40
0.0
 40
1.0
 40
1.0
 40
1.0
 40
1.0
 10
-5.8327
 20
7.5544
 30
0.0
 10
-5.8327
 20
7.5544
 30
0.0
 10
2.5073
 20
7.5544
 30
0.0
 10
2.5073
 20
7.5544
 30
0.0
  0
SPLINE
  5
1BC
330
1F
100
AcDbEntity
  8
DEFAULT_1
 62
   250
100
AcDbSpline
210
0.0
220
0.0
230
1.0
 70
    24
 71
     3
 72
     8
 73
     4
 74
     0
 42
0.0000000001
 43
0.0000000001
 40
0.0
 40
0.0
 40
0.0
 40
0.0
 40
1.0
 40
1.0
 40
1.0
 40
1.0
 10
-6.0614
 20
8.8479
 30
0.0
 10
-6.0614
 20
8.8479
 30
0.0
 10
2.5061
 20
8.8479
 30
0.0
 10
2.5061
 20
8.8479
 30
0.0
  0
SPLINE
  5
1BD
330
1F
100
AcDbEntity
  8
DEFAULT_1
 62
   250
100
AcDbSpline
210
0.0
220
0.0
230
1.0
 70
    24
 71
     3
 72
     8
 73
     4
 74
     0
 42
0.0000000001
 43
0.0000000001
 40
0.0
 40
0.0
 40
0.0
 40
0.0
 40
1.0
 40
1.0
 40
1.0
 40
1.0
 10
-6.0614
 20
10.7484
 30
0.0
 10
-6.0614
 20
10.7484
 30
0.0
 10
2.5061
 20
10.7484
 30
0.0
 10
2.5061
 20
10.7484
 30
0.0
  0
SPLINE
  5
1BE
330
1F
100
AcDbEntity
  8
DEFAULT_1
 62
   250
100
AcDbSpline
210
0.0
220
0.0
230
1.0
 70
    24
 71
     3
 72
     8
 73
     4
 74
     0
 42
0.0000000001
 43
0.0000000001
 40
0.0
 40
0.0
 40
0.0
 40
0.0
 40
1.0
 40
1.0
 40
1.0
 40
1.0
 10
-6.0614
 20
11.4258
 30
0.0
 10
-6.0614
 20
11.4258
 30
0.0
 10
2.5061
 20
11.4258
 30
0.0
 10
2.5061
 20
11.4258
 30
0.0
  0
SPLINE
  5
1BF
330
1F
100
AcDbEntity
  8
DEFAULT_1
 62
   250
100
AcDbSpline
210
0.0
220
0.0
230
1.0
 70
    24
 71
     3
 72
     8
 73
     4
 74
     0
 42
0.0000000001
 43
0.0000000001
 40
0.0
 40
0.0
 40
0.0
 40
0.0
 40
1.0
 40
1.0
 40
1.0
 40
1.0
 10
2.5073
 20
11.3645
 30
0.0
 10
2.5073
 20
11.3645
 30
0.0
 10
-5.8327
 20
11.3645
 30
0.0
 10
-5.8327
 20
11.3645
 30
0.0
  0
SPLINE
  5
1C0
330
1F
100
AcDbEntity
  8
DEFAULT_1
 62
   250
100
AcDbSpline
210
0.0
220
0.0
230
1.0
 70
    24
 71
     3
 72
     8
 73
     4
 74
     0
 42
0.0000000001
 43
0.0000000001
 40
0.0
 40
0.0
 40
0.0
 40
0.0
 40
1.0
 40
1.0
 40
1.0
 40
1.0
 10
-5.8327
 20
11.6186
 30
0.0
 10
-5.8327
 20
11.6186
 30
0.0
 10
2.5073
 20
11.6186
 30
0.0
 10
2.5073
 20
11.6186
 30
0.0
  0
SPLINE
  5
1C1
330
1F
100
AcDbEntity
  8
DEFAULT_1
 62
   250
100
AcDbSpline
210
0.0
220
0.0
230
1.0
 70
    24
 71
     3
 72
     8
 73
     4
 74
     0
 42
0.0000000001
 43
0.0000000001
 40
0.0
 40
0.0
 40
0.0
 40
0.0
 40
1.0
 40
1.0
 40
1.0
 40
1.0
 10
2.5061
 20
11.5573
 30
0.0
 10
2.5061
 20
11.5573
 30
0.0
 10
-6.0614
 20
11.5573
 30
0.0
 10
-6.0614
 20
11.5573
 30
0.0
  0
SPLINE
  5
1C2
330
1F
100
AcDbEntity
  8
DEFAULT_1
 62
   250
100
AcDbSpline
210
0.0
220
0.0
230
1.0
 70
    24
 71
     3
 72
     8
 73
     4
 74
     0
 42
0.0000000001
 43
0.0000000001
 40
0.0
 40
0.0
 40
0.0
 40
0.0
 40
1.0
 40
1.0
 40
1.0
 40
1.0
 10
-6.0614
 20
12.1032
 30
0.0
 10
-6.0614
 20
12.1032
 30
0.0
 10
2.5061
 20
12.1032
 30
0.0
 10
2.5061
 20
12.1032
 30
0.0
  0
SPLINE
  5
1C3
330
1F
100
AcDbEntity
  8
DEFAULT_1
 62
   250
100
AcDbSpline
210
0.0
220
0.0
230
1.0
 70
    24
 71
     3
 72
     8
 73
     4
 74
     0
 42
0.0000000001
 43
0.0000000001
 40
0.0
 40
0.0
 40
0.0
 40
0.0
 40
1.0
 40
1.0
 40
1.0
 40
1.0
 10
2.9306
 20
12.9733
 30
0.0
 10
2.9306
 20
12.9733
 30
0.0
 10
2.9306
 20
12.7193
 30
0.0
 10
2.9306
 20
12.7193
 30
0.0
  0
SPLINE
  5
1C4
330
1F
100
AcDbEntity
  8
DEFAULT_1
 62
   250
100
AcDbSpline
210
0.0
220
0.0
230
1.0
 70
    24
 71
     3
 72
     8
 73
     4
 74
     0
 42
0.0000000001
 43
0.0000000001
 40
0.0
 40
0.0
 40
0.0
 40
0.0
 40
1.0
 40
1.0
 40
1.0
 40
1.0
 10
-5.8327
 20
12.2959
 30
0.0
 10
-5.8327
 20
12.2959
 30
0.0
 10
2.5073
 20
12.2959
 30
0.0
 10
2.5073
 20
12.2959
 30
0.0
  0
SPLINE
  5
1C5
330
1F
100
AcDbEntity
  8
DEFAULT_1
 62
   250
100
AcDbSpline
210
0.0
220
0.0
230
1.0
 70
    24
 71
     3
 72
     8
 73
     4
 74
     0
 42
0.0000000001
 43
0.0000000001
 40
0.0
 40
0.0
 40
0.0
 40
0.0
 40
1.0
 40
1.0
 40
1.0
 40
1.0
 10
2.5061
 20
12.7805
 30
0.0
 10
2.5061
 20
12.7805
 30
0.0
 10
-6.0614
 20
12.7805
 30
0.0
 10
-6.0614
 20
12.7805
 30
0.0
  0
SPLINE
  5
1C6
330
1F
100
AcDbEntity
  8
DEFAULT_1
 62
   250
100
AcDbSpline
210
0.0
220
0.0
230
1.0
 70
    24
 71
     3
 72
     8
 73
     4
 74
     0
 42
0.0000000001
 43
0.0000000001
 40
0.0
 40
0.0
 40
0.0
 40
0.0
 40
1.0
 40
1.0
 40
1.0
 40
1.0
 10
-6.0614
 20
12.9121
 30
0.0
 10
-6.0614
 20
12.9121
 30
0.0
 10
2.5061
 20
12.9121
 30
0.0
 10
2.5061
 20
12.9121
 30
0.0
  0
SPLINE
  5
1C7
330
1F
100
AcDbEntity
  8
DEFAULT_1
 62
   250
100
AcDbSpline
210
0.0
220
0.0
230
1.0
 70
    24
 71
     3
 72
     8
 73
     4
 74
     0
 42
0.0000000001
 43
0.0000000001
 40
0.0
 40
0.0
 40
0.0
 40
0.0
 40
1.0
 40
1.0
 40
1.0
 40
1.0
 10
-5.8327
 20
12.9733
 30
0.0
 10
-5.8327
 20
12.9733
 30
0.0
 10
2.5073
 20
12.9733
 30
0.0
 10
2.5073
 20
12.9733
 30
0.0
  0
SPLINE
  5
1C8
330
1F
100
AcDbEntity
  8
DEFAULT_1
 62
   250
100
AcDbSpline
210
0.0
220
0.0
230
1.0
 70
    24
 71
     3
 72
     8
 73
     4
 74
     0
 42
0.0000000001
 43
0.0000000001
 40
0.0
 40
0.0
 40
0.0
 40
0.0
 40
1.0
 40
1.0
 40
1.0
 40
1.0
 10
2.5061
 20
13.5894
 30
0.0
 10
2.5061
 20
13.5894
 30
0.0
 10
-6.0614
 20
13.5894
 30
0.0
 10
-6.0614
 20
13.5894
 30
0.0
  0
SPLINE
  5
1C9
330
1F
100
AcDbEntity
  8
DEFAULT_1
 62
   250
100
AcDbSpline
210
0.0
220
0.0
230
1.0
 70
    24
 71
     3
 72
     8
 73
     4
 74
     0
 42
0.0000000001
 43
0.0000000001
 40
0.0
 40
0.0
 40
0.0
 40
0.0
 40
1.0
 40
1.0
 40
1.0
 40
1.0
 10
-6.0614
 20
14.1353
 30
0.0
 10
-6.0614
 20
14.1353
 30
0.0
 10
2.5061
 20
14.1353
 30
0.0
 10
2.5061
 20
14.1353
 30
0.0
  0
SPLINE
  5
1CA
330
1F
100
AcDbEntity
  8
DEFAULT_1
 62
   250
100
AcDbSpline
210
0.0
220
0.0
230
1.0
 70
    24
 71
     3
 72
     8
 73
     4
 74
     0
 42
0.0000000001
 43
0.0000000001
 40
0.0
 40
0.0
 40
0.0
 40
0.0
 40
1.0
 40
1.0
 40
1.0
 40
1.0
 10
-6.0614
 20
14.8127
 30
0.0
 10
-6.0614
 20
14.8127
 30
0.0
 10
2.5061
 20
14.8127
 30
0.0
 10
2.5061
 20
14.8127
 30
0.0
  0
SPLINE
  5
1CB
330
1F
100
AcDbEntity
  8
DEFAULT_1
 62
   250
100
AcDbSpline
210
0.0
220
0.0
230
1.0
 70
    24
 71
     3
 72
     8
 73
     4
 74
     0
 42
0.0000000001
 43
0.0000000001
 40
0.0
 40
0.0
 40
0.0
 40
0.0
 40
1.0
 40
1.0
 40
1.0
 40
1.0
 10
2.5061
 20
14.9442
 30
0.0
 10
2.5061
 20
14.9442
 30
0.0
 10
-6.0614
 20
14.9442
 30
0.0
 10
-6.0614
 20
14.9442
 30
0.0
  0
SPLINE
  5
1CC
330
1F
100
AcDbEntity
  8
DEFAULT_1
 62
   250
100
AcDbSpline
210
0.0
220
0.0
230
1.0
 70
    24
 71
     3
 72
     8
 73
     4
 74
     0
 42
0.0000000001
 43
0.0000000001
 40
0.0
 40
0.0
 40
0.0
 40
0.0
 40
1.0
 40
1.0
 40
1.0
 40
1.0
 10
-6.0614
 20
15.49
 30
0.0
 10
-6.0614
 20
15.49
 30
0.0
 10
2.5061
 20
15.49
 30
0.0
 10
2.5061
 20
15.49
 30
0.0
  0
SPLINE
  5
1CD
330
1F
100
AcDbEntity
  8
DEFAULT_1
 62
   250
100
AcDbSpline
210
0.0
220
0.0
230
1.0
 70
    24
 71
     3
 72
     8
 73
     4
 74
     0
 42
0.0000000001
 43
0.0000000001
 40
0.0
 40
0.0
 40
0.0
 40
0.0
 40
1.0
 40
1.0
 40
1.0
 40
1.0
 10
2.5061
 20
16.2988
 30
0.0
 10
2.5061
 20
16.2988
 30
0.0
 10
-6.0614
 20
16.2988
 30
0.0
 10
-6.0614
 20
16.2988
 30
0.0
  0
SPLINE
  5
1CE
330
1F
100
AcDbEntity
  8
DEFAULT_1
 62
   250
100
AcDbSpline
210
0.0
220
0.0
230
1.0
 70
    24
 71
     3
 72
     8
 73
     4
 74
     0
 42
0.0000000001
 43
0.0000000001
 40
0.0
 40
0.0
 40
0.0
 40
0.0
 40
1.0
 40
1.0
 40
1.0
 40
1.0
 10
-6.0614
 20
16.1674
 30
0.0
 10
-6.0614
 20
16.1674
 30
0.0
 10
2.5061
 20
16.1674
 30
0.0
 10
2.5061
 20
16.1674
 30
0.0
  0
SPLINE
  5
1CF
330
1F
100
AcDbEntity
  8
DEFAULT_1
 62
   250
100
AcDbSpline
210
0.0
220
0.0
230
1.0
 70
    24
 71
     3
 72
     8
 73
     4
 74
     0
 42
0.0000000001
 43
0.0000000001
 40
0.0
 40
0.0
 40
0.0
 40
0.0
 40
1.0
 40
1.0
 40
1.0
 40
1.0
 10
-5.8327
 20
15.6828
 30
0.0
 10
-5.8327
 20
15.6828
 30
0.0
 10
2.5073
 20
15.6828
 30
0.0
 10
2.5073
 20
15.6828
 30
0.0
  0
SPLINE
  5
1D0
330
1F
100
AcDbEntity
  8
DEFAULT_1
 62
   250
100
AcDbSpline
210
0.0
220
0.0
230
1.0
 70
    24
 71
     3
 72
     8
 73
     4
 74
     0
 42
0.0000000001
 43
0.0000000001
 40
0.0
 40
0.0
 40
0.0
 40
0.0
 40
1.0
 40
1.0
 40
1.0
 40
1.0
 10
2.5073
 20
16.1061
 30
0.0
 10
2.5073
 20
16.1061
 30
0.0
 10
-5.8327
 20
16.1061
 30
0.0
 10
-5.8327
 20
16.1061
 30
0.0
  0
SPLINE
  5
1D1
330
1F
100
AcDbEntity
  8
DEFAULT_1
 62
   250
100
AcDbSpline
210
0.0
220
0.0
230
1.0
 70
    24
 71
     3
 72
     8
 73
     4
 74
     0
 42
0.0000000001
 43
0.0000000001
 40
0.0
 40
0.0
 40
0.0
 40
0.0
 40
1.0
 40
1.0
 40
1.0
 40
1.0
 10
-5.8327
 20
16.3602
 30
0.0
 10
-5.8327
 20
16.3602
 30
0.0
 10
2.5073
 20
16.3602
 30
0.0
 10
2.5073
 20
16.3602
 30
0.0
  0
SPLINE
  5
1D2
330
1F
100
AcDbEntity
  8
DEFAULT_1
 62
   250
100
AcDbSpline
210
0.0
220
0.0
230
1.0
 70
    24
 71
     3
 72
     8
 73
     4
 74
     0
 42
0.0000000001
 43
0.0000000001
 40
0.0
 40
0.0
 40
0.0
 40
0.0
 40
1.0
 40
1.0
 40
1.0
 40
1.0
 10
11.2708
 20
17.4609
 30
0.0
 10
11.2708
 20
17.4609
 30
0.0
 10
2.9306
 20
17.4609
 30
0.0
 10
2.9306
 20
17.4609
 30
0.0
  0
SPLINE
  5
1D3
330
1F
100
AcDbEntity
  8
DEFAULT_1
 62
   250
100
AcDbSpline
210
0.0
220
0.0
230
1.0
 70
    24
 71
     3
 72
     8
 73
     4
 74
     0
 42
0.0000000001
 43
0.0000000001
 40
0.0
 40
0.0
 40
0.0
 40
0.0
 40
1.0
 40
1.0
 40
1.0
 40
1.0
 10
-5.8327
 20
17.7149
 30
0.0
 10
-5.8327
 20
17.7149
 30
0.0
 10
2.5073
 20
17.7149
 30
0.0
 10
2.5073
 20
17.7149
 30
0.0
  0
SPLINE
  5
1D4
330
1F
100
AcDbEntity
  8
DEFAULT_1
 62
   250
100
AcDbSpline
210
0.0
220
0.0
230
1.0
 70
    24
 71
     3
 72
     8
 73
     4
 74
     0
 42
0.0000000001
 43
0.0000000001
 40
0.0
 40
0.0
 40
0.0
 40
0.0
 40
1.0
 40
1.0
 40
1.0
 40
1.0
 10
11.2708
 20
17.7149
 30
0.0
 10
11.2708
 20
17.7149
 30
0.0
 10
2.9306
 20
17.7149
 30
0.0
 10
2.9306
 20
17.7149
 30
0.0
  0
SPLINE
  5
1D5
330
1F
100
AcDbEntity
  8
DEFAULT_1
 62
   250
100
AcDbSpline
210
0.0
220
0.0
230
1.0
 70
    24
 71
     3
 72
     8
 73
     4
 74
     0
 42
0.0000000001
 43
0.0000000001
 40
0.0
 40
0.0
 40
0.0
 40
0.0
 40
1.0
 40
1.0
 40
1.0
 40
1.0
 10
2.5073
 20
17.4609
 30
0.0
 10
2.5073
 20
17.4609
 30
0.0
 10
-5.8327
 20
17.4609
 30
0.0
 10
-5.8327
 20
17.4609
 30
0.0
  0
SPLINE
  5
1D6
330
1F
100
AcDbEntity
  8
DEFAULT_1
 62
   250
100
AcDbSpline
210
0.0
220
0.0
230
1.0
 70
    24
 71
     3
 72
     8
 73
     4
 74
     0
 42
0.0000000001
 43
0.0000000001
 40
0.0
 40
0.0
 40
0.0
 40
0.0
 40
1.0
 40
1.0
 40
1.0
 40
1.0
 10
-5.8327
 20
17.0375
 30
0.0
 10
-5.8327
 20
17.0375
 30
0.0
 10
2.5073
 20
17.0375
 30
0.0
 10
2.5073
 20
17.0375
 30
0.0
  0
SPLINE
  5
1D7
330
1F
100
AcDbEntity
  8
DEFAULT_1
 62
   250
100
AcDbSpline
210
0.0
220
0.0
230
1.0
 70
    24
 71
     3
 72
     8
 73
     4
 74
     0
 42
0.0000000001
 43
0.0000000001
 40
0.0
 40
0.0
 40
0.0
 40
0.0
 40
1.0
 40
1.0
 40
1.0
 40
1.0
 10
-6.0614
 20
16.8448
 30
0.0
 10
-6.0614
 20
16.8448
 30
0.0
 10
2.5061
 20
16.8448
 30
0.0
 10
2.5061
 20
16.8448
 30
0.0
  0
SPLINE
  5
1D8
330
1F
100
AcDbEntity
  8
DEFAULT_1
 62
   250
100
AcDbSpline
210
0.0
220
0.0
230
1.0
 70
    24
 71
     3
 72
     8
 73
     4
 74
     0
 42
0.0000000001
 43
0.0000000001
 40
0.0
 40
0.0
 40
0.0
 40
0.0
 40
1.0
 40
1.0
 40
1.0
 40
1.0
 10
2.5061
 20
18.331
 30
0.0
 10
2.5061
 20
18.331
 30
0.0
 10
-6.0614
 20
18.331
 30
0.0
 10
-6.0614
 20
18.331
 30
0.0
  0
SPLINE
  5
1D9
330
1F
100
AcDbEntity
  8
DEFAULT_1
 62
   250
100
AcDbSpline
210
0.0
220
0.0
230
1.0
 70
    24
 71
     3
 72
     8
 73
     4
 74
     0
 42
0.0000000001
 43
0.0000000001
 40
0.0
 40
0.0
 40
0.0
 40
0.0
 40
1.0
 40
1.0
 40
1.0
 40
1.0
 10
2.5073
 20
18.8155
 30
0.0
 10
2.5073
 20
18.8155
 30
0.0
 10
-5.8327
 20
18.8155
 30
0.0
 10
-5.8327
 20
18.8155
 30
0.0
  0
SPLINE
  5
1DA
330
1F
100
AcDbEntity
  8
DEFAULT_1
 62
   250
100
AcDbSpline
210
0.0
220
0.0
230
1.0
 70
    24
 71
     3
 72
     8
 73
     4
 74
     0
 42
0.0000000001
 43
0.0000000001
 40
0.0
 40
0.0
 40
0.0
 40
0.0
 40
1.0
 40
1.0
 40
1.0
 40
1.0
 10
2.5073
 20
18.3922
 30
0.0
 10
2.5073
 20
18.3922
 30
0.0
 10
-5.8327
 20
18.3922
 30
0.0
 10
-5.8327
 20
18.3922
 30
0.0
  0
SPLINE
  5
1DB
330
1F
100
AcDbEntity
  8
DEFAULT_1
 62
   250
100
AcDbSpline
210
0.0
220
0.0
230
1.0
 70
    24
 71
     3
 72
     8
 73
     4
 74
     0
 42
0.0000000001
 43
0.0000000001
 40
0.0
 40
0.0
 40
0.0
 40
0.0
 40
1.0
 40
1.0
 40
1.0
 40
1.0
 10
2.5073
 20
18.1381
 30
0.0
 10
2.5073
 20
18.1381
 30
0.0
 10
-5.8327
 20
18.1381
 30
0.0
 10
-5.8327
 20
18.1381
 30
0.0
  0
SPLINE
  5
1DC
330
1F
100
AcDbEntity
  8
DEFAULT_1
 62
   250
100
AcDbSpline
210
0.0
220
0.0
230
1.0
 70
    24
 71
     3
 72
     8
 73
     4
 74
     0
 42
0.0000000001
 43
0.0000000001
 40
0.0
 40
0.0
 40
0.0
 40
0.0
 40
1.0
 40
1.0
 40
1.0
 40
1.0
 10
-6.0614
 20
17.522
 30
0.0
 10
-6.0614
 20
17.522
 30
0.0
 10
2.5061
 20
17.522
 30
0.0
 10
2.5061
 20
17.522
 30
0.0
  0
SPLINE
  5
1DD
330
1F
100
AcDbEntity
  8
DEFAULT_1
 62
   250
100
AcDbSpline
210
0.0
220
0.0
230
1.0
 70
    24
 71
     3
 72
     8
 73
     4
 74
     0
 42
0.0000000001
 43
0.0000000001
 40
0.0
 40
0.0
 40
0.0
 40
0.0
 40
1.0
 40
1.0
 40
1.0
 40
1.0
 10
2.9306
 20
18.1381
 30
0.0
 10
2.9306
 20
18.1381
 30
0.0
 10
11.2708
 20
18.1381
 30
0.0
 10
11.2708
 20
18.1381
 30
0.0
  0
SPLINE
  5
1DE
330
1F
100
AcDbEntity
  8
DEFAULT_1
 62
   250
100
AcDbSpline
210
0.0
220
0.0
230
1.0
 70
    24
 71
     3
 72
     8
 73
     4
 74
     0
 42
0.0000000001
 43
0.0000000001
 40
0.0
 40
0.0
 40
0.0
 40
0.0
 40
1.0
 40
1.0
 40
1.0
 40
1.0
 10
11.2708
 20
18.3922
 30
0.0
 10
11.2708
 20
18.3922
 30
0.0
 10
2.9306
 20
18.3922
 30
0.0
 10
2.9306
 20
18.3922
 30
0.0
  0
SPLINE
  5
1DF
330
1F
100
AcDbEntity
  8
DEFAULT_1
 62
   250
100
AcDbSpline
210
0.0
220
0.0
230
1.0
 70
    24
 71
     3
 72
     8
 73
     4
 74
     0
 42
0.0000000001
 43
0.0000000001
 40
0.0
 40
0.0
 40
0.0
 40
0.0
 40
1.0
 40
1.0
 40
1.0
 40
1.0
 10
2.5061
 20
19.5542
 30
0.0
 10
2.5061
 20
19.5542
 30
0.0
 10
-6.0614
 20
19.5542
 30
0.0
 10
-6.0614
 20
19.5542
 30
0.0
  0
SPLINE
  5
1E0
330
1F
100
AcDbEntity
  8
DEFAULT_1
 62
   250
100
AcDbSpline
210
0.0
220
0.0
230
1.0
 70
    24
 71
     3
 72
     8
 73
     4
 74
     0
 42
0.0000000001
 43
0.0000000001
 40
0.0
 40
0.0
 40
0.0
 40
0.0
 40
1.0
 40
1.0
 40
1.0
 40
1.0
 10
2.5073
 20
19.4929
 30
0.0
 10
2.5073
 20
19.4929
 30
0.0
 10
-5.8327
 20
19.4929
 30
0.0
 10
-5.8327
 20
19.4929
 30
0.0
  0
SPLINE
  5
1E1
330
1F
100
AcDbEntity
  8
DEFAULT_1
 62
   250
100
AcDbSpline
210
0.0
220
0.0
230
1.0
 70
    24
 71
     3
 72
     8
 73
     4
 74
     0
 42
0.0000000001
 43
0.0000000001
 40
0.0
 40
0.0
 40
0.0
 40
0.0
 40
1.0
 40
1.0
 40
1.0
 40
1.0
 10
2.5073
 20
19.0695
 30
0.0
 10
2.5073
 20
19.0695
 30
0.0
 10
-5.8327
 20
19.0695
 30
0.0
 10
-5.8327
 20
19.0695
 30
0.0
  0
SPLINE
  5
1E2
330
1F
100
AcDbEntity
  8
DEFAULT_1
 62
   250
100
AcDbSpline
210
0.0
220
0.0
230
1.0
 70
    24
 71
     3
 72
     8
 73
     4
 74
     0
 42
0.0000000001
 43
0.0000000001
 40
0.0
 40
0.0
 40
0.0
 40
0.0
 40
1.0
 40
1.0
 40
1.0
 40
1.0
 10
11.2708
 20
19.0695
 30
0.0
 10
11.2708
 20
19.0695
 30
0.0
 10
2.9306
 20
19.0695
 30
0.0
 10
2.9306
 20
19.0695
 30
0.0
  0
SPLINE
  5
1E3
330
1F
100
AcDbEntity
  8
DEFAULT_1
 62
   250
100
AcDbSpline
210
0.0
220
0.0
230
1.0
 70
    24
 71
     3
 72
     8
 73
     4
 74
     0
 42
0.0000000001
 43
0.0000000001
 40
0.0
 40
0.0
 40
0.0
 40
0.0
 40
1.0
 40
1.0
 40
1.0
 40
1.0
 10
2.5074
 20
19.4929
 30
0.0
 10
2.5074
 20
19.4929
 30
0.0
 10
2.5074
 20
19.7469
 30
0.0
 10
2.5074
 20
19.7469
 30
0.0
  0
SPLINE
  5
1E4
330
1F
100
AcDbEntity
  8
DEFAULT_1
 62
   250
100
AcDbSpline
210
0.0
220
0.0
230
1.0
 70
    24
 71
     3
 72
     8
 73
     4
 74
     0
 42
0.0000000001
 43
0.0000000001
 40
0.0
 40
0.0
 40
0.0
 40
0.0
 40
1.0
 40
1.0
 40
1.0
 40
1.0
 10
-6.0614
 20
20.363
 30
0.0
 10
-6.0614
 20
20.363
 30
0.0
 10
2.5061
 20
20.363
 30
0.0
 10
2.5061
 20
20.363
 30
0.0
  0
SPLINE
  5
1E5
330
1F
100
AcDbEntity
  8
DEFAULT_1
 62
   250
100
AcDbSpline
210
0.0
220
0.0
230
1.0
 70
    24
 71
     3
 72
     8
 73
     4
 74
     0
 42
0.0000000001
 43
0.0000000001
 40
0.0
 40
0.0
 40
0.0
 40
0.0
 40
1.0
 40
1.0
 40
1.0
 40
1.0
 10
11.2708
 20
20.8476
 30
0.0
 10
11.2708
 20
20.8476
 30
0.0
 10
2.9306
 20
20.8476
 30
0.0
 10
2.9306
 20
20.8476
 30
0.0
  0
SPLINE
  5
1E6
330
1F
100
AcDbEntity
  8
DEFAULT_1
 62
   250
100
AcDbSpline
210
0.0
220
0.0
230
1.0
 70
    24
 71
     3
 72
     8
 73
     4
 74
     0
 42
0.0000000001
 43
0.0000000001
 40
0.0
 40
0.0
 40
0.0
 40
0.0
 40
1.0
 40
1.0
 40
1.0
 40
1.0
 10
2.5073
 20
21.1017
 30
0.0
 10
2.5073
 20
21.1017
 30
0.0
 10
-5.8327
 20
21.1017
 30
0.0
 10
-5.8327
 20
21.1017
 30
0.0
  0
SPLINE
  5
1E7
330
1F
100
AcDbEntity
  8
DEFAULT_1
 62
   250
100
AcDbSpline
210
0.0
220
0.0
230
1.0
 70
    24
 71
     3
 72
     8
 73
     4
 74
     0
 42
0.0000000001
 43
0.0000000001
 40
0.0
 40
0.0
 40
0.0
 40
0.0
 40
1.0
 40
1.0
 40
1.0
 40
1.0
 10
-5.8327
 20
21.525
 30
0.0
 10
-5.8327
 20
21.525
 30
0.0
 10
11.2708
 20
21.525
 30
0.0
 10
11.2708
 20
21.525
 30
0.0
  0
SPLINE
  5
1E8
330
1F
100
AcDbEntity
  8
DEFAULT_1
 62
   250
100
AcDbSpline
210
0.0
220
0.0
230
1.0
 70
    24
 71
     3
 72
     8
 73
     4
 74
     0
 42
0.0000000001
 43
0.0000000001
 40
0.0
 40
0.0
 40
0.0
 40
0.0
 40
1.0
 40
1.0
 40
1.0
 40
1.0
 10
2.5061
 20
21.0403
 30
0.0
 10
2.5061
 20
21.0403
 30
0.0
 10
-6.0614
 20
21.0403
 30
0.0
 10
-6.0614
 20
21.0403
 30
0.0
  0
SPLINE
  5
1E9
330
1F
100
AcDbEntity
  8
DEFAULT_1
 62
   250
100
AcDbSpline
210
0.0
220
0.0
230
1.0
 70
    24
 71
     3
 72
     8
 73
     4
 74
     0
 42
0.0000000001
 43
0.0000000001
 40
0.0
 40
0.0
 40
0.0
 40
0.0
 40
1.0
 40
1.0
 40
1.0
 40
1.0
 10
2.5061
 20
20.9089
 30
0.0
 10
2.5061
 20
20.9089
 30
0.0
 10
-6.0614
 20
20.9089
 30
0.0
 10
-6.0614
 20
20.9089
 30
0.0
  0
SPLINE
  5
1EA
330
1F
100
AcDbEntity
  8
DEFAULT_1
 62
   250
100
AcDbSpline
210
0.0
220
0.0
230
1.0
 70
    24
 71
     3
 72
     8
 73
     4
 74
     0
 42
0.0000000001
 43
0.0000000001
 40
0.0
 40
0.0
 40
0.0
 40
0.0
 40
1.0
 40
1.0
 40
1.0
 40
1.0
 10
11.2708
 20
19.7469
 30
0.0
 10
11.2708
 20
19.7469
 30
0.0
 10
2.9306
 20
19.7469
 30
0.0
 10
2.9306
 20
19.7469
 30
0.0
  0
SPLINE
  5
1EB
330
1F
100
AcDbEntity
  8
DEFAULT_1
 62
   250
100
AcDbSpline
210
0.0
220
0.0
230
1.0
 70
    24
 71
     3
 72
     8
 73
     4
 74
     0
 42
0.0000000001
 43
0.0000000001
 40
0.0
 40
0.0
 40
0.0
 40
0.0
 40
1.0
 40
1.0
 40
1.0
 40
1.0
 10
-5.8327
 20
16.7835
 30
0.0
 10
-5.8327
 20
16.7835
 30
0.0
 10
2.5073
 20
16.7835
 30
0.0
 10
2.5073
 20
16.7835
 30
0.0
  0
SPLINE
  5
1EC
330
1F
100
AcDbEntity
  8
DEFAULT_1
 62
   250
100
AcDbSpline
210
0.0
220
0.0
230
1.0
 70
    24
 71
     3
 72
     8
 73
     4
 74
     0
 42
0.0000000001
 43
0.0000000001
 40
0.0
 40
0.0
 40
0.0
 40
0.0
 40
1.0
 40
1.0
 40
1.0
 40
1.0
 10
-6.0614
 20
16.9762
 30
0.0
 10
-6.0614
 20
16.9762
 30
0.0
 10
2.5061
 20
16.9762
 30
0.0
 10
2.5061
 20
16.9762
 30
0.0
  0
SPLINE
  5
1ED
330
1F
100
AcDbEntity
  8
DEFAULT_1
 62
   250
100
AcDbSpline
210
0.0
220
0.0
230
1.0
 70
    24
 71
     3
 72
     8
 73
     4
 74
     0
 42
0.0000000001
 43
0.0000000001
 40
0.0
 40
0.0
 40
0.0
 40
0.0
 40
1.0
 40
1.0
 40
1.0
 40
1.0
 10
-5.8327
 20
15.0054
 30
0.0
 10
-5.8327
 20
15.0054
 30
0.0
 10
2.5073
 20
15.0054
 30
0.0
 10
2.5073
 20
15.0054
 30
0.0
  0
SPLINE
  5
1EE
330
1F
100
AcDbEntity
  8
DEFAULT_1
 62
   250
100
AcDbSpline
210
0.0
220
0.0
230
1.0
 70
    24
 71
     3
 72
     8
 73
     4
 74
     0
 42
0.0000000001
 43
0.0000000001
 40
0.0
 40
0.0
 40
0.0
 40
0.0
 40
1.0
 40
1.0
 40
1.0
 40
1.0
 10
2.5061
 20
14.2668
 30
0.0
 10
2.5061
 20
14.2668
 30
0.0
 10
-6.0614
 20
14.2668
 30
0.0
 10
-6.0614
 20
14.2668
 30
0.0
  0
SPLINE
  5
1EF
330
1F
100
AcDbEntity
  8
DEFAULT_1
 62
   250
100
AcDbSpline
210
0.0
220
0.0
230
1.0
 70
    24
 71
     3
 72
     8
 73
     4
 74
     0
 42
0.0000000001
 43
0.0000000001
 40
0.0
 40
0.0
 40
0.0
 40
0.0
 40
1.0
 40
1.0
 40
1.0
 40
1.0
 10
-5.8327
 20
13.6507
 30
0.0
 10
-5.8327
 20
13.6507
 30
0.0
 10
2.5073
 20
13.6507
 30
0.0
 10
2.5073
 20
13.6507
 30
0.0
  0
SPLINE
  5
1F0
330
1F
100
AcDbEntity
  8
DEFAULT_1
 62
   250
100
AcDbSpline
210
0.0
220
0.0
230
1.0
 70
    24
 71
     3
 72
     8
 73
     4
 74
     0
 42
0.0000000001
 43
0.0000000001
 40
0.0
 40
0.0
 40
0.0
 40
0.0
 40
1.0
 40
1.0
 40
1.0
 40
1.0
 10
2.5073
 20
14.3281
 30
0.0
 10
2.5073
 20
14.3281
 30
0.0
 10
-5.8327
 20
14.3281
 30
0.0
 10
-5.8327
 20
14.3281
 30
0.0
  0
SPLINE
  5
1F1
330
1F
100
AcDbEntity
  8
DEFAULT_1
 62
   250
100
AcDbSpline
210
0.0
220
0.0
230
1.0
 70
    24
 71
     3
 72
     8
 73
     4
 74
     0
 42
0.0000000001
 43
0.0000000001
 40
0.0
 40
0.0
 40
0.0
 40
0.0
 40
1.0
 40
1.0
 40
1.0
 40
1.0
 10
2.5073
 20
14.7514
 30
0.0
 10
2.5073
 20
14.7514
 30
0.0
 10
-5.8327
 20
14.7514
 30
0.0
 10
-5.8327
 20
14.7514
 30
0.0
  0
SPLINE
  5
1F2
330
1F
100
AcDbEntity
  8
DEFAULT_1
 62
   250
100
AcDbSpline
210
0.0
220
0.0
230
1.0
 70
    24
 71
     3
 72
     8
 73
     4
 74
     0
 42
0.0000000001
 43
0.0000000001
 40
0.0
 40
0.0
 40
0.0
 40
0.0
 40
1.0
 40
1.0
 40
1.0
 40
1.0
 10
2.5073
 20
14.0741
 30
0.0
 10
2.5073
 20
14.0741
 30
0.0
 10
-5.8327
 20
14.0741
 30
0.0
 10
-5.8327
 20
14.0741
 30
0.0
  0
SPLINE
  5
1F3
330
1F
100
AcDbEntity
  8
DEFAULT_1
 62
   250
100
AcDbSpline
210
0.0
220
0.0
230
1.0
 70
    24
 71
     3
 72
     8
 73
     4
 74
     0
 42
0.0000000001
 43
0.0000000001
 40
0.0
 40
0.0
 40
0.0
 40
0.0
 40
1.0
 40
1.0
 40
1.0
 40
1.0
 10
-6.0614
 20
13.4579
 30
0.0
 10
-6.0614
 20
13.4579
 30
0.0
 10
2.5061
 20
13.4579
 30
0.0
 10
2.5061
 20
13.4579
 30
0.0
  0
SPLINE
  5
1F4
330
1F
100
AcDbEntity
  8
DEFAULT_1
 62
   250
100
AcDbSpline
210
0.0
220
0.0
230
1.0
 70
    24
 71
     3
 72
     8
 73
     4
 74
     0
 42
0.0000000001
 43
0.0000000001
 40
0.0
 40
0.0
 40
0.0
 40
0.0
 40
1.0
 40
1.0
 40
1.0
 40
1.0
 10
2.5073
 20
13.3967
 30
0.0
 10
2.5073
 20
13.3967
 30
0.0
 10
-5.8327
 20
13.3967
 30
0.0
 10
-5.8327
 20
13.3967
 30
0.0
  0
SPLINE
  5
1F5
330
1F
100
AcDbEntity
  8
DEFAULT_1
 62
   250
100
AcDbSpline
210
0.0
220
0.0
230
1.0
 70
    24
 71
     3
 72
     8
 73
     4
 74
     0
 42
0.0000000001
 43
0.0000000001
 40
0.0
 40
0.0
 40
0.0
 40
0.0
 40
1.0
 40
1.0
 40
1.0
 40
1.0
 10
-5.8327
 20
15.4287
 30
0.0
 10
-5.8327
 20
15.4287
 30
0.0
 10
2.5073
 20
15.4287
 30
0.0
 10
2.5073
 20
15.4287
 30
0.0
  0
SPLINE
  5
1F6
330
1F
100
AcDbEntity
  8
DEFAULT_1
 62
   250
100
AcDbSpline
210
0.0
220
0.0
230
1.0
 70
    24
 71
     3
 72
     8
 73
     4
 74
     0
 42
0.0000000001
 43
0.0000000001
 40
0.0
 40
0.0
 40
0.0
 40
0.0
 40
1.0
 40
1.0
 40
1.0
 40
1.0
 10
-6.0614
 20
15.6215
 30
0.0
 10
-6.0614
 20
15.6215
 30
0.0
 10
2.5061
 20
15.6215
 30
0.0
 10
2.5061
 20
15.6215
 30
0.0
  0
SPLINE
  5
1F7
330
1F
100
AcDbEntity
  8
DEFAULT_1
 62
   250
100
AcDbSpline
210
0.0
220
0.0
230
1.0
 70
    24
 71
     3
 72
     8
 73
     4
 74
     0
 42
0.0000000001
 43
0.0000000001
 40
0.0
 40
0.0
 40
0.0
 40
0.0
 40
1.0
 40
1.0
 40
1.0
 40
1.0
 10
2.5073
 20
12.7193
 30
0.0
 10
2.5073
 20
12.7193
 30
0.0
 10
-5.8327
 20
12.7193
 30
0.0
 10
-5.8327
 20
12.7193
 30
0.0
  0
SPLINE
  5
1F8
330
1F
100
AcDbEntity
  8
DEFAULT_1
 62
   250
100
AcDbSpline
210
0.0
220
0.0
230
1.0
 70
    24
 71
     3
 72
     8
 73
     4
 74
     0
 42
0.0000000001
 43
0.0000000001
 40
0.0
 40
0.0
 40
0.0
 40
0.0
 40
1.0
 40
1.0
 40
1.0
 40
1.0
 10
-6.0614
 20
12.2347
 30
0.0
 10
-6.0614
 20
12.2347
 30
0.0
 10
2.5061
 20
12.2347
 30
0.0
 10
2.5061
 20
12.2347
 30
0.0
  0
SPLINE
  5
1F9
330
1F
100
AcDbEntity
  8
DEFAULT_1
 62
   250
100
AcDbSpline
210
0.0
220
0.0
230
1.0
 70
    24
 71
     3
 72
     8
 73
     4
 74
     0
 42
0.0000000001
 43
0.0000000001
 40
0.0
 40
0.0
 40
0.0
 40
0.0
 40
1.0
 40
1.0
 40
1.0
 40
1.0
 10
2.5073
 20
12.0419
 30
0.0
 10
2.5073
 20
12.0419
 30
0.0
 10
-5.8327
 20
12.0419
 30
0.0
 10
-5.8327
 20
12.0419
 30
0.0
  0
SPLINE
  5
1FA
330
1F
100
AcDbEntity
  8
DEFAULT_1
 62
   250
100
AcDbSpline
210
0.0
220
0.0
230
1.0
 70
    24
 71
     3
 72
     8
 73
     4
 74
     0
 42
0.0000000001
 43
0.0000000001
 40
0.0
 40
0.0
 40
0.0
 40
0.0
 40
1.0
 40
1.0
 40
1.0
 40
1.0
 10
2.5061
 20
10.8799
 30
0.0
 10
2.5061
 20
10.8799
 30
0.0
 10
-6.0614
 20
10.8799
 30
0.0
 10
-6.0614
 20
10.8799
 30
0.0
  0
SPLINE
  5
1FB
330
1F
100
AcDbEntity
  8
DEFAULT_1
 62
   250
100
AcDbSpline
210
0.0
220
0.0
230
1.0
 70
    24
 71
     3
 72
     8
 73
     4
 74
     0
 42
0.0000000001
 43
0.0000000001
 40
0.0
 40
0.0
 40
0.0
 40
0.0
 40
1.0
 40
1.0
 40
1.0
 40
1.0
 10
2.5073
 20
10.2638
 30
0.0
 10
2.5073
 20
10.2638
 30
0.0
 10
-5.8327
 20
10.2638
 30
0.0
 10
-5.8327
 20
10.2638
 30
0.0
  0
SPLINE
  5
1FC
330
1F
100
AcDbEntity
  8
DEFAULT_1
 62
   250
100
AcDbSpline
210
0.0
220
0.0
230
1.0
 70
    24
 71
     3
 72
     8
 73
     4
 74
     0
 42
0.0000000001
 43
0.0000000001
 40
0.0
 40
0.0
 40
0.0
 40
0.0
 40
1.0
 40
1.0
 40
1.0
 40
1.0
 10
2.5073
 20
10.6872
 30
0.0
 10
2.5073
 20
10.6872
 30
0.0
 10
-5.8327
 20
10.6872
 30
0.0
 10
-5.8327
 20
10.6872
 30
0.0
  0
SPLINE
  5
1FD
330
1F
100
AcDbEntity
  8
DEFAULT_1
 62
   250
100
AcDbSpline
210
0.0
220
0.0
230
1.0
 70
    24
 71
     3
 72
     8
 73
     4
 74
     0
 42
0.0000000001
 43
0.0000000001
 40
0.0
 40
0.0
 40
0.0
 40
0.0
 40
1.0
 40
1.0
 40
1.0
 40
1.0
 10
2.5073
 20
10.9412
 30
0.0
 10
2.5073
 20
10.9412
 30
0.0
 10
-5.8327
 20
10.9412
 30
0.0
 10
-5.8327
 20
10.9412
 30
0.0
  0
SPLINE
  5
1FE
330
1F
100
AcDbEntity
  8
DEFAULT_1
 62
   250
100
AcDbSpline
210
0.0
220
0.0
230
1.0
 70
    24
 71
     3
 72
     8
 73
     4
 74
     0
 42
0.0000000001
 43
0.0000000001
 40
0.0
 40
0.0
 40
0.0
 40
0.0
 40
1.0
 40
1.0
 40
1.0
 40
1.0
 10
-6.0614
 20
9.3937
 30
0.0
 10
-6.0614
 20
9.3937
 30
0.0
 10
2.5061
 20
9.3937
 30
0.0
 10
2.5061
 20
9.3937
 30
0.0
  0
SPLINE
  5
1FF
330
1F
100
AcDbEntity
  8
DEFAULT_1
 62
   250
100
AcDbSpline
210
0.0
220
0.0
230
1.0
 70
    24
 71
     3
 72
     8
 73
     4
 74
     0
 42
0.0000000001
 43
0.0000000001
 40
0.0
 40
0.0
 40
0.0
 40
0.0
 40
1.0
 40
1.0
 40
1.0
 40
1.0
 10
11.2708
 20
8.2317
 30
0.0
 10
11.2708
 20
8.2317
 30
0.0
 10
2.9306
 20
8.2317
 30
0.0
 10
2.9306
 20
8.2317
 30
0.0
  0
SPLINE
  5
200
330
1F
100
AcDbEntity
  8
DEFAULT_1
 62
   250
100
AcDbSpline
210
0.0
220
0.0
230
1.0
 70
    24
 71
     3
 72
     8
 73
     4
 74
     0
 42
0.0000000001
 43
0.0000000001
 40
0.0
 40
0.0
 40
0.0
 40
0.0
 40
1.0
 40
1.0
 40
1.0
 40
1.0
 10
2.5073
 20
7.9778
 30
0.0
 10
2.5073
 20
7.9778
 30
0.0
 10
-5.8327
 20
7.9778
 30
0.0
 10
-5.8327
 20
7.9778
 30
0.0
  0
SPLINE
  5
201
330
1F
100
AcDbEntity
  8
DEFAULT_1
 62
   250
100
AcDbSpline
210
0.0
220
0.0
230
1.0
 70
    24
 71
     3
 72
     8
 73
     4
 74
     0
 42
0.0000000001
 43
0.0000000001
 40
0.0
 40
0.0
 40
0.0
 40
0.0
 40
1.0
 40
1.0
 40
1.0
 40
1.0
 10
-5.8327
 20
8.2317
 30
0.0
 10
-5.8327
 20
8.2317
 30
0.0
 10
2.5073
 20
8.2317
 30
0.0
 10
2.5073
 20
8.2317
 30
0.0
  0
SPLINE
  5
202
330
1F
100
AcDbEntity
  8
DEFAULT_1
 62
   250
100
AcDbSpline
210
0.0
220
0.0
230
1.0
 70
    24
 71
     3
 72
     8
 73
     4
 74
     0
 42
0.0000000001
 43
0.0000000001
 40
0.0
 40
0.0
 40
0.0
 40
0.0
 40
1.0
 40
1.0
 40
1.0
 40
1.0
 10
11.2708
 20
7.9778
 30
0.0
 10
11.2708
 20
7.9778
 30
0.0
 10
2.9306
 20
7.9778
 30
0.0
 10
2.9306
 20
7.9778
 30
0.0
  0
SPLINE
  5
203
330
1F
100
AcDbEntity
  8
DEFAULT_1
 62
   250
100
AcDbSpline
210
0.0
220
0.0
230
1.0
 70
    24
 71
     3
 72
     8
 73
     4
 74
     0
 42
0.0000000001
 43
0.0000000001
 40
0.0
 40
0.0
 40
0.0
 40
0.0
 40
1.0
 40
1.0
 40
1.0
 40
1.0
 10
-6.0614
 20
9.5252
 30
0.0
 10
-6.0614
 20
9.5252
 30
0.0
 10
2.5061
 20
9.5252
 30
0.0
 10
2.5061
 20
9.5252
 30
0.0
  0
SPLINE
  5
204
330
1F
100
AcDbEntity
  8
DEFAULT_1
 62
   250
100
AcDbSpline
210
0.0
220
0.0
230
1.0
 70
    24
 71
     3
 72
     8
 73
     4
 74
     0
 42
0.0000000001
 43
0.0000000001
 40
0.0
 40
0.0
 40
0.0
 40
0.0
 40
1.0
 40
1.0
 40
1.0
 40
1.0
 10
2.5061
 20
10.0711
 30
0.0
 10
2.5061
 20
10.0711
 30
0.0
 10
-6.0614
 20
10.0711
 30
0.0
 10
-6.0614
 20
10.0711
 30
0.0
  0
SPLINE
  5
205
330
1F
100
AcDbEntity
  8
DEFAULT_1
 62
   250
100
AcDbSpline
210
0.0
220
0.0
230
1.0
 70
    24
 71
     3
 72
     8
 73
     4
 74
     0
 42
0.0000000001
 43
0.0000000001
 40
0.0
 40
0.0
 40
0.0
 40
0.0
 40
1.0
 40
1.0
 40
1.0
 40
1.0
 10
2.5061
 20
10.2026
 30
0.0
 10
2.5061
 20
10.2026
 30
0.0
 10
-6.0614
 20
10.2026
 30
0.0
 10
-6.0614
 20
10.2026
 30
0.0
  0
SPLINE
  5
206
330
1F
100
AcDbEntity
  8
DEFAULT_1
 62
   250
100
AcDbSpline
210
0.0
220
0.0
230
1.0
 70
    24
 71
     3
 72
     8
 73
     4
 74
     0
 42
0.0000000001
 43
0.0000000001
 40
0.0
 40
0.0
 40
0.0
 40
0.0
 40
1.0
 40
1.0
 40
1.0
 40
1.0
 10
-5.8327
 20
10.0098
 30
0.0
 10
-5.8327
 20
10.0098
 30
0.0
 10
2.5073
 20
10.0098
 30
0.0
 10
2.5073
 20
10.0098
 30
0.0
  0
SPLINE
  5
207
330
1F
100
AcDbEntity
  8
DEFAULT_1
 62
   250
100
AcDbSpline
210
0.0
220
0.0
230
1.0
 70
    24
 71
     3
 72
     8
 73
     4
 74
     0
 42
0.0000000001
 43
0.0000000001
 40
0.0
 40
0.0
 40
0.0
 40
0.0
 40
1.0
 40
1.0
 40
1.0
 40
1.0
 10
-5.8327
 20
9.5865
 30
0.0
 10
-5.8327
 20
9.5865
 30
0.0
 10
2.5073
 20
9.5865
 30
0.0
 10
2.5073
 20
9.5865
 30
0.0
  0
SPLINE
  5
208
330
1F
100
AcDbEntity
  8
DEFAULT_1
 62
   250
100
AcDbSpline
210
0.0
220
0.0
230
1.0
 70
    24
 71
     3
 72
     8
 73
     4
 74
     0
 42
0.0000000001
 43
0.0000000001
 40
0.0
 40
0.0
 40
0.0
 40
0.0
 40
1.0
 40
1.0
 40
1.0
 40
1.0
 10
2.5073
 20
9.3324
 30
0.0
 10
2.5073
 20
9.3324
 30
0.0
 10
-5.8327
 20
9.3324
 30
0.0
 10
-5.8327
 20
9.3324
 30
0.0
  0
SPLINE
  5
209
330
1F
100
AcDbEntity
  8
DEFAULT_1
 62
   250
100
AcDbSpline
210
0.0
220
0.0
230
1.0
 70
    24
 71
     3
 72
     8
 73
     4
 74
     0
 42
0.0000000001
 43
0.0000000001
 40
0.0
 40
0.0
 40
0.0
 40
0.0
 40
1.0
 40
1.0
 40
1.0
 40
1.0
 10
-5.8327
 20
8.9091
 30
0.0
 10
-5.8327
 20
8.9091
 30
0.0
 10
2.5073
 20
8.9091
 30
0.0
 10
2.5073
 20
8.9091
 30
0.0
  0
SPLINE
  5
20A
330
1F
100
AcDbEntity
  8
DEFAULT_1
 62
   250
100
AcDbSpline
210
0.0
220
0.0
230
1.0
 70
    24
 71
     3
 72
     8
 73
     4
 74
     0
 42
0.0000000001
 43
0.0000000001
 40
0.0
 40
0.0
 40
0.0
 40
0.0
 40
1.0
 40
1.0
 40
1.0
 40
1.0
 10
-5.8327
 20
8.655
 30
0.0
 10
-5.8327
 20
8.655
 30
0.0
 10
2.5073
 20
8.655
 30
0.0
 10
2.5073
 20
8.655
 30
0.0
  0
SPLINE
  5
20B
330
1F
100
AcDbEntity
  8
DEFAULT_1
 62
   250
100
AcDbSpline
210
0.0
220
0.0
230
1.0
 70
    24
 71
     3
 72
     8
 73
     4
 74
     0
 42
0.0000000001
 43
0.0000000001
 40
0.0
 40
0.0
 40
0.0
 40
0.0
 40
1.0
 40
1.0
 40
1.0
 40
1.0
 10
-6.0614
 20
7.2769
 30
0.0
 10
-6.0614
 20
7.2769
 30
0.0
 10
2.5061
 20
7.2769
 30
0.0
 10
2.5061
 20
7.2769
 30
0.0
  0
SPLINE
  5
20C
330
1F
100
AcDbEntity
  8
DEFAULT_1
 62
   250
100
AcDbSpline
210
0.0
220
0.0
230
1.0
 70
    24
 71
     3
 72
     8
 73
     4
 74
     0
 42
0.0000000001
 43
0.0000000001
 40
0.0
 40
0.0
 40
0.0
 40
0.0
 40
1.0
 40
1.0
 40
1.0
 40
1.0
 10
2.5073
 20
7.2157
 30
0.0
 10
2.5073
 20
7.2157
 30
0.0
 10
-5.8327
 20
7.2157
 30
0.0
 10
-5.8327
 20
7.2157
 30
0.0
  0
SPLINE
  5
20D
330
1F
100
AcDbEntity
  8
DEFAULT_1
 62
   250
100
AcDbSpline
210
0.0
220
0.0
230
1.0
 70
    24
 71
     3
 72
     8
 73
     4
 74
     0
 42
0.0000000001
 43
0.0000000001
 40
0.0
 40
0.0
 40
0.0
 40
0.0
 40
1.0
 40
1.0
 40
1.0
 40
1.0
 10
8.766
 20
6.7077
 30
0.0
 10
8.766
 20
6.7077
 30
0.0
 10
8.766
 20
7.2157
 30
0.0
 10
8.766
 20
7.2157
 30
0.0
  0
SPLINE
  5
20E
330
1F
100
AcDbEntity
  8
DEFAULT_1
 62
   250
100
AcDbSpline
210
0.0
220
0.0
230
1.0
 70
    24
 71
     3
 72
     8
 73
     4
 74
     0
 42
0.0000000001
 43
0.0000000001
 40
0.0
 40
0.0
 40
0.0
 40
0.0
 40
1.0
 40
1.0
 40
1.0
 40
1.0
 10
-6.2759
 20
23.6418
 30
0.0
 10
-6.2597
 20
23.6418
 30
0.0
 10
-6.2435
 20
23.6418
 30
0.0
 10
-6.2273
 20
23.6418
 30
0.0
  0
SPLINE
  5
20F
330
1F
100
AcDbEntity
  8
DEFAULT_1
 62
   250
100
AcDbSpline
210
0.0
220
0.0
230
1.0
 70
    24
 71
     3
 72
    16
 73
    12
 74
     0
 42
0.0000000001
 43
0.0000000001
 40
0.0
 40
0.0
 40
0.0
 40
0.0
 40
0.25
 40
0.25
 40
0.25
 40
0.25
 40
0.5
 40
0.5
 40
0.5
 40
0.5
 40
1.0
 40
1.0
 40
1.0
 40
1.0
 10
-6.2273
 20
23.6418
 30
0.0
 10
-6.2273
 20
23.6418
 30
0.0
 10
-5.8886
 20
23.6418
 30
0.0
 10
-5.8886
 20
23.6418
 30
0.0
 10
-5.8886
 20
23.6418
 30
0.0
 10
-5.8886
 20
23.6418
 30
0.0
 10
11.3266
 20
23.6418
 30
0.0
 10
11.3266
 20
23.6418
 30
0.0
 10
11.3266
 20
23.6418
 30
0.0
 10
11.3266
 20
23.6418
 30
0.0
 10
11.6653
 20
23.6418
 30
0.0
 10
11.6653
 20
23.6418
 30
0.0
  0
SPLINE
  5
210
330
1F
100
AcDbEntity
  8
DEFAULT_1
 62
   250
100
AcDbSpline
210
0.0
220
0.0
230
1.0
 70
    24
 71
     3
 72
     8
 73
     4
 74
     0
 42
0.0000000001
 43
0.0000000001
 40
0.0
 40
0.0
 40
0.0
 40
0.0
 40
1.0
 40
1.0
 40
1.0
 40
1.0
 10
11.6653
 20
23.6418
 30
0.0
 10
11.6815
 20
23.6418
 30
0.0
 10
11.6977
 20
23.6418
 30
0.0
 10
11.7139
 20
23.6418
 30
0.0
  0
SPLINE
  5
211
330
1F
100
AcDbEntity
  8
DEFAULT_1
 62
   250
100
AcDbSpline
210
0.0
220
0.0
230
1.0
 70
     8
 71
     3
 72
     8
 73
     4
 74
     0
 42
0.0000000001
 43
0.0000000001
 40
0.0
 40
0.0
 40
0.0
 40
0.0
 40
1.0
 40
1.0
 40
1.0
 40
1.0
 10
-6.2147
 20
24.816
 30
0.0
 10
-6.2015
 20
24.8228
 30
0.0
 10
-6.188
 20
24.8271
 30
0.0
 10
-6.1729
 20
24.8271
 30
0.0
  0
SPLINE
  5
212
330
1F
100
AcDbEntity
  8
DEFAULT_1
 62
   250
100
AcDbSpline
210
0.0
220
0.0
230
1.0
 70
     8
 71
     3
 72
    20
 73
    16
 74
     0
 42
0.0000000001
 43
0.0000000001
 40
0.0
 40
0.0
 40
0.0
 40
0.0
 40
0.2
 40
0.2
 40
0.2
 40
0.2
 40
0.4
 40
0.4
 40
0.4
 40
0.4
 40
0.6
 40
0.6
 40
0.6
 40
0.6
 40
1.0
 40
1.0
 40
1.0
 40
1.0
 10
-6.1729
 20
24.8271
 30
0.0
 10
-6.1729
 20
24.8271
 30
0.0
 10
-5.8341
 20
24.8271
 30
0.0
 10
-5.8341
 20
24.8271
 30
0.0
 10
-5.8341
 20
24.8271
 30
0.0
 10
-5.8341
 20
24.8271
 30
0.0
 10
11.2722
 20
24.8271
 30
0.0
 10
11.2722
 20
24.8271
 30
0.0
 10
11.2722
 20
24.8271
 30
0.0
 10
11.2722
 20
24.8271
 30
0.0
 10
11.6109
 20
24.8271
 30
0.0
 10
11.6109
 20
24.8271
 30
0.0
 10
11.6109
 20
24.8271
 30
0.0
 10
11.6109
 20
24.8271
 30
0.0
 10
11.6318
 20
24.8245
 30
0.0
 10
11.6318
 20
24.8245
 30
0.0
  0
SPLINE
  5
213
330
1F
100
AcDbEntity
  8
DEFAULT_1
 62
   250
100
AcDbSpline
210
0.0
220
0.0
230
1.0
 70
     8
 71
     3
 72
     8
 73
     4
 74
     0
 42
0.0000000001
 43
0.0000000001
 40
0.0
 40
0.0
 40
0.0
 40
0.0
 40
1.0
 40
1.0
 40
1.0
 40
1.0
 10
11.6318
 20
24.8245
 30
0.0
 10
11.6684
 20
24.8167
 30
0.0
 10
11.6948
 20
24.7806
 30
0.0
 10
11.6956
 20
24.744
 30
0.0
  0
SPLINE
  5
214
330
1F
100
AcDbEntity
  8
DEFAULT_1
 62
   250
100
AcDbSpline
210
0.0
220
0.0
230
1.0
 70
     8
 71
     3
 72
    16
 73
    12
 74
     0
 42
0.0000000001
 43
0.0000000001
 40
0.0
 40
0.0
 40
0.0
 40
0.0
 40
0.25
 40
0.25
 40
0.25
 40
0.25
 40
0.5
 40
0.5
 40
0.5
 40
0.5
 40
1.0
 40
1.0
 40
1.0
 40
1.0
 10
11.6956
 20
24.744
 30
0.0
 10
11.6956
 20
24.744
 30
0.0
 10
11.7014
 20
24.4053
 30
0.0
 10
11.7014
 20
24.4053
 30
0.0
 10
11.7014
 20
24.4053
 30
0.0
 10
11.7014
 20
24.4053
 30
0.0
 10
11.7089
 20
23.9804
 30
0.0
 10
11.7089
 20
23.9804
 30
0.0
 10
11.7089
 20
23.9804
 30
0.0
 10
11.7089
 20
23.9804
 30
0.0
 10
11.7148
 20
23.6418
 30
0.0
 10
11.7148
 20
23.6418
 30
0.0
  0
SPLINE
  5
215
330
1F
100
AcDbEntity
  8
DEFAULT_1
 62
   250
100
AcDbSpline
210
0.0
220
0.0
230
1.0
 70
     8
 71
     3
 72
    16
 73
    12
 74
     0
 42
0.0000000001
 43
0.0000000001
 40
0.0
 40
0.0
 40
0.0
 40
0.0
 40
0.25
 40
0.25
 40
0.25
 40
0.25
 40
0.5
 40
0.5
 40
0.5
 40
0.5
 40
1.0
 40
1.0
 40
1.0
 40
1.0
 10
-6.2768
 20
23.6418
 30
0.0
 10
-6.2768
 20
23.6418
 30
0.0
 10
-6.2708
 20
23.9804
 30
0.0
 10
-6.2708
 20
23.9804
 30
0.0
 10
-6.2708
 20
23.9804
 30
0.0
 10
-6.2708
 20
23.9804
 30
0.0
 10
-6.2634
 20
24.4053
 30
0.0
 10
-6.2634
 20
24.4053
 30
0.0
 10
-6.2634
 20
24.4053
 30
0.0
 10
-6.2634
 20
24.4053
 30
0.0
 10
-6.2575
 20
24.7439
 30
0.0
 10
-6.2575
 20
24.7439
 30
0.0
  0
SPLINE
  5
216
330
1F
100
AcDbEntity
  8
DEFAULT_1
 62
   250
100
AcDbSpline
210
0.0
220
0.0
230
1.0
 70
     8
 71
     3
 72
     8
 73
     4
 74
     0
 42
0.0000000001
 43
0.0000000001
 40
0.0
 40
0.0
 40
0.0
 40
0.0
 40
1.0
 40
1.0
 40
1.0
 40
1.0
 10
-6.2575
 20
24.7439
 30
0.0
 10
-6.2572
 20
24.7591
 30
0.0
 10
-6.2528
 20
24.7725
 30
0.0
 10
-6.2457
 20
24.7857
 30
0.0
  0
SPLINE
  5
217
330
1F
100
AcDbEntity
  8
DEFAULT_1
 62
   250
100
AcDbSpline
210
0.0
220
0.0
230
1.0
 70
     8
 71
     3
 72
     8
 73
     4
 74
     0
 42
0.0000000001
 43
0.0000000001
 40
0.0
 40
0.0
 40
0.0
 40
0.0
 40
1.0
 40
1.0
 40
1.0
 40
1.0
 10
-6.2082
 20
24.8195
 30
0.0
 10
-6.2266
 20
24.8095
 30
0.0
 10
-6.2399
 20
24.7973
 30
0.0
 10
-6.2495
 20
24.7786
 30
0.0
  0
SPLINE
  5
218
330
1F
100
AcDbEntity
  8
DEFAULT_1
 62
   250
100
AcDbSpline
210
0.0
220
0.0
230
1.0
 70
     8
 71
     3
 72
     8
 73
     4
 74
     0
 42
0.0000000001
 43
0.0000000001
 40
0.0
 40
0.0
 40
0.0
 40
0.0
 40
1.0
 40
1.0
 40
1.0
 40
1.0
 10
11.6109
 20
24.8271
 30
0.0
 10
11.6109
 20
24.4321
 30
0.0
 10
11.6233
 20
24.0367
 30
0.0
 10
11.6301
 20
23.6418
 30
0.0
  0
SPLINE
  5
219
330
1F
100
AcDbEntity
  8
DEFAULT_1
 62
   250
100
AcDbSpline
210
0.0
220
0.0
230
1.0
 70
     8
 71
     3
 72
     8
 73
     4
 74
     0
 42
0.0000000001
 43
0.0000000001
 40
0.0
 40
0.0
 40
0.0
 40
0.0
 40
1.0
 40
1.0
 40
1.0
 40
1.0
 10
-6.2575
 20
24.744
 30
0.0
 10
-6.1311
 20
24.7589
 30
0.0
 10
-5.9049
 20
24.744
 30
0.0
 10
-5.8341
 20
24.744
 30
0.0
  0
SPLINE
  5
21A
330
1F
100
AcDbEntity
  8
DEFAULT_1
 62
   250
100
AcDbSpline
210
0.0
220
0.0
230
1.0
 70
    24
 71
     3
 72
     8
 73
     4
 74
     0
 42
0.0000000001
 43
0.0000000001
 40
0.0
 40
0.0
 40
0.0
 40
0.0
 40
1.0
 40
1.0
 40
1.0
 40
1.0
 10
-5.8341
 20
24.744
 30
0.0
 10
-5.8341
 20
24.744
 30
0.0
 10
11.2722
 20
24.744
 30
0.0
 10
11.2722
 20
24.744
 30
0.0
  0
SPLINE
  5
21B
330
1F
100
AcDbEntity
  8
DEFAULT_1
 62
   250
100
AcDbSpline
210
0.0
220
0.0
230
1.0
 70
     8
 71
     3
 72
     8
 73
     4
 74
     0
 42
0.0000000001
 43
0.0000000001
 40
0.0
 40
0.0
 40
0.0
 40
0.0
 40
1.0
 40
1.0
 40
1.0
 40
1.0
 10
11.2722
 20
24.744
 30
0.0
 10
11.3472
 20
24.744
 30
0.0
 10
11.5683
 20
24.7585
 30
0.0
 10
11.6956
 20
24.744
 30
0.0
  0
SPLINE
  5
21C
330
1F
100
AcDbEntity
  8
DEFAULT_1
 62
   250
100
AcDbSpline
210
0.0
220
0.0
230
1.0
 70
     8
 71
     3
 72
     8
 73
     4
 74
     0
 42
0.0000000001
 43
0.0000000001
 40
0.0
 40
0.0
 40
0.0
 40
0.0
 40
1.0
 40
1.0
 40
1.0
 40
1.0
 10
-6.1729
 20
24.826
 30
0.0
 10
-6.1729
 20
24.4313
 30
0.0
 10
-6.1852
 20
24.0364
 30
0.0
 10
-6.1921
 20
23.6418
 30
0.0
  0
SPLINE
  5
21D
330
1F
100
AcDbEntity
  8
DEFAULT_1
 62
   250
100
AcDbSpline
210
0.0
220
0.0
230
1.0
 70
     8
 71
     3
 72
     8
 73
     4
 74
     0
 42
0.0000000001
 43
0.0000000001
 40
0.0
 40
0.0
 40
0.0
 40
0.0
 40
1.0
 40
1.0
 40
1.0
 40
1.0
 10
2.5074
 20
7.9778
 30
0.0
 10
2.5057
 20
8.0624
 30
0.0
 10
2.5057
 20
8.1471
 30
0.0
 10
2.5074
 20
8.2317
 30
0.0
  0
SPLINE
  5
21E
330
1F
100
AcDbEntity
  8
DEFAULT_1
 62
   250
100
AcDbSpline
210
0.0
220
0.0
230
1.0
 70
     8
 71
     3
 72
     8
 73
     4
 74
     0
 42
0.0000000001
 43
0.0000000001
 40
0.0
 40
0.0
 40
0.0
 40
0.0
 40
1.0
 40
1.0
 40
1.0
 40
1.0
 10
2.9306
 20
8.9091
 30
0.0
 10
2.9324
 20
8.8245
 30
0.0
 10
2.9324
 20
8.7398
 30
0.0
 10
2.9306
 20
8.655
 30
0.0
  0
SPLINE
  5
21F
330
1F
100
AcDbEntity
  8
DEFAULT_1
 62
   250
100
AcDbSpline
210
0.0
220
0.0
230
1.0
 70
     8
 71
     3
 72
     8
 73
     4
 74
     0
 42
0.0000000001
 43
0.0000000001
 40
0.0
 40
0.0
 40
0.0
 40
0.0
 40
1.0
 40
1.0
 40
1.0
 40
1.0
 10
2.9306
 20
7.9778
 30
0.0
 10
2.9324
 20
8.0624
 30
0.0
 10
2.9324
 20
8.1471
 30
0.0
 10
2.9306
 20
8.2317
 30
0.0
  0
SPLINE
  5
220
330
1F
100
AcDbEntity
  8
DEFAULT_1
 62
   250
100
AcDbSpline
210
0.0
220
0.0
230
1.0
 70
     8
 71
     3
 72
     8
 73
     4
 74
     0
 42
0.0000000001
 43
0.0000000001
 40
0.0
 40
0.0
 40
0.0
 40
0.0
 40
1.0
 40
1.0
 40
1.0
 40
1.0
 10
2.5074
 20
8.9091
 30
0.0
 10
2.5057
 20
8.8245
 30
0.0
 10
2.5057
 20
8.7398
 30
0.0
 10
2.5074
 20
8.655
 30
0.0
  0
SPLINE
  5
221
330
1F
100
AcDbEntity
  8
DEFAULT_1
 62
   250
100
AcDbSpline
210
0.0
220
0.0
230
1.0
 70
     8
 71
     3
 72
     8
 73
     4
 74
     0
 42
0.0000000001
 43
0.0000000001
 40
0.0
 40
0.0
 40
0.0
 40
0.0
 40
1.0
 40
1.0
 40
1.0
 40
1.0
 10
2.9306
 20
9.3324
 30
0.0
 10
2.9324
 20
9.4171
 30
0.0
 10
2.9324
 20
9.5018
 30
0.0
 10
2.9306
 20
9.5865
 30
0.0
  0
SPLINE
  5
222
330
1F
100
AcDbEntity
  8
DEFAULT_1
 62
   250
100
AcDbSpline
210
0.0
220
0.0
230
1.0
 70
     8
 71
     3
 72
     8
 73
     4
 74
     0
 42
0.0000000001
 43
0.0000000001
 40
0.0
 40
0.0
 40
0.0
 40
0.0
 40
1.0
 40
1.0
 40
1.0
 40
1.0
 10
2.9306
 20
10.2638
 30
0.0
 10
2.9324
 20
10.1791
 30
0.0
 10
2.9324
 20
10.0945
 30
0.0
 10
2.9306
 20
10.0098
 30
0.0
  0
SPLINE
  5
223
330
1F
100
AcDbEntity
  8
DEFAULT_1
 62
   250
100
AcDbSpline
210
0.0
220
0.0
230
1.0
 70
     8
 71
     3
 72
     8
 73
     4
 74
     0
 42
0.0000000001
 43
0.0000000001
 40
0.0
 40
0.0
 40
0.0
 40
0.0
 40
1.0
 40
1.0
 40
1.0
 40
1.0
 10
2.5074
 20
9.5865
 30
0.0
 10
2.5057
 20
9.5018
 30
0.0
 10
2.5057
 20
9.4171
 30
0.0
 10
2.5074
 20
9.3324
 30
0.0
  0
SPLINE
  5
224
330
1F
100
AcDbEntity
  8
DEFAULT_1
 62
   250
100
AcDbSpline
210
0.0
220
0.0
230
1.0
 70
     8
 71
     3
 72
     8
 73
     4
 74
     0
 42
0.0000000001
 43
0.0000000001
 40
0.0
 40
0.0
 40
0.0
 40
0.0
 40
1.0
 40
1.0
 40
1.0
 40
1.0
 10
2.9306
 20
20.4243
 30
0.0
 10
2.9324
 20
20.3396
 30
0.0
 10
2.9324
 20
20.255
 30
0.0
 10
2.9306
 20
20.1702
 30
0.0
  0
SPLINE
  5
225
330
1F
100
AcDbEntity
  8
DEFAULT_1
 62
   250
100
AcDbSpline
210
0.0
220
0.0
230
1.0
 70
     8
 71
     3
 72
     8
 73
     4
 74
     0
 42
0.0000000001
 43
0.0000000001
 40
0.0
 40
0.0
 40
0.0
 40
0.0
 40
1.0
 40
1.0
 40
1.0
 40
1.0
 10
2.9306
 20
19.4929
 30
0.0
 10
2.9324
 20
19.5776
 30
0.0
 10
2.9324
 20
19.6622
 30
0.0
 10
2.9306
 20
19.7469
 30
0.0
  0
SPLINE
  5
226
330
1F
100
AcDbEntity
  8
DEFAULT_1
 62
   250
100
AcDbSpline
210
0.0
220
0.0
230
1.0
 70
     8
 71
     3
 72
     8
 73
     4
 74
     0
 42
0.0000000001
 43
0.0000000001
 40
0.0
 40
0.0
 40
0.0
 40
0.0
 40
1.0
 40
1.0
 40
1.0
 40
1.0
 10
2.5074
 20
20.1702
 30
0.0
 10
2.5057
 20
20.255
 30
0.0
 10
2.5057
 20
20.3396
 30
0.0
 10
2.5074
 20
20.4243
 30
0.0
  0
SPLINE
  5
227
330
1F
100
AcDbEntity
  8
DEFAULT_1
 62
   250
100
AcDbSpline
210
0.0
220
0.0
230
1.0
 70
     8
 71
     3
 72
     8
 73
     4
 74
     0
 42
0.0000000001
 43
0.0000000001
 40
0.0
 40
0.0
 40
0.0
 40
0.0
 40
1.0
 40
1.0
 40
1.0
 40
1.0
 10
2.9306
 20
21.1017
 30
0.0
 10
2.9324
 20
21.017
 30
0.0
 10
2.9324
 20
20.9323
 30
0.0
 10
2.9306
 20
20.8476
 30
0.0
  0
SPLINE
  5
228
330
1F
100
AcDbEntity
  8
DEFAULT_1
 62
   250
100
AcDbSpline
210
0.0
220
0.0
230
1.0
 70
     8
 71
     3
 72
     8
 73
     4
 74
     0
 42
0.0000000001
 43
0.0000000001
 40
0.0
 40
0.0
 40
0.0
 40
0.0
 40
1.0
 40
1.0
 40
1.0
 40
1.0
 10
2.9306
 20
19.0695
 30
0.0
 10
2.9324
 20
18.9848
 30
0.0
 10
2.9324
 20
18.9002
 30
0.0
 10
2.9306
 20
18.8155
 30
0.0
  0
SPLINE
  5
229
330
1F
100
AcDbEntity
  8
DEFAULT_1
 62
   250
100
AcDbSpline
210
0.0
220
0.0
230
1.0
 70
     8
 71
     3
 72
     8
 73
     4
 74
     0
 42
0.0000000001
 43
0.0000000001
 40
0.0
 40
0.0
 40
0.0
 40
0.0
 40
1.0
 40
1.0
 40
1.0
 40
1.0
 10
2.9306
 20
18.1381
 30
0.0
 10
2.9324
 20
18.2229
 30
0.0
 10
2.9324
 20
18.3076
 30
0.0
 10
2.9306
 20
18.3922
 30
0.0
  0
SPLINE
  5
22A
330
1F
100
AcDbEntity
  8
DEFAULT_1
 62
   250
100
AcDbSpline
210
0.0
220
0.0
230
1.0
 70
     8
 71
     3
 72
     8
 73
     4
 74
     0
 42
0.0000000001
 43
0.0000000001
 40
0.0
 40
0.0
 40
0.0
 40
0.0
 40
1.0
 40
1.0
 40
1.0
 40
1.0
 10
2.5074
 20
19.0695
 30
0.0
 10
2.5057
 20
18.9848
 30
0.0
 10
2.5057
 20
18.9002
 30
0.0
 10
2.5074
 20
18.8155
 30
0.0
  0
SPLINE
  5
22B
330
1F
100
AcDbEntity
  8
DEFAULT_1
 62
   250
100
AcDbSpline
210
0.0
220
0.0
230
1.0
 70
     8
 71
     3
 72
     8
 73
     4
 74
     0
 42
0.0000000001
 43
0.0000000001
 40
0.0
 40
0.0
 40
0.0
 40
0.0
 40
1.0
 40
1.0
 40
1.0
 40
1.0
 10
2.5074
 20
18.1381
 30
0.0
 10
2.5057
 20
18.2229
 30
0.0
 10
2.5057
 20
18.3076
 30
0.0
 10
2.5074
 20
18.3922
 30
0.0
  0
SPLINE
  5
22C
330
1F
100
AcDbEntity
  8
DEFAULT_1
 62
   250
100
AcDbSpline
210
0.0
220
0.0
230
1.0
 70
     8
 71
     3
 72
     8
 73
     4
 74
     0
 42
0.0000000001
 43
0.0000000001
 40
0.0
 40
0.0
 40
0.0
 40
0.0
 40
1.0
 40
1.0
 40
1.0
 40
1.0
 10
2.9306
 20
7.5544
 30
0.0
 10
2.9329
 20
7.4415
 30
0.0
 10
2.9329
 20
7.3286
 30
0.0
 10
2.9306
 20
7.2157
 30
0.0
  0
SPLINE
  5
22D
330
1F
100
AcDbEntity
  8
DEFAULT_1
 62
   250
100
AcDbSpline
210
0.0
220
0.0
230
1.0
 70
     8
 71
     3
 72
     8
 73
     4
 74
     0
 42
0.0000000001
 43
0.0000000001
 40
0.0
 40
0.0
 40
0.0
 40
0.0
 40
1.0
 40
1.0
 40
1.0
 40
1.0
 10
2.5073
 20
7.2157
 30
0.0
 10
2.5051
 20
7.3286
 30
0.0
 10
2.5051
 20
7.4415
 30
0.0
 10
2.5074
 20
7.5544
 30
0.0
  0
SPLINE
  5
22E
330
1F
100
AcDbEntity
  8
DEFAULT_1
 62
   250
100
AcDbSpline
210
0.0
220
0.0
230
1.0
 70
     8
 71
     3
 72
     8
 73
     4
 74
     0
 42
0.0000000001
 43
0.0000000001
 40
0.0
 40
0.0
 40
0.0
 40
0.0
 40
1.0
 40
1.0
 40
1.0
 40
1.0
 10
2.9306
 20
10.9412
 30
0.0
 10
2.9324
 20
10.8565
 30
0.0
 10
2.9324
 20
10.7719
 30
0.0
 10
2.9306
 20
10.6872
 30
0.0
  0
SPLINE
  5
22F
330
1F
100
AcDbEntity
  8
DEFAULT_1
 62
   250
100
AcDbSpline
210
0.0
220
0.0
230
1.0
 70
     8
 71
     3
 72
     8
 73
     4
 74
     0
 42
0.0000000001
 43
0.0000000001
 40
0.0
 40
0.0
 40
0.0
 40
0.0
 40
1.0
 40
1.0
 40
1.0
 40
1.0
 10
2.5074
 20
10.0098
 30
0.0
 10
2.5057
 20
10.0945
 30
0.0
 10
2.5057
 20
10.1791
 30
0.0
 10
2.5074
 20
10.2638
 30
0.0
  0
SPLINE
  5
230
330
1F
100
AcDbEntity
  8
DEFAULT_1
 62
   250
100
AcDbSpline
210
0.0
220
0.0
230
1.0
 70
     8
 71
     3
 72
     8
 73
     4
 74
     0
 42
0.0000000001
 43
0.0000000001
 40
0.0
 40
0.0
 40
0.0
 40
0.0
 40
1.0
 40
1.0
 40
1.0
 40
1.0
 10
2.5074
 20
10.6872
 30
0.0
 10
2.5057
 20
10.7719
 30
0.0
 10
2.5057
 20
10.8565
 30
0.0
 10
2.5074
 20
10.9412
 30
0.0
  0
SPLINE
  5
231
330
1F
100
AcDbEntity
  8
DEFAULT_1
 62
   250
100
AcDbSpline
210
0.0
220
0.0
230
1.0
 70
     8
 71
     3
 72
     8
 73
     4
 74
     0
 42
0.0000000001
 43
0.0000000001
 40
0.0
 40
0.0
 40
0.0
 40
0.0
 40
1.0
 40
1.0
 40
1.0
 40
1.0
 10
2.5074
 20
11.6186
 30
0.0
 10
2.5057
 20
11.5339
 30
0.0
 10
2.5057
 20
11.4492
 30
0.0
 10
2.5074
 20
11.3645
 30
0.0
  0
SPLINE
  5
232
330
1F
100
AcDbEntity
  8
DEFAULT_1
 62
   250
100
AcDbSpline
210
0.0
220
0.0
230
1.0
 70
     8
 71
     3
 72
     8
 73
     4
 74
     0
 42
0.0000000001
 43
0.0000000001
 40
0.0
 40
0.0
 40
0.0
 40
0.0
 40
1.0
 40
1.0
 40
1.0
 40
1.0
 10
2.9306
 20
11.3645
 30
0.0
 10
2.9324
 20
11.4492
 30
0.0
 10
2.9324
 20
11.5339
 30
0.0
 10
2.9306
 20
11.6186
 30
0.0
  0
SPLINE
  5
233
330
1F
100
AcDbEntity
  8
DEFAULT_1
 62
   250
100
AcDbSpline
210
0.0
220
0.0
230
1.0
 70
     8
 71
     3
 72
     8
 73
     4
 74
     0
 42
0.0000000001
 43
0.0000000001
 40
0.0
 40
0.0
 40
0.0
 40
0.0
 40
1.0
 40
1.0
 40
1.0
 40
1.0
 10
2.5074
 20
12.2959
 30
0.0
 10
2.5057
 20
12.2112
 30
0.0
 10
2.5057
 20
12.1266
 30
0.0
 10
2.5074
 20
12.0419
 30
0.0
  0
SPLINE
  5
234
330
1F
100
AcDbEntity
  8
DEFAULT_1
 62
   250
100
AcDbSpline
210
0.0
220
0.0
230
1.0
 70
     8
 71
     3
 72
     8
 73
     4
 74
     0
 42
0.0000000001
 43
0.0000000001
 40
0.0
 40
0.0
 40
0.0
 40
0.0
 40
1.0
 40
1.0
 40
1.0
 40
1.0
 10
2.9306
 20
12.2959
 30
0.0
 10
2.9324
 20
12.2112
 30
0.0
 10
2.9324
 20
12.1266
 30
0.0
 10
2.9306
 20
12.0419
 30
0.0
  0
SPLINE
  5
235
330
1F
100
AcDbEntity
  8
DEFAULT_1
 62
   250
100
AcDbSpline
210
0.0
220
0.0
230
1.0
 70
     8
 71
     3
 72
     8
 73
     4
 74
     0
 42
0.0000000001
 43
0.0000000001
 40
0.0
 40
0.0
 40
0.0
 40
0.0
 40
1.0
 40
1.0
 40
1.0
 40
1.0
 10
2.5074
 20
13.6507
 30
0.0
 10
2.5057
 20
13.566
 30
0.0
 10
2.5057
 20
13.4814
 30
0.0
 10
2.5074
 20
13.3967
 30
0.0
  0
SPLINE
  5
236
330
1F
100
AcDbEntity
  8
DEFAULT_1
 62
   250
100
AcDbSpline
210
0.0
220
0.0
230
1.0
 70
     8
 71
     3
 72
     8
 73
     4
 74
     0
 42
0.0000000001
 43
0.0000000001
 40
0.0
 40
0.0
 40
0.0
 40
0.0
 40
1.0
 40
1.0
 40
1.0
 40
1.0
 10
2.5074
 20
12.7193
 30
0.0
 10
2.5057
 20
12.804
 30
0.0
 10
2.5057
 20
12.8886
 30
0.0
 10
2.5074
 20
12.9733
 30
0.0
  0
SPLINE
  5
237
330
1F
100
AcDbEntity
  8
DEFAULT_1
 62
   250
100
AcDbSpline
210
0.0
220
0.0
230
1.0
 70
     8
 71
     3
 72
     8
 73
     4
 74
     0
 42
0.0000000001
 43
0.0000000001
 40
0.0
 40
0.0
 40
0.0
 40
0.0
 40
1.0
 40
1.0
 40
1.0
 40
1.0
 10
2.9306
 20
13.6507
 30
0.0
 10
2.9324
 20
13.566
 30
0.0
 10
2.9324
 20
13.4814
 30
0.0
 10
2.9306
 20
13.3967
 30
0.0
  0
SPLINE
  5
238
330
1F
100
AcDbEntity
  8
DEFAULT_1
 62
   250
100
AcDbSpline
210
0.0
220
0.0
230
1.0
 70
     8
 71
     3
 72
     8
 73
     4
 74
     0
 42
0.0000000001
 43
0.0000000001
 40
0.0
 40
0.0
 40
0.0
 40
0.0
 40
1.0
 40
1.0
 40
1.0
 40
1.0
 10
2.9306
 20
15.0054
 30
0.0
 10
2.9324
 20
14.9207
 30
0.0
 10
2.9324
 20
14.8361
 30
0.0
 10
2.9306
 20
14.7514
 30
0.0
  0
SPLINE
  5
239
330
1F
100
AcDbEntity
  8
DEFAULT_1
 62
   250
100
AcDbSpline
210
0.0
220
0.0
230
1.0
 70
     8
 71
     3
 72
     8
 73
     4
 74
     0
 42
0.0000000001
 43
0.0000000001
 40
0.0
 40
0.0
 40
0.0
 40
0.0
 40
1.0
 40
1.0
 40
1.0
 40
1.0
 10
2.5074
 20
14.0741
 30
0.0
 10
2.5057
 20
14.1588
 30
0.0
 10
2.5057
 20
14.2433
 30
0.0
 10
2.5074
 20
14.3281
 30
0.0
  0
SPLINE
  5
23A
330
1F
100
AcDbEntity
  8
DEFAULT_1
 62
   250
100
AcDbSpline
210
0.0
220
0.0
230
1.0
 70
     8
 71
     3
 72
     8
 73
     4
 74
     0
 42
0.0000000001
 43
0.0000000001
 40
0.0
 40
0.0
 40
0.0
 40
0.0
 40
1.0
 40
1.0
 40
1.0
 40
1.0
 10
2.5074
 20
14.7514
 30
0.0
 10
2.5057
 20
14.8361
 30
0.0
 10
2.5057
 20
14.9207
 30
0.0
 10
2.5074
 20
15.0054
 30
0.0
  0
SPLINE
  5
23B
330
1F
100
AcDbEntity
  8
DEFAULT_1
 62
   250
100
AcDbSpline
210
0.0
220
0.0
230
1.0
 70
     8
 71
     3
 72
     8
 73
     4
 74
     0
 42
0.0000000001
 43
0.0000000001
 40
0.0
 40
0.0
 40
0.0
 40
0.0
 40
1.0
 40
1.0
 40
1.0
 40
1.0
 10
2.5074
 20
15.6828
 30
0.0
 10
2.5057
 20
15.598
 30
0.0
 10
2.5057
 20
15.5135
 30
0.0
 10
2.5074
 20
15.4287
 30
0.0
  0
SPLINE
  5
23C
330
1F
100
AcDbEntity
  8
DEFAULT_1
 62
   250
100
AcDbSpline
210
0.0
220
0.0
230
1.0
 70
     8
 71
     3
 72
     8
 73
     4
 74
     0
 42
0.0000000001
 43
0.0000000001
 40
0.0
 40
0.0
 40
0.0
 40
0.0
 40
1.0
 40
1.0
 40
1.0
 40
1.0
 10
2.9306
 20
14.0741
 30
0.0
 10
2.9324
 20
14.1588
 30
0.0
 10
2.9324
 20
14.2433
 30
0.0
 10
2.9306
 20
14.3281
 30
0.0
  0
SPLINE
  5
23D
330
1F
100
AcDbEntity
  8
DEFAULT_1
 62
   250
100
AcDbSpline
210
0.0
220
0.0
230
1.0
 70
     8
 71
     3
 72
     8
 73
     4
 74
     0
 42
0.0000000001
 43
0.0000000001
 40
0.0
 40
0.0
 40
0.0
 40
0.0
 40
1.0
 40
1.0
 40
1.0
 40
1.0
 10
2.9306
 20
16.1061
 30
0.0
 10
2.9324
 20
16.1908
 30
0.0
 10
2.9324
 20
16.2754
 30
0.0
 10
2.9306
 20
16.3602
 30
0.0
  0
SPLINE
  5
23E
330
1F
100
AcDbEntity
  8
DEFAULT_1
 62
   250
100
AcDbSpline
210
0.0
220
0.0
230
1.0
 70
     8
 71
     3
 72
     8
 73
     4
 74
     0
 42
0.0000000001
 43
0.0000000001
 40
0.0
 40
0.0
 40
0.0
 40
0.0
 40
1.0
 40
1.0
 40
1.0
 40
1.0
 10
2.9306
 20
16.7835
 30
0.0
 10
2.9324
 20
16.8682
 30
0.0
 10
2.9324
 20
16.9528
 30
0.0
 10
2.9306
 20
17.0375
 30
0.0
  0
SPLINE
  5
23F
330
1F
100
AcDbEntity
  8
DEFAULT_1
 62
   250
100
AcDbSpline
210
0.0
220
0.0
230
1.0
 70
     8
 71
     3
 72
     8
 73
     4
 74
     0
 42
0.0000000001
 43
0.0000000001
 40
0.0
 40
0.0
 40
0.0
 40
0.0
 40
1.0
 40
1.0
 40
1.0
 40
1.0
 10
2.5074
 20
17.7149
 30
0.0
 10
2.5057
 20
17.6302
 30
0.0
 10
2.5057
 20
17.5455
 30
0.0
 10
2.5074
 20
17.4609
 30
0.0
  0
SPLINE
  5
240
330
1F
100
AcDbEntity
  8
DEFAULT_1
 62
   250
100
AcDbSpline
210
0.0
220
0.0
230
1.0
 70
     8
 71
     3
 72
     8
 73
     4
 74
     0
 42
0.0000000001
 43
0.0000000001
 40
0.0
 40
0.0
 40
0.0
 40
0.0
 40
1.0
 40
1.0
 40
1.0
 40
1.0
 10
2.5074
 20
17.0375
 30
0.0
 10
2.5057
 20
16.9528
 30
0.0
 10
2.5057
 20
16.8682
 30
0.0
 10
2.5074
 20
16.7835
 30
0.0
  0
SPLINE
  5
241
330
1F
100
AcDbEntity
  8
DEFAULT_1
 62
   250
100
AcDbSpline
210
0.0
220
0.0
230
1.0
 70
     8
 71
     3
 72
     8
 73
     4
 74
     0
 42
0.0000000001
 43
0.0000000001
 40
0.0
 40
0.0
 40
0.0
 40
0.0
 40
1.0
 40
1.0
 40
1.0
 40
1.0
 10
2.5074
 20
16.3602
 30
0.0
 10
2.5057
 20
16.2754
 30
0.0
 10
2.5057
 20
16.1908
 30
0.0
 10
2.5074
 20
16.1061
 30
0.0
  0
SPLINE
  5
242
330
1F
100
AcDbEntity
  8
DEFAULT_1
 62
   250
100
AcDbSpline
210
0.0
220
0.0
230
1.0
 70
     8
 71
     3
 72
     8
 73
     4
 74
     0
 42
0.0000000001
 43
0.0000000001
 40
0.0
 40
0.0
 40
0.0
 40
0.0
 40
1.0
 40
1.0
 40
1.0
 40
1.0
 10
2.9306
 20
15.4287
 30
0.0
 10
2.9324
 20
15.5135
 30
0.0
 10
2.9324
 20
15.598
 30
0.0
 10
2.9306
 20
15.6828
 30
0.0
  0
SPLINE
  5
243
330
1F
100
AcDbEntity
  8
DEFAULT_1
 62
   250
100
AcDbSpline
210
0.0
220
0.0
230
1.0
 70
     8
 71
     3
 72
     8
 73
     4
 74
     0
 42
0.0000000001
 43
0.0000000001
 40
0.0
 40
0.0
 40
0.0
 40
0.0
 40
1.0
 40
1.0
 40
1.0
 40
1.0
 10
2.9306
 20
17.7149
 30
0.0
 10
2.9324
 20
17.6302
 30
0.0
 10
2.9324
 20
17.5455
 30
0.0
 10
2.9306
 20
17.4609
 30
0.0
  0
SPLINE
  5
244
330
1F
100
AcDbEntity
  8
DEFAULT_1
 62
   250
100
AcDbSpline
210
0.0
220
0.0
230
1.0
 70
     8
 71
     3
 72
     8
 73
     4
 74
     0
 42
0.0000000001
 43
0.0000000001
 40
0.0
 40
0.0
 40
0.0
 40
0.0
 40
1.0
 40
1.0
 40
1.0
 40
1.0
 10
2.5074
 20
21.1017
 30
0.0
 10
2.5057
 20
21.017
 30
0.0
 10
2.5057
 20
20.9323
 30
0.0
 10
2.5074
 20
20.8476
 30
0.0
  0
ENDSEC
  0
SECTION
  2
OBJECTS
  0
DICTIONARY
  5
C
330
0
100
AcDbDictionary
  3
ACAD_GROUP
350
D
  3
ACAD_LAYOUT
350
1A
  3
ACAD_MATERIAL
350
3B
  3
ACAD_MLEADERSTYLE
350
267
  3
ACAD_MLINESTYLE
350
17
  3
ACAD_PLOTSETTINGS
350
19
  3
ACAD_VISUALSTYLE
350
2A
  3
ACDBHEADERROUNDTRIPXREC
350
245
  3
ACDBVARIABLEDICTIONARY
350
265
  0
DICTIONARY
  5
D
102
{ACAD_REACTORS
330
C
102
}
330
C
100
AcDbDictionary
  0
DICTIONARY
  5
1A
102
{ACAD_REACTORS
330
C
102
}
330
C
100
AcDbDictionary
  0
DICTIONARY
  5
3B
102
{ACAD_REACTORS
330
C
102
}
330
C
100
AcDbDictionary
  3
BYBLOCK
350
3D
  3
BYLAYER
350
3C
  3
GLOBAL
350
3E
  0
DICTIONARY
  5
267
102
{ACAD_REACTORS
330
C
102
}
330
C
100
AcDbDictionary
  0
DICTIONARY
  5
17
102
{ACAD_REACTORS
330
C
102
}
330
C
100
AcDbDictionary
  3
STANDARD
350
18
  0
DICTIONARY
  5
19
102
{ACAD_REACTORS
330
C
102
}
330
C
100
AcDbDictionary
  0
DICTIONARY
  5
2A
102
{ACAD_REACTORS
330
C
102
}
330
C
100
AcDbDictionary
  3
2DWIREFRAME
350
2F
  3
3D_HIDDEN
350
31
  3
3DWIREFRAME
350
30
  3
BASIC
350
32
  3
BRIGHTEN
350
36
  3
COLORCHANGE
350
3A
  3
CONCEPTUAL
350
34
  3
DIM
350
35
  3
FACEPATTERN
350
39
  3
FLAT
350
2B
  3
FLATWITHEDGES
350
2C
  3
GOURAUD
350
2D
  3
GOURAUDWITHEDGES
350
2E
  3
LINEPATTERN
350
38
  3
REALISTIC
350
33
  3
THICKEN
350
37
  0
DICTIONARY
  5
245
102
{ACAD_REACTORS
330
C
102
}
330
C
100
AcDbDictionary
  3
CEPSNTYPE
350
24E
  3
DIMSTYLEDATA
350
264
  3
FINGERPRINTGUID
350
24F
  3
HYPERLINKBASE
350
248
  3
INSUNITS
350
24D
  3
LAYOUTDICT
350
24A
  3
LWETCUNION
350
24C
  3
PLOTSETDICT
350
24B
  3
PSVPSCALE
350
251
  3
PUCSBASE
350
254
  3
PUCSORGBACK
350
25A
  3
PUCSORGBOTTOM
350
256
  3
PUCSORGFRONT
350
259
  3
PUCSORGLEFT
350
257
  3
PUCSORGRIGHT
350
258
  3
PUCSORGTOP
350
255
  3
PUCSORTHOREF
350
252
  3
PUCSORTHOVIEW
350
253
  3
STYLESHEET
350
249
  3
TSTACKALIGN
350
246
  3
TSTACKSIZE
350
247
  3
UCSBASE
350
25D
  3
UCSORGBACK
350
263
  3
UCSORGBOTTOM
350
25F
  3
UCSORGFRONT
350
262
  3
UCSORGLEFT
350
260
  3
UCSORGRIGHT
350
261
  3
UCSORGTOP
350
25E
  3
UCSORTHOREF
350
25B
  3
UCSORTHOVIEW
350
25C
  3
VERSIONGUID
350
250
  0
DICTIONARY
  5
265
102
{ACAD_REACTORS
330
C
102
}
330
C
100
AcDbDictionary
  3
DIMASSOC
350
268
  3
HIDETEXT
350
269
  0
MATERIAL
  5
3D
102
{ACAD_REACTORS
330
3B
102
}
102
{ACAD_XDICTIONARY
360
26C
102
}
330
3B
100
AcDbMaterial
  1
ByBlock
  0
MATERIAL
  5
3C
102
{ACAD_REACTORS
330
3B
102
}
102
{ACAD_XDICTIONARY
360
26A
102
}
330
3B
100
AcDbMaterial
  1
ByLayer
  0
MATERIAL
  5
3E
102
{ACAD_REACTORS
330
3B
102
}
102
{ACAD_XDICTIONARY
360
26E
102
}
330
3B
100
AcDbMaterial
  1
Global
  0
MLINESTYLE
  5
18
102
{ACAD_REACTORS
330
17
102
}
330
17
100
AcDbMlineStyle
  2
Standard
 70
     0
  3

 62
   256
 51
90.0
 52
90.0
 71
     2
 49
0.5
 62
   256
  6
BYLAYER
 49
-0.5
 62
   256
  6
BYLAYER
  0
ACAD_PROXY_OBJECT
  5
2F
102
{ACAD_REACTORS
330
2A
102
}
330
2A
100
AcDbProxyObject
 90
      499
 91
      501
 93
      436
310
42CC9915DA5C99599C985B595049028333333333333E3BF0000000000000FB0107901411070040501600405405064090741402480A0340
1001
ACAD
1000
AcDbSavedByObjectVersion
1070
     0
  0
ACAD_PROXY_OBJECT
  5
31
102
{ACAD_REACTORS
330
2A
102
}
330
2A
100
AcDbProxyObject
 90
      499
 91
      501
 93
      500
310
424CD108121A5919195B90640502408333333333333E3BF0000000000000FB01079024090700405020000000000001110200405405064090740C02480A0340
1001
ACAD
1000
AcDbSavedByObjectVersion
1070
     0
  0
ACAD_PROXY_OBJECT
  5
30
102
{ACAD_REACTORS
330
2A
102
}
330
2A
100
AcDbProxyObject
 90
      499
 91
      501
 93
      436
310
42CCD915DA5C99599C985B595059028333333333333E3BF0000000000000FB0107901411070040501600405405064090741402480A0340
1001
ACAD
1000
AcDbSavedByObjectVersion
1070
     0
  0
ACAD_PROXY_OBJECT
  5
32
102
{ACAD_REACTORS
330
2A
102
}
330
2A
100
AcDbProxyObject
 90
      499
 91
      501
 93
      388
310
4150985CDA58D07406404333333333333E3BF0000000000000FB0107A41107004050150841D405064090741402480A0350
1001
ACAD
1000
AcDbSavedByObjectVersion
1070
     0
  0
ACAD_PROXY_OBJECT
  5
36
102
{ACAD_REACTORS
330
2A
102
}
330
2A
100
AcDbProxyObject
 90
      499
 91
      501
 93
      428
310
42109C9A59DA1D195B90C409028333333333333E3BF0000000000000FB010790141107004050150841D405064090741402480A029950
1001
ACAD
1000
AcDbSavedByObjectVersion
1070
     0
  0
ACAD_PROXY_OBJECT
  5
3A
102
{ACAD_REACTORS
330
2A
102
}
330
2A
100
AcDbProxyObject
 90
      499
 91
      501
 93
      452
310
42D0DBDB1BDC90DA185B99D95104090240C333333333333E3BF0000000000000FB0108901411070040501508421405064090741402480A0350
1001
ACAD
1000
AcDbSavedByObjectVersion
1070
     0
  0
ACAD_PROXY_OBJECT
  5
34
102
{ACAD_REACTORS
330
2A
102
}
330
2A
100
AcDbProxyObject
 90
      499
 91
      501
 93
      500
310
4290DBDB98D95C1D1D585B10940D028333333333333E3BF0000000000000FB0107902409070040501000000000000111010841D405064090740C02480A0340
1001
ACAD
1000
AcDbSavedByObjectVersion
1070
     0
  0
ACAD_PROXY_OBJECT
  5
35
102
{ACAD_REACTORS
330
2A
102
}
330
2A
100
AcDbProxyObject
 90
      499
 91
      501
 93
      412
310
40D11A5B50B409028333333333333E3BF0000000000000FB010790141107004050150841D405064090741402480A02677FFFFFD0
1001
ACAD
1000
AcDbSavedByObjectVersion
1070
     0
  0
ACAD_PROXY_OBJECT
  5
39
102
{ACAD_REACTORS
330
2A
102
}
330
2A
100
AcDbProxyObject
 90
      499
 91
      501
 93
      444
310
42D19858D95C185D1D195C9B90F409028333333333333E3BF0000000000000FB010790141107004050150841D405064090741402480A0350
1001
ACAD
1000
AcDbSavedByObjectVersion
1070
     0
  0
ACAD_PROXY_OBJECT
  5
2B
102
{ACAD_REACTORS
330
2A
102
}
330
2A
100
AcDbProxyObject
 90
      499
 91
      501
 93
      388
310
41119B185D240901404333333333333E3BF0000000000000F9010740A41107004050150841D405064090741402480A1B50
1001
ACAD
1000
AcDbSavedByObjectVersion
1070
     0
  0
ACAD_PROXY_OBJECT
  5
2C
102
{ACAD_REACTORS
330
2A
102
}
330
2A
100
AcDbProxyObject
 90
      499
 91
      501
 93
      476
310
43519B185D15DA5D1A115919D95CD0140901404333333333333E3BF0000000000000F9010740901411070040501600405405064090741402480A1B50
1001
ACAD
1000
AcDbSavedByObjectVersion
1070
     0
  0
ACAD_PROXY_OBJECT
  5
2D
102
{ACAD_REACTORS
330
2A
102
}
330
2A
100
AcDbProxyObject
 90
      499
 91
      501
 93
      412
310
41D1DBDD5C985D5910240902404333333333333E3BF0000000000000F9010740A411070040501641D405064090741402480A1B50
1001
ACAD
1000
AcDbSavedByObjectVersion
1070
     0
  0
ACAD_PROXY_OBJECT
  5
2E
102
{ACAD_REACTORS
330
2A
102
}
330
2A
100
AcDbProxyObject
 90
      499
 91
      501
 93
      500
310
4411DBDD5C985D5915DA5D1A115919D95CD0340902404333333333333E3BF0000000000000F9010740901411070040501600405405064090741402480A1B50
1001
ACAD
1000
AcDbSavedByObjectVersion
1070
     0
  0
ACAD_PROXY_OBJECT
  5
38
102
{ACAD_REACTORS
330
2A
102
}
330
2A
100
AcDbProxyObject
 90
      499
 91
      501
 93
      444
310
42D31A5B995C185D1D195C9B90E409028333333333333E3BF0000000000000FB010790141107004050750841D405064090741402483A0350
1001
ACAD
1000
AcDbSavedByObjectVersion
1070
     0
  0
ACAD_PROXY_OBJECT
  5
33
102
{ACAD_REACTORS
330
2A
102
}
330
2A
100
AcDbProxyObject
 90
      499
 91
      501
 93
      420
310
425499585B1A5CDD1A58D08409028333333333333E3BF0000000000000FB01079019070040501508421405064090741402480A1B40
1001
ACAD
1000
AcDbSavedByObjectVersion
1070
     0
  0
ACAD_PROXY_OBJECT
  5
37
102
{ACAD_REACTORS
330
2A
102
}
330
2A
100
AcDbProxyObject
 90
      499
 91
      501
 93
      412
310
41D51A1A58DAD95B90D409028333333333333E3BF0000000000000FB010790141107004050150C41D405064090741402480A0350
1001
ACAD
1000
AcDbSavedByObjectVersion
1070
     0
  0
XRECORD
  5
24E
102
{ACAD_REACTORS
330
245
102
}
330
245
100
AcDbXrecord
 90
        0
  0
XRECORD
  5
264
102
{ACAD_REACTORS
330
245
102
}
330
245
100
AcDbXrecord
1000
DSTYLE
1002
{
1070
   340
340
11
1002
}
  0
XRECORD
  5
24F
102
{ACAD_REACTORS
330
245
102
}
330
245
100
AcDbXrecord
  1
{481BD697-9D75-498B-9A53-2BCDA8572E7A}
  0
XRECORD
  5
248
102
{ACAD_REACTORS
330
245
102
}
330
245
100
AcDbXrecord
  1

  0
XRECORD
  5
24D
102
{ACAD_REACTORS
330
245
102
}
330
245
100
AcDbXrecord
 90
        4
  0
XRECORD
  5
24A
102
{ACAD_REACTORS
330
245
102
}
330
245
100
AcDbXrecord
340
1A
  0
XRECORD
  5
24C
102
{ACAD_REACTORS
330
245
102
}
330
245
100
AcDbXrecord
 90
    10781
  0
XRECORD
  5
24B
102
{ACAD_REACTORS
330
245
102
}
330
245
100
AcDbXrecord
340
19
  0
XRECORD
  5
251
102
{ACAD_REACTORS
330
245
102
}
330
245
100
AcDbXrecord
 40
0.0
  0
XRECORD
  5
254
102
{ACAD_REACTORS
330
245
102
}
330
245
100
AcDbXrecord
340
0
  0
XRECORD
  5
25A
102
{ACAD_REACTORS
330
245
102
}
330
245
100
AcDbXrecord
 10
0.0
 20
0.0
 30
0.0
  0
XRECORD
  5
256
102
{ACAD_REACTORS
330
245
102
}
330
245
100
AcDbXrecord
 10
0.0
 20
0.0
 30
0.0
  0
XRECORD
  5
259
102
{ACAD_REACTORS
330
245
102
}
330
245
100
AcDbXrecord
 10
0.0
 20
0.0
 30
0.0
  0
XRECORD
  5
257
102
{ACAD_REACTORS
330
245
102
}
330
245
100
AcDbXrecord
 10
0.0
 20
0.0
 30
0.0
  0
XRECORD
  5
258
102
{ACAD_REACTORS
330
245
102
}
330
245
100
AcDbXrecord
 10
0.0
 20
0.0
 30
0.0
  0
XRECORD
  5
255
102
{ACAD_REACTORS
330
245
102
}
330
245
100
AcDbXrecord
 10
0.0
 20
0.0
 30
0.0
  0
XRECORD
  5
252
102
{ACAD_REACTORS
330
245
102
}
330
245
100
AcDbXrecord
340
0
  0
XRECORD
  5
253
102
{ACAD_REACTORS
330
245
102
}
330
245
100
AcDbXrecord
 70
     0
  0
XRECORD
  5
249
102
{ACAD_REACTORS
330
245
102
}
330
245
100
AcDbXrecord
  1

  0
XRECORD
  5
246
102
{ACAD_REACTORS
330
245
102
}
330
245
100
AcDbXrecord
 90
        1
  0
XRECORD
  5
247
102
{ACAD_REACTORS
330
245
102
}
330
245
100
AcDbXrecord
 90
       70
  0
XRECORD
  5
25D
102
{ACAD_REACTORS
330
245
102
}
330
245
100
AcDbXrecord
340
0
  0
XRECORD
  5
263
102
{ACAD_REACTORS
330
245
102
}
330
245
100
AcDbXrecord
 10
0.0
 20
0.0
 30
0.0
  0
XRECORD
  5
25F
102
{ACAD_REACTORS
330
245
102
}
330
245
100
AcDbXrecord
 10
0.0
 20
0.0
 30
0.0
  0
XRECORD
  5
262
102
{ACAD_REACTORS
330
245
102
}
330
245
100
AcDbXrecord
 10
0.0
 20
0.0
 30
0.0
  0
XRECORD
  5
260
102
{ACAD_REACTORS
330
245
102
}
330
245
100
AcDbXrecord
 10
0.0
 20
0.0
 30
0.0
  0
XRECORD
  5
261
102
{ACAD_REACTORS
330
245
102
}
330
245
100
AcDbXrecord
 10
0.0
 20
0.0
 30
0.0
  0
XRECORD
  5
25E
102
{ACAD_REACTORS
330
245
102
}
330
245
100
AcDbXrecord
 10
0.0
 20
0.0
 30
0.0
  0
XRECORD
  5
25B
102
{ACAD_REACTORS
330
245
102
}
330
245
100
AcDbXrecord
340
0
  0
XRECORD
  5
25C
102
{ACAD_REACTORS
330
245
102
}
330
245
100
AcDbXrecord
 70
     0
  0
XRECORD
  5
250
102
{ACAD_REACTORS
330
245
102
}
330
245
100
AcDbXrecord
  1
{FAEB1C32-E019-11D5-929B-00C0DF256EC4}
  0
DICTIONARYVAR
  5
268
102
{ACAD_REACTORS
330
265
102
}
330
265
100
DictionaryVariables
280
     0
  1
2
  0
DICTIONARYVAR
  5
269
102
{ACAD_REACTORS
330
265
102
}
330
265
100
DictionaryVariables
280
     0
  1
1
  0
DICTIONARY
  5
26C
330
3D
100
AcDbDictionary
280
     1
  3
ACAD_XREC_ROUNDTRIP
360
26D
  0
DICTIONARY
  5
26A
330
3C
100
AcDbDictionary
280
     1
  3
ACAD_XREC_ROUNDTRIP
360
26B
  0
DICTIONARY
  5
26E
330
3E
100
AcDbDictionary
280
     1
  3
ACAD_XREC_ROUNDTRIP
360
26F
  0
XRECORD
  5
26D
102
{ACAD_REACTORS
330
26C
102
}
330
26C
100
AcDbXrecord
102
MATERIAL
148
0.0
149
0.0
149
0.0
 93
        0
 94
      127
282
     0
 72
     1
 77
     1
171
     1
175
     1
179
     1
273
     0
  0
XRECORD
  5
26B
102
{ACAD_REACTORS
330
26A
102
}
330
26A
100
AcDbXrecord
102
MATERIAL
148
0.0
149
0.0
149
0.0
 93
        0
 94
      127
282
     0
 72
     1
 77
     1
171
     1
175
     1
179
     1
273
     0
  0
XRECORD
  5
26F
102
{ACAD_REACTORS
330
26E
102
}
330
26E
100
AcDbXrecord
102
MATERIAL
148
0.0
149
0.0
149
0.0
 93
        0
 94
      127
282
     0
 72
     1
 77
     1
171
     1
175
     1
179
     1
273
     0
  0
ENDSEC
  0
EOF
