  0
SECTION
  2
HEADER
  9
$ACADVER
  1
AC1014
  9
$ACADMAINTVER
 70
     9
  9
$DWGCODEPAGE
  3
ANSI_1250
  9
$INSBASE
 10
0.0
 20
0.0
 30
0.0
  9
$EXTMIN
 10
-24.8422
 20
-13.0449
 30
0.0
  9
$EXTMAX
 10
24.845
 20
13.0424
 30
0.0
  9
$LIMMIN
 10
0.0
 20
0.0
  9
$LIMMAX
 10
12.0
 20
9.0
  9
$ORTHOMODE
 70
     0
  9
$REGENMODE
 70
     1
  9
$FILLMODE
 70
     1
  9
$QTEXTMODE
 70
     0
  9
$MIRRTEXT
 70
     1
  9
$DRAGMODE
 70
     2
  9
$LTSCALE
 40
1.0
  9
$OSMODE
 70
    37
  9
$ATTMODE
 70
     1
  9
$TEXTSIZE
 40
0.2
  9
$TRACEWID
 40
0.05
  9
$TEXTSTYLE
  7
STANDARD
  9
$CLAYER
  8
0
  9
$CELTYPE
  6
BYLAYER
  9
$CECOLOR
 62
   256
  9
$CELTSCALE
 40
1.0
  9
$DELOBJ
 70
     1
  9
$DISPSILH
 70
     0
  9
$DIMSCALE
 40
1.0
  9
$DIMASZ
 40
0.18
  9
$DIMEXO
 40
0.0625
  9
$DIMDLI
 40
0.38
  9
$DIMRND
 40
0.0
  9
$DIMDLE
 40
0.0
  9
$DIMEXE
 40
0.18
  9
$DIMTP
 40
0.0
  9
$DIMTM
 40
0.0
  9
$DIMTXT
 40
0.18
  9
$DIMCEN
 40
0.09
  9
$DIMTSZ
 40
0.0
  9
$DIMTOL
 70
     0
  9
$DIMLIM
 70
     0
  9
$DIMTIH
 70
     1
  9
$DIMTOH
 70
     1
  9
$DIMSE1
 70
     0
  9
$DIMSE2
 70
     0
  9
$DIMTAD
 70
     0
  9
$DIMZIN
 70
     0
  9
$DIMBLK
  1

  9
$DIMASO
 70
     1
  9
$DIMSHO
 70
     1
  9
$DIMPOST
  1

  9
$DIMAPOST
  1

  9
$DIMALT
 70
     0
  9
$DIMALTD
 70
     2
  9
$DIMALTF
 40
25.4
  9
$DIMLFAC
 40
1.0
  9
$DIMTOFL
 70
     0
  9
$DIMTVP
 40
0.0
  9
$DIMTIX
 70
     0
  9
$DIMSOXD
 70
     0
  9
$DIMSAH
 70
     0
  9
$DIMBLK1
  1

  9
$DIMBLK2
  1

  9
$DIMSTYLE
  2
STANDARD
  9
$DIMCLRD
 70
     0
  9
$DIMCLRE
 70
     0
  9
$DIMCLRT
 70
     0
  9
$DIMTFAC
 40
1.0
  9
$DIMGAP
 40
0.09
  9
$DIMJUST
 70
     0
  9
$DIMSD1
 70
     0
  9
$DIMSD2
 70
     0
  9
$DIMTOLJ
 70
     1
  9
$DIMTZIN
 70
     0
  9
$DIMALTZ
 70
     0
  9
$DIMALTTZ
 70
     0
  9
$DIMFIT
 70
     3
  9
$DIMUPT
 70
     0
  9
$DIMUNIT
 70
     2
  9
$DIMDEC
 70
     4
  9
$DIMTDEC
 70
     4
  9
$DIMALTU
 70
     2
  9
$DIMALTTD
 70
     2
  9
$DIMTXSTY
  7
STANDARD
  9
$DIMAUNIT
 70
     0
  9
$LUNITS
 70
     2
  9
$LUPREC
 70
     4
  9
$SKETCHINC
 40
0.1
  9
$FILLETRAD
 40
0.5
  9
$AUNITS
 70
     0
  9
$AUPREC
 70
     0
  9
$MENU
  1
.
  9
$ELEVATION
 40
0.0
  9
$PELEVATION
 40
0.0
  9
$THICKNESS
 40
0.0
  9
$LIMCHECK
 70
     0
  9
$CHAMFERA
 40
0.5
  9
$CHAMFERB
 40
0.5
  9
$CHAMFERC
 40
1.0
  9
$CHAMFERD
 40
0.0
  9
$SKPOLY
 70
     0
  9
$TDCREATE
 40
2456268.578487107
  9
$TDUPDATE
 40
2456268.578487118
  9
$TDINDWG
 40
0.0000000116
  9
$TDUSRTIMER
 40
0.0000000116
  9
$USRTIMER
 70
     1
  9
$ANGBASE
 50
0.0
  9
$ANGDIR
 70
     0
  9
$PDMODE
 70
     0
  9
$PDSIZE
 40
0.0
  9
$PLINEWID
 40
0.0
  9
$COORDS
 70
     1
  9
$SPLFRAME
 70
     0
  9
$SPLINETYPE
 70
     6
  9
$SPLINESEGS
 70
     8
  9
$ATTDIA
 70
     0
  9
$ATTREQ
 70
     1
  9
$HANDLING
 70
     1
  9
$HANDSEED
  5
17B
  9
$SURFTAB1
 70
     6
  9
$SURFTAB2
 70
     6
  9
$SURFTYPE
 70
     6
  9
$SURFU
 70
     6
  9
$SURFV
 70
     6
  9
$UCSNAME
  2

  9
$UCSORG
 10
0.0
 20
0.0
 30
0.0
  9
$UCSXDIR
 10
1.0
 20
0.0
 30
0.0
  9
$UCSYDIR
 10
0.0
 20
1.0
 30
0.0
  9
$PUCSNAME
  2

  9
$PUCSORG
 10
0.0
 20
0.0
 30
0.0
  9
$PUCSXDIR
 10
1.0
 20
0.0
 30
0.0
  9
$PUCSYDIR
 10
0.0
 20
1.0
 30
0.0
  9
$USERI1
 70
     0
  9
$USERI2
 70
     0
  9
$USERI3
 70
     0
  9
$USERI4
 70
     0
  9
$USERI5
 70
     0
  9
$USERR1
 40
0.0
  9
$USERR2
 40
0.0
  9
$USERR3
 40
0.0
  9
$USERR4
 40
0.0
  9
$USERR5
 40
0.0
  9
$WORLDVIEW
 70
     1
  9
$SHADEDGE
 70
     3
  9
$SHADEDIF
 70
    70
  9
$TILEMODE
 70
     1
  9
$MAXACTVP
 70
    64
  9
$PINSBASE
 10
0.0
 20
0.0
 30
0.0
  9
$PLIMCHECK
 70
     0
  9
$PEXTMIN
 10
1.000000000000000E+20
 20
1.000000000000000E+20
 30
1.000000000000000E+20
  9
$PEXTMAX
 10
-1.000000000000000E+20
 20
-1.000000000000000E+20
 30
-1.000000000000000E+20
  9
$PLIMMIN
 10
0.0
 20
0.0
  9
$PLIMMAX
 10
12.0
 20
9.0
  9
$UNITMODE
 70
     0
  9
$VISRETAIN
 70
     1
  9
$PLINEGEN
 70
     0
  9
$PSLTSCALE
 70
     1
  9
$TREEDEPTH
 70
  3020
  9
$PICKSTYLE
 70
     1
  9
$CMLSTYLE
  2
STANDARD
  9
$CMLJUST
 70
     0
  9
$CMLSCALE
 40
1.0
  9
$PROXYGRAPHICS
 70
     1
  9
$MEASUREMENT
 70
     0
  0
ENDSEC
  0
SECTION
  2
CLASSES
  0
CLASS
  1
ACDBDICTIONARYWDFLT
  2
AcDbDictionaryWithDefault
  3
ObjectDBX Classes
 90
        0
280
     0
281
     0
  0
CLASS
  1
VISUALSTYLE
  2
AcDbVisualStyle
  3
ObjectDBX Classes
 90
     4095
280
     0
281
     0
  0
CLASS
  1
MATERIAL
  2
AcDbMaterial
  3
ObjectDBX Classes
 90
     1153
280
     0
281
     0
  0
CLASS
  1
DICTIONARYVAR
  2
AcDbDictionaryVar
  3
ObjectDBX Classes
 90
        0
280
     0
281
     0
  0
CLASS
  1
XRECORD
  2
AcDbXrecord
  3
AutoCAD 2000
 90
        0
280
     0
281
     0
  0
CLASS
  1
LWPOLYLINE
  2
AcDbPolyline
  3
AutoCAD 2000
 90
        0
280
     0
281
     1
  0
CLASS
  1
HATCH
  2
AcDbHatch
  3
AutoCAD 2000
 90
        0
280
     0
281
     1
  0
CLASS
  1
ACDBPLACEHOLDER
  2
AcDbPlaceHolder
  3
ObjectDBX Classes
 90
        0
280
     0
281
     0
  0
CLASS
  1
LAYOUT
  2
AcDbLayout
  3
ObjectDBX Classes
 90
        0
280
     0
281
     0
  0
ENDSEC
  0
SECTION
  2
TABLES
  0
TABLE
  2
VPORT
  5
8
330
0
100
AcDbSymbolTable
 70
     1
  0
VPORT
  5
29
330
8
100
AcDbSymbolTableRecord
100
AcDbViewportTableRecord
  2
*ACTIVE
 70
     0
 10
0.0
 20
0.0
 11
1.0
 21
1.0
 12
10.42990654205607
 22
4.5
 13
0.0
 23
0.0
 14
0.5
 24
0.5
 15
0.5
 25
0.5
 16
0.0
 26
0.0
 36
1.0
 17
0.0
 27
0.0
 37
0.0
 40
9.0
 41
1.972972972850329
 42
50.0
 43
0.0
 44
0.0
 50
0.0
 51
0.0
 71
     0
 72
   100
 73
     1
 74
     3
 75
     0
 76
     0
 77
     0
 78
     0
  0
ENDTAB
  0
TABLE
  2
LTYPE
  5
5
330
0
100
AcDbSymbolTable
 70
     3
  0
LTYPE
  5
14
330
5
100
AcDbSymbolTableRecord
100
AcDbLinetypeTableRecord
  2
BYBLOCK
 70
     0
  3

 72
    65
 73
     0
 40
0.0
  0
LTYPE
  5
15
330
5
100
AcDbSymbolTableRecord
100
AcDbLinetypeTableRecord
  2
BYLAYER
 70
     0
  3

 72
    65
 73
     0
 40
0.0
  0
LTYPE
  5
16
330
5
100
AcDbSymbolTableRecord
100
AcDbLinetypeTableRecord
  2
CONTINUOUS
 70
     0
  3
Solid line
 72
    65
 73
     0
 40
0.0
  0
LTYPE
  5
4B
330
5
100
AcDbSymbolTableRecord
100
AcDbLinetypeTableRecord
  2
NEW_LINE1
 70
     0
  3

 72
    65
 73
     4
 40
1.2
 49
0.5
 74
     4
 75
     0
340
0
 46
1.0
 50
0.0
 44
0.0
 45
0.0
 49
-0.3
 74
     4
 75
     0
340
0
 46
1.0
 50
0.0
 44
0.0
 45
0.0
 49
0.1
 74
     4
 75
     0
340
0
 46
1.0
 50
0.0
 44
0.0
 45
0.0
 49
-0.3
 74
     4
 75
     0
340
0
 46
1.0
 50
0.0
 44
0.0
 45
0.0
  0
LTYPE
  5
4D
330
5
100
AcDbSymbolTableRecord
100
AcDbLinetypeTableRecord
  2
NEW_LINE2
 70
     0
  3

 72
    65
 73
     4
 40
1.2
 49
0.5
 74
     4
 75
     0
340
0
 46
1.0
 50
0.0
 44
0.0
 45
0.0
 49
-0.3
 74
     4
 75
     0
340
0
 46
1.0
 50
0.0
 44
0.0
 45
0.0
 49
0.1
 74
     4
 75
     0
340
0
 46
1.0
 50
0.0
 44
0.0
 45
0.0
 49
-0.3
 74
     4
 75
     0
340
0
 46
1.0
 50
0.0
 44
0.0
 45
0.0
  0
ENDTAB
  0
TABLE
  2
LAYER
  5
2
330
0
100
AcDbSymbolTable
 70
     2
  0
LAYER
  5
10
330
2
100
AcDbSymbolTableRecord
100
AcDbLayerTableRecord
  2
0
 70
     0
 62
     7
  6
CONTINUOUS
  0
LAYER
  5
40
330
2
100
AcDbSymbolTableRecord
100
AcDbLayerTableRecord
  2
DEFAULT_1
 70
     0
 62
     7
  6
CONTINUOUS
  0
ENDTAB
  0
TABLE
  2
STYLE
  5
3
330
0
100
AcDbSymbolTable
 70
     1
  0
STYLE
  5
11
330
3
100
AcDbSymbolTableRecord
100
AcDbTextStyleTableRecord
  2
STANDARD
 70
     0
 40
0.0
 41
1.0
 50
0.0
 71
     0
 42
0.2
  3
txt
  4

  0
ENDTAB
  0
TABLE
  2
VIEW
  5
6
330
0
100
AcDbSymbolTable
 70
     0
  0
ENDTAB
  0
TABLE
  2
UCS
  5
7
330
0
100
AcDbSymbolTable
 70
     0
  0
ENDTAB
  0
TABLE
  2
APPID
  5
9
330
0
100
AcDbSymbolTable
 70
     2
  0
APPID
  5
12
330
9
100
AcDbSymbolTableRecord
100
AcDbRegAppTableRecord
  2
ACAD
 70
     0
  0
APPID
  5
3F
330
9
100
AcDbSymbolTableRecord
100
AcDbRegAppTableRecord
  2
ODA
 70
     0
  0
ENDTAB
  0
TABLE
  2
DIMSTYLE
  5
A
330
0
100
AcDbSymbolTable
 70
     1
  0
DIMSTYLE
105
27
330
A
100
AcDbSymbolTableRecord
100
AcDbDimStyleTableRecord
  2
STANDARD
 70
     0
  3

  4

  5

  6

  7

 40
1.0
 41
0.18
 42
0.0625
 43
0.38
 44
0.18
 45
0.0
 46
0.0
 47
0.0
 48
0.0
140
0.18
141
0.09
142
0.0
143
25.4
144
1.0
145
0.0
146
1.0
147
0.09
 71
     0
 72
     0
 73
     1
 74
     1
 75
     0
 76
     0
 77
     0
 78
     0
170
     0
171
     2
172
     0
173
     0
174
     0
175
     0
176
     0
177
     0
178
     0
270
     2
271
     4
272
     4
273
     2
274
     2
340
11
275
     0
280
     0
281
     0
282
     0
283
     1
284
     0
285
     0
286
     0
287
     3
288
     0
  0
ENDTAB
  0
TABLE
  2
BLOCK_RECORD
  5
1
330
0
100
AcDbSymbolTable
 70
     1
  0
BLOCK_RECORD
  5
1F
330
1
100
AcDbSymbolTableRecord
100
AcDbBlockTableRecord
  2
*MODEL_SPACE
  0
BLOCK_RECORD
  5
1B
330
1
100
AcDbSymbolTableRecord
100
AcDbBlockTableRecord
  2
*PAPER_SPACE
  0
ENDTAB
  0
ENDSEC
  0
SECTION
  2
BLOCKS
  0
BLOCK
  5
20
330
1F
100
AcDbEntity
  8
0
100
AcDbBlockBegin
  2
*MODEL_SPACE
 70
     0
 10
0.0
 20
0.0
 30
0.0
  3
*MODEL_SPACE
  1

  0
ENDBLK
  5
21
330
1F
100
AcDbEntity
  8
0
100
AcDbBlockEnd
  0
BLOCK
  5
1C
330
1B
100
AcDbEntity
 67
     1
  8
0
100
AcDbBlockBegin
  2
*PAPER_SPACE
 70
     0
 10
0.0
 20
0.0
 30
0.0
  3
*PAPER_SPACE
  1

  0
ENDBLK
  5
1D
330
1B
100
AcDbEntity
 67
     1
  8
0
100
AcDbBlockEnd
  0
ENDSEC
  0
SECTION
  2
ENTITIES
  0
SPLINE
  5
41
330
1F
100
AcDbEntity
  8
DEFAULT_1
 62
   250
100
AcDbSpline
210
0.0
220
0.0
230
1.0
 70
    24
 71
     3
 72
     8
 73
     4
 74
     0
 42
0.0000000001
 43
0.0000000001
 40
0.0
 40
0.0
 40
0.0
 40
0.0
 40
1.0
 40
1.0
 40
1.0
 40
1.0
 10
19.9736
 20
-9.238
 30
0.0
 10
19.9736
 20
-9.238
 30
0.0
 10
24.4018
 20
-9.4436
 30
0.0
 10
24.4018
 20
-9.4436
 30
0.0
  0
SPLINE
  5
42
330
1F
100
AcDbEntity
  8
DEFAULT_1
 62
   250
100
AcDbSpline
210
0.0
220
0.0
230
1.0
 70
    24
 71
     3
 72
     8
 73
     4
 74
     0
 42
0.0000000001
 43
0.0000000001
 40
0.0
 40
0.0
 40
0.0
 40
0.0
 40
1.0
 40
1.0
 40
1.0
 40
1.0
 10
24.1858
 20
2.7128
 30
0.0
 10
24.1858
 20
2.7128
 30
0.0
 10
23.6357
 20
-13.0424
 30
0.0
 10
23.6357
 20
-13.0424
 30
0.0
  0
SPLINE
  5
43
330
1F
100
AcDbEntity
  8
DEFAULT_1
 62
   250
100
AcDbSpline
210
0.0
220
0.0
230
1.0
 70
    24
 71
     3
 72
     8
 73
     4
 74
     0
 42
0.0000000001
 43
0.0000000001
 40
0.0
 40
0.0
 40
0.0
 40
0.0
 40
1.0
 40
1.0
 40
1.0
 40
1.0
 10
-7.6941
 20
-8.7391
 30
0.0
 10
-7.6941
 20
-8.7391
 30
0.0
 10
-23.1482
 20
-8.7391
 30
0.0
 10
-23.1482
 20
-8.7391
 30
0.0
  0
SPLINE
  5
44
330
1F
100
AcDbEntity
  8
DEFAULT_1
 62
   250
100
AcDbSpline
210
0.0
220
0.0
230
1.0
 70
    24
 71
     3
 72
     8
 73
     4
 74
     0
 42
0.0000000001
 43
0.0000000001
 40
0.0
 40
0.0
 40
0.0
 40
0.0
 40
1.0
 40
1.0
 40
1.0
 40
1.0
 10
-22.4676
 20
3.6792
 30
0.0
 10
-22.4676
 20
3.6792
 30
0.0
 10
-22.4676
 20
-8.2146
 30
0.0
 10
-22.4676
 20
-8.2146
 30
0.0
  0
SPLINE
  5
45
330
1F
100
AcDbEntity
  8
DEFAULT_1
 62
   250
100
AcDbSpline
210
0.0
220
0.0
230
1.0
 70
    24
 71
     3
 72
     8
 73
     4
 74
     0
 42
0.0000000001
 43
0.0000000001
 40
0.0
 40
0.0
 40
0.0
 40
0.0
 40
1.0
 40
1.0
 40
1.0
 40
1.0
 10
-18.7005
 20
5.0353
 30
0.0
 10
-18.7005
 20
5.0353
 30
0.0
 10
-18.7005
 20
11.2404
 30
0.0
 10
-18.7005
 20
11.2404
 30
0.0
  0
SPLINE
  5
46
330
1F
100
AcDbEntity
  8
DEFAULT_1
 62
   250
100
AcDbSpline
210
0.0
220
0.0
230
1.0
 70
    24
 71
     3
 72
     8
 73
     4
 74
     0
 42
0.0000000001
 43
0.0000000001
 40
0.0
 40
0.0
 40
0.0
 40
0.0
 40
1.0
 40
1.0
 40
1.0
 40
1.0
 10
18.1809
 20
5.0353
 30
0.0
 10
18.1809
 20
5.0353
 30
0.0
 10
18.1809
 20
11.349
 30
0.0
 10
18.1809
 20
11.349
 30
0.0
  0
SPLINE
  5
47
330
1F
100
AcDbEntity
  8
DEFAULT_1
 62
   250
100
AcDbSpline
210
0.0
220
0.0
230
1.0
 70
    24
 71
     3
 72
     8
 73
     4
 74
     0
 42
0.0000000001
 43
0.0000000001
 40
0.0
 40
0.0
 40
0.0
 40
0.0
 40
1.0
 40
1.0
 40
1.0
 40
1.0
 10
17.204
 20
10.4611
 30
0.0
 10
17.204
 20
10.4611
 30
0.0
 10
-18.1968
 20
10.4611
 30
0.0
 10
-18.1968
 20
10.4611
 30
0.0
  0
SPLINE
  5
48
330
1F
100
AcDbEntity
  8
DEFAULT_1
 62
   250
100
AcDbSpline
210
0.0
220
0.0
230
1.0
 70
    24
 71
     3
 72
     8
 73
     4
 74
     0
 42
0.0000000001
 43
0.0000000001
 40
0.0
 40
0.0
 40
0.0
 40
0.0
 40
1.0
 40
1.0
 40
1.0
 40
1.0
 10
-19.0875
 20
4.4676
 30
0.0
 10
-19.0875
 20
4.4676
 30
0.0
 10
-23.147
 20
4.4676
 30
0.0
 10
-23.147
 20
4.4676
 30
0.0
  0
SPLINE
  5
49
330
1F
100
AcDbEntity
  8
DEFAULT_1
 62
   250
100
AcDbSpline
210
0.0
220
0.0
230
1.0
 70
    24
 71
     3
 72
     8
 73
     4
 74
     0
 42
0.0000000001
 43
0.0000000001
 40
0.0
 40
0.0
 40
0.0
 40
0.0
 40
1.0
 40
1.0
 40
1.0
 40
1.0
 10
20.3759
 20
-0.717
 30
0.0
 10
20.3759
 20
-0.717
 30
0.0
 10
24.8422
 20
-0.8952
 30
0.0
 10
24.8422
 20
-0.8952
 30
0.0
  0
SPLINE
  5
4A
330
1F
100
AcDbEntity
  8
DEFAULT_1
  6
NEW_LINE1
 62
   250
100
AcDbSpline
210
0.0
220
0.0
230
1.0
 70
    24
 71
     3
 72
     8
 73
     4
 74
     0
 42
0.0000000001
 43
0.0000000001
 40
0.0
 40
0.0
 40
0.0
 40
0.0
 40
1.0
 40
1.0
 40
1.0
 40
1.0
 10
20.6764
 20
-4.8414
 30
0.0
 10
20.6764
 20
-4.8414
 30
0.0
 10
-0.7042
 20
-4.0947
 30
0.0
 10
-0.7042
 20
-4.0947
 30
0.0
  0
SPLINE
  5
4C
330
1F
100
AcDbEntity
  8
DEFAULT_1
  6
NEW_LINE2
 62
   250
100
AcDbSpline
210
0.0
220
0.0
230
1.0
 70
    24
 71
     3
 72
     8
 73
     4
 74
     0
 42
0.0000000001
 43
0.0000000001
 40
0.0
 40
0.0
 40
0.0
 40
0.0
 40
1.0
 40
1.0
 40
1.0
 40
1.0
 10
-0.11
 20
-10.2879
 30
0.0
 10
-0.11
 20
-10.2879
 30
0.0
 10
-0.11
 20
6.871
 30
0.0
 10
-0.11
 20
6.871
 30
0.0
  0
SPLINE
  5
4E
330
1F
100
AcDbEntity
  8
DEFAULT_1
 62
   250
100
AcDbSpline
210
0.0
220
0.0
230
1.0
 70
    11
 71
     3
 72
    48
 73
    44
 74
     0
 42
0.0000000001
 43
0.0000000001
 40
0.0
 40
0.0
 40
0.0
 40
0.0
 40
0.0833333333333333
 40
0.0833333333333333
 40
0.0833333333333333
 40
0.0833333333333333
 40
0.1666666666666667
 40
0.1666666666666667
 40
0.1666666666666667
 40
0.1666666666666667
 40
0.25
 40
0.25
 40
0.25
 40
0.25
 40
0.3333333333333333
 40
0.3333333333333333
 40
0.3333333333333333
 40
0.3333333333333333
 40
0.4166666666666667
 40
0.4166666666666667
 40
0.4166666666666667
 40
0.4166666666666667
 40
0.5
 40
0.5
 40
0.5
 40
0.5
 40
0.5833333333333334
 40
0.5833333333333334
 40
0.5833333333333334
 40
0.5833333333333334
 40
0.6666666666666666
 40
0.6666666666666666
 40
0.6666666666666666
 40
0.6666666666666666
 40
0.75
 40
0.75
 40
0.75
 40
0.75
 40
0.8333333333333334
 40
0.8333333333333334
 40
0.8333333333333334
 40
0.8333333333333334
 40
1.0
 40
1.0
 40
1.0
 40
1.0
 10
-24.5689
 20
-3.7037
 30
0.0
 10
-24.5689
 20
-3.7037
 30
0.0
 10
-24.8074
 20
-3.7037
 30
0.0
 10
-24.8074
 20
-3.7037
 30
0.0
 10
-24.8074
 20
-3.7037
 30
0.0
 10
-24.8074
 20
-3.7037
 30
0.0
 10
-24.8074
 20
-2.3961
 30
0.0
 10
-24.8074
 20
-2.3961
 30
0.0
 10
-24.8074
 20
-2.3961
 30
0.0
 10
-24.8074
 20
-2.3961
 30
0.0
 10
-24.6145
 20
-2.3961
 30
0.0
 10
-24.6145
 20
-2.3961
 30
0.0
 10
-24.6145
 20
-2.3961
 30
0.0
 10
-24.4777
 20
-2.5245
 30
0.0
 10
-24.2956
 20
-2.652
 30
0.0
 10
-24.0689
 20
-2.7785
 30
0.0
 10
-24.0689
 20
-2.7785
 30
0.0
 10
-23.8422
 20
-2.9046
 30
0.0
 10
-23.6084
 20
-3.0024
 30
0.0
 10
-23.369
 20
-3.0711
 30
0.0
 10
-23.369
 20
-3.0711
 30
0.0
 10
-23.1997
 20
-3.1209
 30
0.0
 10
-23.0148
 20
-3.1524
 30
0.0
 10
-22.8135
 20
-3.1661
 30
0.0
 10
-22.8135
 20
-3.1661
 30
0.0
 10
-22.8135
 20
-3.1661
 30
0.0
 10
-22.8135
 20
-3.421
 30
0.0
 10
-22.8135
 20
-3.421
 30
0.0
 10
-22.8135
 20
-3.421
 30
0.0
 10
-22.9725
 20
-3.4182
 30
0.0
 10
-23.1644
 20
-3.3872
 30
0.0
 10
-23.3897
 20
-3.3274
 30
0.0
 10
-23.3897
 20
-3.3274
 30
0.0
 10
-23.6145
 20
-3.2677
 30
0.0
 10
-23.8318
 20
-3.1821
 30
0.0
 10
-24.0407
 20
-3.0706
 30
0.0
 10
-24.0407
 20
-3.0706
 30
0.0
 10
-24.2495
 20
-2.9587
 30
0.0
 10
-24.4259
 20
-2.8401
 30
0.0
 10
-24.5689
 20
-2.7141
 30
0.0
 10
-24.5689
 20
-2.7141
 30
0.0
 10
-24.5689
 20
-2.7141
 30
0.0
 10
-24.5689
 20
-3.7037
 30
0.0
 10
-24.5689
 20
-3.7037
 30
0.0
  0
SPLINE
  5
4F
330
1F
100
AcDbEntity
  8
DEFAULT_1
 62
   250
100
AcDbSpline
210
0.0
220
0.0
230
1.0
 70
    11
 71
     3
 72
    92
 73
    88
 74
     0
 42
0.0000000001
 43
0.0000000001
 40
0.0
 40
0.0
 40
0.0
 40
0.0
 40
0.0434782608695652
 40
0.0434782608695652
 40
0.0434782608695652
 40
0.0434782608695652
 40
0.0869565217391304
 40
0.0869565217391304
 40
0.0869565217391304
 40
0.0869565217391304
 40
0.1304347826086956
 40
0.1304347826086956
 40
0.1304347826086956
 40
0.1304347826086956
 40
0.1739130434782609
 40
0.1739130434782609
 40
0.1739130434782609
 40
0.1739130434782609
 40
0.2173913043478261
 40
0.2173913043478261
 40
0.2173913043478261
 40
0.2173913043478261
 40
0.2608695652173913
 40
0.2608695652173913
 40
0.2608695652173913
 40
0.2608695652173913
 40
0.3043478260869565
 40
0.3043478260869565
 40
0.3043478260869565
 40
0.3043478260869565
 40
0.3478260869565217
 40
0.3478260869565217
 40
0.3478260869565217
 40
0.3478260869565217
 40
0.391304347826087
 40
0.391304347826087
 40
0.391304347826087
 40
0.391304347826087
 40
0.4347826086956522
 40
0.4347826086956522
 40
0.4347826086956522
 40
0.4347826086956522
 40
0.4782608695652174
 40
0.4782608695652174
 40
0.4782608695652174
 40
0.4782608695652174
 40
0.5217391304347826
 40
0.5217391304347826
 40
0.5217391304347826
 40
0.5217391304347826
 40
0.5652173913043478
 40
0.5652173913043478
 40
0.5652173913043478
 40
0.5652173913043478
 40
0.6086956521739131
 40
0.6086956521739131
 40
0.6086956521739131
 40
0.6086956521739131
 40
0.6521739130434783
 40
0.6521739130434783
 40
0.6521739130434783
 40
0.6521739130434783
 40
0.6956521739130435
 40
0.6956521739130435
 40
0.6956521739130435
 40
0.6956521739130435
 40
0.7391304347826086
 40
0.7391304347826086
 40
0.7391304347826086
 40
0.7391304347826086
 40
0.782608695652174
 40
0.782608695652174
 40
0.782608695652174
 40
0.782608695652174
 40
0.8260869565217391
 40
0.8260869565217391
 40
0.8260869565217391
 40
0.8260869565217391
 40
0.8695652173913043
 40
0.8695652173913043
 40
0.8695652173913043
 40
0.8695652173913043
 40
0.9130434782608695
 40
0.9130434782608695
 40
0.9130434782608695
 40
0.9130434782608695
 40
1.0
 40
1.0
 40
1.0
 40
1.0
 10
-23.2806
 20
-2.1134
 30
0.0
 10
-23.2806
 20
-2.1134
 30
0.0
 10
-23.3027
 20
-1.8749
 30
0.0
 10
-23.3027
 20
-1.8749
 30
0.0
 10
-23.3027
 20
-1.8749
 30
0.0
 10
-23.1907
 20
-1.8547
 30
0.0
 10
-23.1094
 20
-1.8161
 30
0.0
 10
-23.0586
 20
-1.7592
 30
0.0
 10
-23.0586
 20
-1.7592
 30
0.0
 10
-23.0082
 20
-1.7023
 30
0.0
 10
-22.9828
 20
-1.6294
 30
0.0
 10
-22.9828
 20
-1.54
 30
0.0
 10
-22.9828
 20
-1.54
 30
0.0
 10
-22.9828
 20
-1.4638
 30
0.0
 10
-23.0002
 20
-1.3971
 30
0.0
 10
-23.0355
 20
-1.3397
 30
0.0
 10
-23.0355
 20
-1.3397
 30
0.0
 10
-23.0703
 20
-1.2823
 30
0.0
 10
-23.1169
 20
-1.2352
 30
0.0
 10
-23.1752
 20
-1.1986
 30
0.0
 10
-23.1752
 20
-1.1986
 30
0.0
 10
-23.2335
 20
-1.1614
 30
0.0
 10
-23.3126
 20
-1.1308
 30
0.0
 10
-23.4113
 20
-1.1059
 30
0.0
 10
-23.4113
 20
-1.1059
 30
0.0
 10
-23.5106
 20
-1.0814
 30
0.0
 10
-23.6117
 20
-1.0687
 30
0.0
 10
-23.7147
 20
-1.0687
 30
0.0
 10
-23.7147
 20
-1.0687
 30
0.0
 10
-23.7255
 20
-1.0687
 30
0.0
 10
-23.7425
 20
-1.0692
 30
0.0
 10
-23.7641
 20
-1.0701
 30
0.0
 10
-23.7641
 20
-1.0701
 30
0.0
 10
-23.6856
 20
-1.12
 30
0.0
 10
-23.6211
 20
-1.1877
 30
0.0
 10
-23.5722
 20
-1.2733
 30
0.0
 10
-23.5722
 20
-1.2733
 30
0.0
 10
-23.5228
 20
-1.3594
 30
0.0
 10
-23.4984
 20
-1.4526
 30
0.0
 10
-23.4984
 20
-1.5523
 30
0.0
 10
-23.4984
 20
-1.5523
 30
0.0
 10
-23.4984
 20
-1.7197
 30
0.0
 10
-23.559
 20
-1.8613
 30
0.0
 10
-23.6804
 20
-1.977
 30
0.0
 10
-23.6804
 20
-1.977
 30
0.0
 10
-23.8017
 20
-2.0927
 30
0.0
 10
-23.9612
 20
-2.1506
 30
0.0
 10
-24.1597
 20
-2.1506
 30
0.0
 10
-24.1597
 20
-2.1506
 30
0.0
 10
-24.3648
 20
-2.1506
 30
0.0
 10
-24.5294
 20
-2.0904
 30
0.0
 10
-24.6545
 20
-1.9695
 30
0.0
 10
-24.6545
 20
-1.9695
 30
0.0
 10
-24.7796
 20
-1.8486
 30
0.0
 10
-24.8422
 20
-1.6971
 30
0.0
 10
-24.8422
 20
-1.5151
 30
0.0
 10
-24.8422
 20
-1.5151
 30
0.0
 10
-24.8422
 20
-1.3839
 30
0.0
 10
-24.8064
 20
-1.2639
 30
0.0
 10
-24.7359
 20
-1.1548
 30
0.0
 10
-24.7359
 20
-1.1548
 30
0.0
 10
-24.6653
 20
-1.0462
 30
0.0
 10
-24.5642
 20
-0.9634
 30
0.0
 10
-24.4334
 20
-0.9069
 30
0.0
 10
-24.4334
 20
-0.9069
 30
0.0
 10
-24.3027
 20
-0.8505
 30
0.0
 10
-24.1131
 20
-0.8223
 30
0.0
 10
-23.8648
 20
-0.8223
 30
0.0
 10
-23.8648
 20
-0.8223
 30
0.0
 10
-23.607
 20
-0.8223
 30
0.0
 10
-23.4015
 20
-0.85
 30
0.0
 10
-23.2481
 20
-0.906
 30
0.0
 10
-23.2481
 20
-0.906
 30
0.0
 10
-23.0952
 20
-0.9624
 30
0.0
 10
-22.9791
 20
-1.0457
 30
0.0
 10
-22.8991
 20
-1.1562
 30
0.0
 10
-22.8991
 20
-1.1562
 30
0.0
 10
-22.8191
 20
-1.2672
 30
0.0
 10
-22.7792
 20
-1.3966
 30
0.0
 10
-22.7792
 20
-1.5457
 30
0.0
 10
-22.7792
 20
-1.5457
 30
0.0
 10
-22.7792
 20
-1.7037
 30
0.0
 10
-22.8229
 20
-1.8326
 30
0.0
 10
-22.9109
 20
-1.9328
 30
0.0
 10
-22.9109
 20
-1.9328
 30
0.0
 10
-22.9984
 20
-2.033
 30
0.0
 10
-23.1216
 20
-2.0932
 30
0.0
 10
-23.2806
 20
-2.1134
 30
0.0
  0
SPLINE
  5
50
330
1F
100
AcDbEntity
  8
DEFAULT_1
 62
   250
100
AcDbSpline
210
0.0
220
0.0
230
1.0
 70
    11
 71
     3
 72
    36
 73
    32
 74
     0
 42
0.0000000001
 43
0.0000000001
 40
0.0
 40
0.0
 40
0.0
 40
0.0
 40
0.1111111111111111
 40
0.1111111111111111
 40
0.1111111111111111
 40
0.1111111111111111
 40
0.2222222222222222
 40
0.2222222222222222
 40
0.2222222222222222
 40
0.2222222222222222
 40
0.3333333333333333
 40
0.3333333333333333
 40
0.3333333333333333
 40
0.3333333333333333
 40
0.4444444444444444
 40
0.4444444444444444
 40
0.4444444444444444
 40
0.4444444444444444
 40
0.5555555555555556
 40
0.5555555555555556
 40
0.5555555555555556
 40
0.5555555555555556
 40
0.6666666666666666
 40
0.6666666666666666
 40
0.6666666666666666
 40
0.6666666666666666
 40
0.7777777777777778
 40
0.7777777777777778
 40
0.7777777777777778
 40
0.7777777777777778
 40
1.0
 40
1.0
 40
1.0
 40
1.0
 10
-24.1724
 20
-1.0979
 30
0.0
 10
-24.3144
 20
-1.0979
 30
0.0
 10
-24.4278
 20
-1.1355
 30
0.0
 10
-24.5111
 20
-1.2113
 30
0.0
 10
-24.5111
 20
-1.2113
 30
0.0
 10
-24.5948
 20
-1.2875
 30
0.0
 10
-24.6366
 20
-1.3782
 30
0.0
 10
-24.6366
 20
-1.485
 30
0.0
 10
-24.6366
 20
-1.485
 30
0.0
 10
-24.6366
 20
-1.5951
 30
0.0
 10
-24.5915
 20
-1.691
 30
0.0
 10
-24.5016
 20
-1.7729
 30
0.0
 10
-24.5016
 20
-1.7729
 30
0.0
 10
-24.4113
 20
-1.8547
 30
0.0
 10
-24.2947
 20
-1.8956
 30
0.0
 10
-24.1517
 20
-1.8956
 30
0.0
 10
-24.1517
 20
-1.8956
 30
0.0
 10
-24.0228
 20
-1.8956
 30
0.0
 10
-23.9184
 20
-1.8566
 30
0.0
 10
-23.838
 20
-1.779
 30
0.0
 10
-23.838
 20
-1.779
 30
0.0
 10
-23.7575
 20
-1.7014
 30
0.0
 10
-23.7175
 20
-1.6059
 30
0.0
 10
-23.7175
 20
-1.4921
 30
0.0
 10
-23.7175
 20
-1.4921
 30
0.0
 10
-23.7175
 20
-1.3768
 30
0.0
 10
-23.7575
 20
-1.2828
 30
0.0
 10
-23.838
 20
-1.2089
 30
0.0
 10
-23.838
 20
-1.2089
 30
0.0
 10
-23.9184
 20
-1.1346
 30
0.0
 10
-24.0299
 20
-1.0979
 30
0.0
 10
-24.1724
 20
-1.0979
 30
0.0
  0
SPLINE
  5
51
330
1F
100
AcDbEntity
  8
DEFAULT_1
 62
   250
100
AcDbSpline
210
0.0
220
0.0
230
1.0
 70
    11
 71
     3
 72
    20
 73
    16
 74
     0
 42
0.0000000001
 43
0.0000000001
 40
0.0
 40
0.0
 40
0.0
 40
0.0
 40
0.2
 40
0.2
 40
0.2
 40
0.2
 40
0.4
 40
0.4
 40
0.4
 40
0.4
 40
0.6
 40
0.6
 40
0.6
 40
0.6
 40
1.0
 40
1.0
 40
1.0
 40
1.0
 10
-22.8082
 20
1.8915
 30
0.0
 10
-22.8082
 20
1.8915
 30
0.0
 10
-22.4553
 20
4.3915
 30
0.0
 10
-22.4553
 20
4.3915
 30
0.0
 10
-22.4553
 20
4.3915
 30
0.0
 10
-22.4553
 20
4.3915
 30
0.0
 10
-22.377
 20
4.3915
 30
0.0
 10
-22.377
 20
4.3915
 30
0.0
 10
-22.377
 20
4.3915
 30
0.0
 10
-22.377
 20
4.3915
 30
0.0
 10
-22.0007
 20
1.8915
 30
0.0
 10
-22.0007
 20
1.8915
 30
0.0
 10
-22.0007
 20
1.8915
 30
0.0
 10
-22.0007
 20
1.8915
 30
0.0
 10
-22.8082
 20
1.8915
 30
0.0
 10
-22.8082
 20
1.8915
 30
0.0
  0
SPLINE
  5
52
330
1F
100
AcDbEntity
  8
DEFAULT_1
 62
   250
100
AcDbSpline
210
0.0
220
0.0
230
1.0
 70
    11
 71
     3
 72
    20
 73
    16
 74
     0
 42
0.0000000001
 43
0.0000000001
 40
0.0
 40
0.0
 40
0.0
 40
0.0
 40
0.2
 40
0.2
 40
0.2
 40
0.2
 40
0.4
 40
0.4
 40
0.4
 40
0.4
 40
0.6
 40
0.6
 40
0.6
 40
0.6
 40
1.0
 40
1.0
 40
1.0
 40
1.0
 10
-22.0613
 20
-6.0981
 30
0.0
 10
-22.0613
 20
-6.0981
 30
0.0
 10
-22.4142
 20
-8.5981
 30
0.0
 10
-22.4142
 20
-8.5981
 30
0.0
 10
-22.4142
 20
-8.5981
 30
0.0
 10
-22.4142
 20
-8.5981
 30
0.0
 10
-22.4925
 20
-8.5981
 30
0.0
 10
-22.4925
 20
-8.5981
 30
0.0
 10
-22.4925
 20
-8.5981
 30
0.0
 10
-22.4925
 20
-8.5981
 30
0.0
 10
-22.8688
 20
-6.0981
 30
0.0
 10
-22.8688
 20
-6.0981
 30
0.0
 10
-22.8688
 20
-6.0981
 30
0.0
 10
-22.8688
 20
-6.0981
 30
0.0
 10
-22.0613
 20
-6.0981
 30
0.0
 10
-22.0613
 20
-6.0981
 30
0.0
  0
SPLINE
  5
53
330
1F
100
AcDbEntity
  8
DEFAULT_1
 62
   250
100
AcDbSpline
210
0.0
220
0.0
230
1.0
 70
    11
 71
     3
 72
    84
 73
    80
 74
     0
 42
0.0000000001
 43
0.0000000001
 40
0.0
 40
0.0
 40
0.0
 40
0.0
 40
0.0476190476190476
 40
0.0476190476190476
 40
0.0476190476190476
 40
0.0476190476190476
 40
0.0952380952380952
 40
0.0952380952380952
 40
0.0952380952380952
 40
0.0952380952380952
 40
0.1428571428571428
 40
0.1428571428571428
 40
0.1428571428571428
 40
0.1428571428571428
 40
0.1904761904761905
 40
0.1904761904761905
 40
0.1904761904761905
 40
0.1904761904761905
 40
0.2380952380952381
 40
0.2380952380952381
 40
0.2380952380952381
 40
0.2380952380952381
 40
0.2857142857142857
 40
0.2857142857142857
 40
0.2857142857142857
 40
0.2857142857142857
 40
0.3333333333333333
 40
0.3333333333333333
 40
0.3333333333333333
 40
0.3333333333333333
 40
0.3809523809523809
 40
0.3809523809523809
 40
0.3809523809523809
 40
0.3809523809523809
 40
0.4285714285714285
 40
0.4285714285714285
 40
0.4285714285714285
 40
0.4285714285714285
 40
0.4761904761904762
 40
0.4761904761904762
 40
0.4761904761904762
 40
0.4761904761904762
 40
0.5238095238095238
 40
0.5238095238095238
 40
0.5238095238095238
 40
0.5238095238095238
 40
0.5714285714285714
 40
0.5714285714285714
 40
0.5714285714285714
 40
0.5714285714285714
 40
0.6190476190476191
 40
0.6190476190476191
 40
0.6190476190476191
 40
0.6190476190476191
 40
0.6666666666666666
 40
0.6666666666666666
 40
0.6666666666666666
 40
0.6666666666666666
 40
0.7142857142857143
 40
0.7142857142857143
 40
0.7142857142857143
 40
0.7142857142857143
 40
0.7619047619047619
 40
0.7619047619047619
 40
0.7619047619047619
 40
0.7619047619047619
 40
0.8095238095238095
 40
0.8095238095238095
 40
0.8095238095238095
 40
0.8095238095238095
 40
0.8571428571428571
 40
0.8571428571428571
 40
0.8571428571428571
 40
0.8571428571428571
 40
0.9047619047619048
 40
0.9047619047619048
 40
0.9047619047619048
 40
0.9047619047619048
 40
1.0
 40
1.0
 40
1.0
 40
1.0
 10
-1.7605
 20
12.7833
 30
0.0
 10
-1.7605
 20
12.7833
 30
0.0
 10
-1.5291
 20
13.0424
 30
0.0
 10
-1.5291
 20
13.0424
 30
0.0
 10
-1.5291
 20
13.0424
 30
0.0
 10
-1.5291
 20
13.0424
 30
0.0
 10
-1.3927
 20
12.9267
 30
0.0
 10
-1.3927
 20
12.9267
 30
0.0
 10
-1.3927
 20
12.9267
 30
0.0
 10
-1.3927
 20
12.9267
 30
0.0
 10
-1.6349
 20
12.6539
 30
0.0
 10
-1.6349
 20
12.6539
 30
0.0
 10
-1.6349
 20
12.6539
 30
0.0
 10
-1.5559
 20
12.5363
 30
0.0
 10
-1.5028
 20
12.4333
 30
0.0
 10
-1.475
 20
12.3454
 30
0.0
 10
-1.475
 20
12.3454
 30
0.0
 10
-1.4383
 20
12.2296
 30
0.0
 10
-1.42
 20
12.0998
 30
0.0
 10
-1.42
 20
11.9568
 30
0.0
 10
-1.42
 20
11.9568
 30
0.0
 10
-1.42
 20
11.7499
 30
0.0
 10
-1.4618
 20
11.5655
 30
0.0
 10
-1.5456
 20
11.4042
 30
0.0
 10
-1.5456
 20
11.4042
 30
0.0
 10
-1.6293
 20
11.2423
 30
0.0
 10
-1.7464
 20
11.1201
 30
0.0
 10
-1.8974
 20
11.0373
 30
0.0
 10
-1.8974
 20
11.0373
 30
0.0
 10
-2.0489
 20
10.955
 30
0.0
 10
-2.2092
 20
10.9136
 30
0.0
 10
-2.379
 20
10.9136
 30
0.0
 10
-2.379
 20
10.9136
 30
0.0
 10
-2.506
 20
10.9136
 30
0.0
 10
-2.6208
 20
10.9314
 30
0.0
 10
-2.7238
 20
10.9672
 30
0.0
 10
-2.7238
 20
10.9672
 30
0.0
 10
-2.8028
 20
10.9949
 30
0.0
 10
-2.895
 20
11.0476
 30
0.0
 10
-3.0009
 20
11.1257
 30
0.0
 10
-3.0009
 20
11.1257
 30
0.0
 10
-3.0009
 20
11.1257
 30
0.0
 10
-3.2323
 20
10.8665
 30
0.0
 10
-3.2323
 20
10.8665
 30
0.0
 10
-3.2323
 20
10.8665
 30
0.0
 10
-3.2323
 20
10.8665
 30
0.0
 10
-3.3687
 20
10.9822
 30
0.0
 10
-3.3687
 20
10.9822
 30
0.0
 10
-3.3687
 20
10.9822
 30
0.0
 10
-3.3687
 20
10.9822
 30
0.0
 10
-3.126
 20
11.2536
 30
0.0
 10
-3.126
 20
11.2536
 30
0.0
 10
-3.126
 20
11.2536
 30
0.0
 10
-3.2163
 20
11.3905
 30
0.0
 10
-3.2765
 20
11.5076
 30
0.0
 10
-3.3066
 20
11.6045
 30
0.0
 10
-3.3066
 20
11.6045
 30
0.0
 10
-3.3367
 20
11.7014
 30
0.0
 10
-3.3522
 20
11.8181
 30
0.0
 10
-3.3522
 20
11.954
 30
0.0
 10
-3.3522
 20
11.954
 30
0.0
 10
-3.3522
 20
12.1614
 30
0.0
 10
-3.3108
 20
12.3463
 30
0.0
 10
-3.2281
 20
12.5086
 30
0.0
 10
-3.2281
 20
12.5086
 30
0.0
 10
-3.1453
 20
12.6709
 30
0.0
 10
-3.0296
 20
12.7936
 30
0.0
 10
-2.88
 20
12.8773
 30
0.0
 10
-2.88
 20
12.8773
 30
0.0
 10
-2.7309
 20
12.9606
 30
0.0
 10
-2.5648
 20
13.0025
 30
0.0
 10
-2.3819
 20
13.0025
 30
0.0
 10
-2.3819
 20
13.0025
 30
0.0
 10
-2.2586
 20
13.0025
 30
0.0
 10
-2.1509
 20
12.9865
 30
0.0
 10
-2.0587
 20
12.9535
 30
0.0
 10
-2.0587
 20
12.9535
 30
0.0
 10
-1.9665
 20
12.9211
 30
0.0
 10
-1.8668
 20
12.8642
 30
0.0
 10
-1.7605
 20
12.7833
 30
0.0
  0
SPLINE
  5
54
330
1F
100
AcDbEntity
  8
DEFAULT_1
 62
   250
100
AcDbSpline
210
0.0
220
0.0
230
1.0
 70
    11
 71
     3
 72
    32
 73
    28
 74
     0
 42
0.0000000001
 43
0.0000000001
 40
0.0
 40
0.0
 40
0.0
 40
0.0
 40
0.125
 40
0.125
 40
0.125
 40
0.125
 40
0.25
 40
0.25
 40
0.25
 40
0.25
 40
0.375
 40
0.375
 40
0.375
 40
0.375
 40
0.5
 40
0.5
 40
0.5
 40
0.5
 40
0.625
 40
0.625
 40
0.625
 40
0.625
 40
0.75
 40
0.75
 40
0.75
 40
0.75
 40
1.0
 40
1.0
 40
1.0
 40
1.0
 10
-1.9256
 20
12.5975
 30
0.0
 10
-2.0122
 20
12.6652
 30
0.0
 10
-2.0879
 20
12.7118
 30
0.0
 10
-2.1523
 20
12.7367
 30
0.0
 10
-2.1523
 20
12.7367
 30
0.0
 10
-2.2172
 20
12.7612
 30
0.0
 10
-2.2934
 20
12.7739
 30
0.0
 10
-2.3805
 20
12.7739
 30
0.0
 10
-2.3805
 20
12.7739
 30
0.0
 10
-2.5818
 20
12.7739
 30
0.0
 10
-2.7478
 20
12.7057
 30
0.0
 10
-2.8795
 20
12.5693
 30
0.0
 10
-2.8795
 20
12.5693
 30
0.0
 10
-3.0108
 20
12.4328
 30
0.0
 10
-3.0766
 20
12.2292
 30
0.0
 10
-3.0766
 20
11.9578
 30
0.0
 10
-3.0766
 20
11.9578
 30
0.0
 10
-3.0766
 20
11.8515
 30
0.0
 10
-3.0663
 20
11.7569
 30
0.0
 10
-3.046
 20
11.6741
 30
0.0
 10
-3.046
 20
11.6741
 30
0.0
 10
-3.0314
 20
11.6125
 30
0.0
 10
-3.0009
 20
11.5368
 30
0.0
 10
-2.9538
 20
11.447
 30
0.0
 10
-2.9538
 20
11.447
 30
0.0
 10
-2.9538
 20
11.447
 30
0.0
 10
-1.9256
 20
12.5975
 30
0.0
 10
-1.9256
 20
12.5975
 30
0.0
  0
SPLINE
  5
55
330
1F
100
AcDbEntity
  8
DEFAULT_1
 62
   250
100
AcDbSpline
210
0.0
220
0.0
230
1.0
 70
    11
 71
     3
 72
    28
 73
    24
 74
     0
 42
0.0000000001
 43
0.0000000001
 40
0.0
 40
0.0
 40
0.0
 40
0.0
 40
0.1428571428571428
 40
0.1428571428571428
 40
0.1428571428571428
 40
0.1428571428571428
 40
0.2857142857142857
 40
0.2857142857142857
 40
0.2857142857142857
 40
0.2857142857142857
 40
0.4285714285714285
 40
0.4285714285714285
 40
0.4285714285714285
 40
0.4285714285714285
 40
0.5714285714285714
 40
0.5714285714285714
 40
0.5714285714285714
 40
0.5714285714285714
 40
0.7142857142857143
 40
0.7142857142857143
 40
0.7142857142857143
 40
0.7142857142857143
 40
1.0
 40
1.0
 40
1.0
 40
1.0
 10
-1.8127
 20
12.4554
 30
0.0
 10
-1.8127
 20
12.4554
 30
0.0
 10
-2.8367
 20
11.3091
 30
0.0
 10
-2.8367
 20
11.3091
 30
0.0
 10
-2.8367
 20
11.3091
 30
0.0
 10
-2.7662
 20
11.2513
 30
0.0
 10
-2.7008
 20
11.2108
 30
0.0
 10
-2.641
 20
11.1878
 30
0.0
 10
-2.641
 20
11.1878
 30
0.0
 10
-2.563
 20
11.1572
 30
0.0
 10
-2.4783
 20
11.1422
 30
0.0
 10
-2.3875
 20
11.1422
 30
0.0
 10
-2.3875
 20
11.1422
 30
0.0
 10
-2.1871
 20
11.1422
 30
0.0
 10
-2.022
 20
11.2127
 30
0.0
 10
-1.8913
 20
11.3543
 30
0.0
 10
-1.8913
 20
11.3543
 30
0.0
 10
-1.761
 20
11.4959
 30
0.0
 10
-1.6956
 20
11.6944
 30
0.0
 10
-1.6956
 20
11.9498
 30
0.0
 10
-1.6956
 20
11.9498
 30
0.0
 10
-1.6956
 20
12.1407
 30
0.0
 10
-1.7346
 20
12.3096
 30
0.0
 10
-1.8127
 20
12.4554
 30
0.0
  0
SPLINE
  5
56
330
1F
100
AcDbEntity
  8
DEFAULT_1
 62
   250
100
AcDbSpline
210
0.0
220
0.0
230
1.0
 70
    11
 71
     3
 72
    92
 73
    88
 74
     0
 42
0.0000000001
 43
0.0000000001
 40
0.0
 40
0.0
 40
0.0
 40
0.0
 40
0.0434782608695652
 40
0.0434782608695652
 40
0.0434782608695652
 40
0.0434782608695652
 40
0.0869565217391304
 40
0.0869565217391304
 40
0.0869565217391304
 40
0.0869565217391304
 40
0.1304347826086956
 40
0.1304347826086956
 40
0.1304347826086956
 40
0.1304347826086956
 40
0.1739130434782609
 40
0.1739130434782609
 40
0.1739130434782609
 40
0.1739130434782609
 40
0.2173913043478261
 40
0.2173913043478261
 40
0.2173913043478261
 40
0.2173913043478261
 40
0.2608695652173913
 40
0.2608695652173913
 40
0.2608695652173913
 40
0.2608695652173913
 40
0.3043478260869565
 40
0.3043478260869565
 40
0.3043478260869565
 40
0.3043478260869565
 40
0.3478260869565217
 40
0.3478260869565217
 40
0.3478260869565217
 40
0.3478260869565217
 40
0.391304347826087
 40
0.391304347826087
 40
0.391304347826087
 40
0.391304347826087
 40
0.4347826086956522
 40
0.4347826086956522
 40
0.4347826086956522
 40
0.4347826086956522
 40
0.4782608695652174
 40
0.4782608695652174
 40
0.4782608695652174
 40
0.4782608695652174
 40
0.5217391304347826
 40
0.5217391304347826
 40
0.5217391304347826
 40
0.5217391304347826
 40
0.5652173913043478
 40
0.5652173913043478
 40
0.5652173913043478
 40
0.5652173913043478
 40
0.6086956521739131
 40
0.6086956521739131
 40
0.6086956521739131
 40
0.6086956521739131
 40
0.6521739130434783
 40
0.6521739130434783
 40
0.6521739130434783
 40
0.6521739130434783
 40
0.6956521739130435
 40
0.6956521739130435
 40
0.6956521739130435
 40
0.6956521739130435
 40
0.7391304347826086
 40
0.7391304347826086
 40
0.7391304347826086
 40
0.7391304347826086
 40
0.782608695652174
 40
0.782608695652174
 40
0.782608695652174
 40
0.782608695652174
 40
0.8260869565217391
 40
0.8260869565217391
 40
0.8260869565217391
 40
0.8260869565217391
 40
0.8695652173913043
 40
0.8695652173913043
 40
0.8695652173913043
 40
0.8695652173913043
 40
0.9130434782608695
 40
0.9130434782608695
 40
0.9130434782608695
 40
0.9130434782608695
 40
1.0
 40
1.0
 40
1.0
 40
1.0
 10
0.1332
 20
11.1864
 30
0.0
 10
0.1332
 20
11.1864
 30
0.0
 10
0.1332
 20
10.9479
 30
0.0
 10
0.1332
 20
10.9479
 30
0.0
 10
0.1332
 20
10.9479
 30
0.0
 10
0.1332
 20
10.9479
 30
0.0
 10
-1.2022
 20
10.9479
 30
0.0
 10
-1.2022
 20
10.9479
 30
0.0
 10
-1.2022
 20
10.9479
 30
0.0
 10
-1.2041
 20
11.0076
 30
0.0
 10
-1.1947
 20
11.065
 30
0.0
 10
-1.1735
 20
11.1201
 30
0.0
 10
-1.1735
 20
11.1201
 30
0.0
 10
-1.1396
 20
11.2113
 30
0.0
 10
-1.0851
 20
11.3007
 30
0.0
 10
-1.0103
 20
11.3891
 30
0.0
 10
-1.0103
 20
11.3891
 30
0.0
 10
-0.935
 20
11.4771
 30
0.0
 10
-0.8268
 20
11.5791
 30
0.0
 10
-0.6857
 20
11.6948
 30
0.0
 10
-0.6857
 20
11.6948
 30
0.0
 10
-0.4661
 20
11.875
 30
0.0
 10
-0.3174
 20
12.0175
 30
0.0
 10
-0.2403
 20
12.1229
 30
0.0
 10
-0.2403
 20
12.1229
 30
0.0
 10
-0.1632
 20
12.2278
 30
0.0
 10
-0.1246
 20
12.3275
 30
0.0
 10
-0.1246
 20
12.4211
 30
0.0
 10
-0.1246
 20
12.4211
 30
0.0
 10
-0.1246
 20
12.5194
 30
0.0
 10
-0.1599
 20
12.6022
 30
0.0
 10
-0.2299
 20
12.6699
 30
0.0
 10
-0.2299
 20
12.6699
 30
0.0
 10
-0.3005
 20
12.7372
 30
0.0
 10
-0.3922
 20
12.771
 30
0.0
 10
-0.5051
 20
12.771
 30
0.0
 10
-0.5051
 20
12.771
 30
0.0
 10
-0.6246
 20
12.771
 30
0.0
 10
-0.7201
 20
12.7353
 30
0.0
 10
-0.7916
 20
12.6633
 30
0.0
 10
-0.7916
 20
12.6633
 30
0.0
 10
-0.8635
 20
12.5918
 30
0.0
 10
-0.8997
 20
12.4926
 30
0.0
 10
-0.9007
 20
12.3661
 30
0.0
 10
-0.9007
 20
12.3661
 30
0.0
 10
-0.9007
 20
12.3661
 30
0.0
 10
-1.1556
 20
12.3919
 30
0.0
 10
-1.1556
 20
12.3919
 30
0.0
 10
-1.1556
 20
12.3919
 30
0.0
 10
-1.1382
 20
12.5824
 30
0.0
 10
-1.0724
 20
12.7273
 30
0.0
 10
-0.9585
 20
12.827
 30
0.0
 10
-0.9585
 20
12.827
 30
0.0
 10
-0.8447
 20
12.9267
 30
0.0
 10
-0.6914
 20
12.9766
 30
0.0
 10
-0.4995
 20
12.9766
 30
0.0
 10
-0.4995
 20
12.9766
 30
0.0
 10
-0.3057
 20
12.9766
 30
0.0
 10
-0.1523
 20
12.9225
 30
0.0
 10
-0.0394
 20
12.8153
 30
0.0
 10
-0.0394
 20
12.8153
 30
0.0
 10
0.0739
 20
12.7075
 30
0.0
 10
0.1304
 20
12.5744
 30
0.0
 10
0.1304
 20
12.4154
 30
0.0
 10
0.1304
 20
12.4154
 30
0.0
 10
0.1304
 20
12.3345
 30
0.0
 10
0.1139
 20
12.255
 30
0.0
 10
0.0805
 20
12.177
 30
0.0
 10
0.0805
 20
12.177
 30
0.0
 10
0.0476
 20
12.0989
 30
0.0
 10
-0.0075
 20
12.0166
 30
0.0
 10
-0.0841
 20
11.9305
 30
0.0
 10
-0.0841
 20
11.9305
 30
0.0
 10
-0.1608
 20
11.8439
 30
0.0
 10
-0.2883
 20
11.7254
 30
0.0
 10
-0.4665
 20
11.5749
 30
0.0
 10
-0.4665
 20
11.5749
 30
0.0
 10
-0.6152
 20
11.4498
 30
0.0
 10
-0.7107
 20
11.3651
 30
0.0
 10
-0.753
 20
11.3204
 30
0.0
 10
-0.753
 20
11.3204
 30
0.0
 10
-0.7953
 20
11.2762
 30
0.0
 10
-0.8301
 20
11.2315
 30
0.0
 10
-0.8579
 20
11.1864
 30
0.0
 10
-0.8579
 20
11.1864
 30
0.0
 10
-0.8579
 20
11.1864
 30
0.0
 10
0.1332
 20
11.1864
 30
0.0
 10
0.1332
 20
11.1864
 30
0.0
  0
SPLINE
  5
57
330
1F
100
AcDbEntity
  8
DEFAULT_1
 62
   250
100
AcDbSpline
210
0.0
220
0.0
230
1.0
 70
    11
 71
     3
 72
    92
 73
    88
 74
     0
 42
0.0000000001
 43
0.0000000001
 40
0.0
 40
0.0
 40
0.0
 40
0.0
 40
0.0434782608695652
 40
0.0434782608695652
 40
0.0434782608695652
 40
0.0434782608695652
 40
0.0869565217391304
 40
0.0869565217391304
 40
0.0869565217391304
 40
0.0869565217391304
 40
0.1304347826086956
 40
0.1304347826086956
 40
0.1304347826086956
 40
0.1304347826086956
 40
0.1739130434782609
 40
0.1739130434782609
 40
0.1739130434782609
 40
0.1739130434782609
 40
0.2173913043478261
 40
0.2173913043478261
 40
0.2173913043478261
 40
0.2173913043478261
 40
0.2608695652173913
 40
0.2608695652173913
 40
0.2608695652173913
 40
0.2608695652173913
 40
0.3043478260869565
 40
0.3043478260869565
 40
0.3043478260869565
 40
0.3043478260869565
 40
0.3478260869565217
 40
0.3478260869565217
 40
0.3478260869565217
 40
0.3478260869565217
 40
0.391304347826087
 40
0.391304347826087
 40
0.391304347826087
 40
0.391304347826087
 40
0.4347826086956522
 40
0.4347826086956522
 40
0.4347826086956522
 40
0.4347826086956522
 40
0.4782608695652174
 40
0.4782608695652174
 40
0.4782608695652174
 40
0.4782608695652174
 40
0.5217391304347826
 40
0.5217391304347826
 40
0.5217391304347826
 40
0.5217391304347826
 40
0.5652173913043478
 40
0.5652173913043478
 40
0.5652173913043478
 40
0.5652173913043478
 40
0.6086956521739131
 40
0.6086956521739131
 40
0.6086956521739131
 40
0.6086956521739131
 40
0.6521739130434783
 40
0.6521739130434783
 40
0.6521739130434783
 40
0.6521739130434783
 40
0.6956521739130435
 40
0.6956521739130435
 40
0.6956521739130435
 40
0.6956521739130435
 40
0.7391304347826086
 40
0.7391304347826086
 40
0.7391304347826086
 40
0.7391304347826086
 40
0.782608695652174
 40
0.782608695652174
 40
0.782608695652174
 40
0.782608695652174
 40
0.8260869565217391
 40
0.8260869565217391
 40
0.8260869565217391
 40
0.8260869565217391
 40
0.8695652173913043
 40
0.8695652173913043
 40
0.8695652173913043
 40
0.8695652173913043
 40
0.9130434782608695
 40
0.9130434782608695
 40
0.9130434782608695
 40
0.9130434782608695
 40
1.0
 40
1.0
 40
1.0
 40
1.0
 10
1.7028
 20
11.1864
 30
0.0
 10
1.7028
 20
11.1864
 30
0.0
 10
1.7028
 20
10.9479
 30
0.0
 10
1.7028
 20
10.9479
 30
0.0
 10
1.7028
 20
10.9479
 30
0.0
 10
1.7028
 20
10.9479
 30
0.0
 10
0.3674
 20
10.9479
 30
0.0
 10
0.3674
 20
10.9479
 30
0.0
 10
0.3674
 20
10.9479
 30
0.0
 10
0.3655
 20
11.0076
 30
0.0
 10
0.3749
 20
11.065
 30
0.0
 10
0.3961
 20
11.1201
 30
0.0
 10
0.3961
 20
11.1201
 30
0.0
 10
0.43
 20
11.2113
 30
0.0
 10
0.4845
 20
11.3007
 30
0.0
 10
0.5593
 20
11.3891
 30
0.0
 10
0.5593
 20
11.3891
 30
0.0
 10
0.6346
 20
11.4771
 30
0.0
 10
0.7428
 20
11.5791
 30
0.0
 10
0.8839
 20
11.6948
 30
0.0
 10
0.8839
 20
11.6948
 30
0.0
 10
1.1035
 20
11.875
 30
0.0
 10
1.2522
 20
12.0175
 30
0.0
 10
1.3293
 20
12.1229
 30
0.0
 10
1.3293
 20
12.1229
 30
0.0
 10
1.4064
 20
12.2278
 30
0.0
 10
1.445
 20
12.3275
 30
0.0
 10
1.445
 20
12.4211
 30
0.0
 10
1.445
 20
12.4211
 30
0.0
 10
1.445
 20
12.5194
 30
0.0
 10
1.4097
 20
12.6022
 30
0.0
 10
1.3397
 20
12.6699
 30
0.0
 10
1.3397
 20
12.6699
 30
0.0
 10
1.2691
 20
12.7372
 30
0.0
 10
1.1774
 20
12.771
 30
0.0
 10
1.0645
 20
12.771
 30
0.0
 10
1.0645
 20
12.771
 30
0.0
 10
0.945
 20
12.771
 30
0.0
 10
0.8495
 20
12.7353
 30
0.0
 10
0.778
 20
12.6633
 30
0.0
 10
0.778
 20
12.6633
 30
0.0
 10
0.7061
 20
12.5918
 30
0.0
 10
0.6699
 20
12.4926
 30
0.0
 10
0.6689
 20
12.3661
 30
0.0
 10
0.6689
 20
12.3661
 30
0.0
 10
0.6689
 20
12.3661
 30
0.0
 10
0.414
 20
12.3919
 30
0.0
 10
0.414
 20
12.3919
 30
0.0
 10
0.414
 20
12.3919
 30
0.0
 10
0.4314
 20
12.5824
 30
0.0
 10
0.4972
 20
12.7273
 30
0.0
 10
0.6111
 20
12.827
 30
0.0
 10
0.6111
 20
12.827
 30
0.0
 10
0.7249
 20
12.9267
 30
0.0
 10
0.8782
 20
12.9766
 30
0.0
 10
1.0701
 20
12.9766
 30
0.0
 10
1.0701
 20
12.9766
 30
0.0
 10
1.2639
 20
12.9766
 30
0.0
 10
1.4173
 20
12.9225
 30
0.0
 10
1.5302
 20
12.8153
 30
0.0
 10
1.5302
 20
12.8153
 30
0.0
 10
1.6435
 20
12.7075
 30
0.0
 10
1.7
 20
12.5744
 30
0.0
 10
1.7
 20
12.4154
 30
0.0
 10
1.7
 20
12.4154
 30
0.0
 10
1.7
 20
12.3345
 30
0.0
 10
1.6835
 20
12.255
 30
0.0
 10
1.6501
 20
12.177
 30
0.0
 10
1.6501
 20
12.177
 30
0.0
 10
1.6172
 20
12.0989
 30
0.0
 10
1.5621
 20
12.0166
 30
0.0
 10
1.4855
 20
11.9305
 30
0.0
 10
1.4855
 20
11.9305
 30
0.0
 10
1.4088
 20
11.8439
 30
0.0
 10
1.2813
 20
11.7254
 30
0.0
 10
1.1031
 20
11.5749
 30
0.0
 10
1.1031
 20
11.5749
 30
0.0
 10
0.9544
 20
11.4498
 30
0.0
 10
0.8589
 20
11.3651
 30
0.0
 10
0.8166
 20
11.3204
 30
0.0
 10
0.8166
 20
11.3204
 30
0.0
 10
0.7743
 20
11.2762
 30
0.0
 10
0.7395
 20
11.2315
 30
0.0
 10
0.7117
 20
11.1864
 30
0.0
 10
0.7117
 20
11.1864
 30
0.0
 10
0.7117
 20
11.1864
 30
0.0
 10
1.7028
 20
11.1864
 30
0.0
 10
1.7028
 20
11.1864
 30
0.0
  0
SPLINE
  5
58
330
1F
100
AcDbEntity
  8
DEFAULT_1
 62
   250
100
AcDbSpline
210
0.0
220
0.0
230
1.0
 70
    11
 71
     3
 72
    52
 73
    48
 74
     0
 42
0.0000000001
 43
0.0000000001
 40
0.0
 40
0.0
 40
0.0
 40
0.0
 40
0.0769230769230769
 40
0.0769230769230769
 40
0.0769230769230769
 40
0.0769230769230769
 40
0.1538461538461539
 40
0.1538461538461539
 40
0.1538461538461539
 40
0.1538461538461539
 40
0.2307692307692308
 40
0.2307692307692308
 40
0.2307692307692308
 40
0.2307692307692308
 40
0.3076923076923077
 40
0.3076923076923077
 40
0.3076923076923077
 40
0.3076923076923077
 40
0.3846153846153846
 40
0.3846153846153846
 40
0.3846153846153846
 40
0.3846153846153846
 40
0.4615384615384616
 40
0.4615384615384616
 40
0.4615384615384616
 40
0.4615384615384616
 40
0.5384615384615384
 40
0.5384615384615384
 40
0.5384615384615384
 40
0.5384615384615384
 40
0.6153846153846154
 40
0.6153846153846154
 40
0.6153846153846154
 40
0.6153846153846154
 40
0.6923076923076923
 40
0.6923076923076923
 40
0.6923076923076923
 40
0.6923076923076923
 40
0.7692307692307693
 40
0.7692307692307693
 40
0.7692307692307693
 40
0.7692307692307693
 40
0.8461538461538461
 40
0.8461538461538461
 40
0.8461538461538461
 40
0.8461538461538461
 40
1.0
 40
1.0
 40
1.0
 40
1.0
 10
1.9685
 20
11.9441
 30
0.0
 10
1.9685
 20
12.1831
 30
0.0
 10
1.993
 20
12.3755
 30
0.0
 10
2.0424
 20
12.5208
 30
0.0
 10
2.0424
 20
12.5208
 30
0.0
 10
2.0913
 20
12.6666
 30
0.0
 10
2.1647
 20
12.779
 30
0.0
 10
2.2616
 20
12.8581
 30
0.0
 10
2.2616
 20
12.8581
 30
0.0
 10
2.3585
 20
12.9371
 30
0.0
 10
2.4803
 20
12.9766
 30
0.0
 10
2.627
 20
12.9766
 30
0.0
 10
2.627
 20
12.9766
 30
0.0
 10
2.7357
 20
12.9766
 30
0.0
 10
2.8307
 20
12.9545
 30
0.0
 10
2.9125
 20
12.9107
 30
0.0
 10
2.9125
 20
12.9107
 30
0.0
 10
2.9944
 20
12.8675
 30
0.0
 10
3.0617
 20
12.8044
 30
0.0
 10
3.1153
 20
12.7221
 30
0.0
 10
3.1153
 20
12.7221
 30
0.0
 10
3.1684
 20
12.6398
 30
0.0
 10
3.2103
 20
12.5396
 30
0.0
 10
3.2404
 20
12.4216
 30
0.0
 10
3.2404
 20
12.4216
 30
0.0
 10
3.271
 20
12.3035
 30
0.0
 10
3.286
 20
12.1445
 30
0.0
 10
3.286
 20
11.9441
 30
0.0
 10
3.286
 20
11.9441
 30
0.0
 10
3.286
 20
11.7071
 30
0.0
 10
3.2616
 20
11.5161
 30
0.0
 10
3.2131
 20
11.3703
 30
0.0
 10
3.2131
 20
11.3703
 30
0.0
 10
3.1642
 20
11.2245
 30
0.0
 10
3.0913
 20
11.1121
 30
0.0
 10
2.9944
 20
11.0326
 30
0.0
 10
2.9944
 20
11.0326
 30
0.0
 10
2.8975
 20
10.9531
 30
0.0
 10
2.7752
 20
10.9136
 30
0.0
 10
2.627
 20
10.9136
 30
0.0
 10
2.627
 20
10.9136
 30
0.0
 10
2.4323
 20
10.9136
 30
0.0
 10
2.2794
 20
10.9832
 30
0.0
 10
2.1684
 20
11.1229
 30
0.0
 10
2.1684
 20
11.1229
 30
0.0
 10
2.0353
 20
11.2908
 30
0.0
 10
1.9685
 20
11.565
 30
0.0
 10
1.9685
 20
11.9441
 30
0.0
  0
SPLINE
  5
59
330
1F
100
AcDbEntity
  8
DEFAULT_1
 62
   250
100
AcDbSpline
210
0.0
220
0.0
230
1.0
 70
    11
 71
     3
 72
    36
 73
    32
 74
     0
 42
0.0000000001
 43
0.0000000001
 40
0.0
 40
0.0
 40
0.0
 40
0.0
 40
0.1111111111111111
 40
0.1111111111111111
 40
0.1111111111111111
 40
0.1111111111111111
 40
0.2222222222222222
 40
0.2222222222222222
 40
0.2222222222222222
 40
0.2222222222222222
 40
0.3333333333333333
 40
0.3333333333333333
 40
0.3333333333333333
 40
0.3333333333333333
 40
0.4444444444444444
 40
0.4444444444444444
 40
0.4444444444444444
 40
0.4444444444444444
 40
0.5555555555555556
 40
0.5555555555555556
 40
0.5555555555555556
 40
0.5555555555555556
 40
0.6666666666666666
 40
0.6666666666666666
 40
0.6666666666666666
 40
0.6666666666666666
 40
0.7777777777777778
 40
0.7777777777777778
 40
0.7777777777777778
 40
0.7777777777777778
 40
1.0
 40
1.0
 40
1.0
 40
1.0
 10
2.2235
 20
11.9441
 30
0.0
 10
2.2235
 20
11.6125
 30
0.0
 10
2.2625
 20
11.3919
 30
0.0
 10
2.3401
 20
11.2819
 30
0.0
 10
2.3401
 20
11.2819
 30
0.0
 10
2.4177
 20
11.1723
 30
0.0
 10
2.5132
 20
11.1172
 30
0.0
 10
2.627
 20
11.1172
 30
0.0
 10
2.627
 20
11.1172
 30
0.0
 10
2.7413
 20
11.1172
 30
0.0
 10
2.8368
 20
11.1727
 30
0.0
 10
2.9144
 20
11.2828
 30
0.0
 10
2.9144
 20
11.2828
 30
0.0
 10
2.992
 20
11.3929
 30
0.0
 10
3.0311
 20
11.6135
 30
0.0
 10
3.0311
 20
11.9441
 30
0.0
 10
3.0311
 20
11.9441
 30
0.0
 10
3.0311
 20
12.2767
 30
0.0
 10
2.992
 20
12.4978
 30
0.0
 10
2.9144
 20
12.6069
 30
0.0
 10
2.9144
 20
12.6069
 30
0.0
 10
2.8368
 20
12.7165
 30
0.0
 10
2.7404
 20
12.771
 30
0.0
 10
2.6247
 20
12.771
 30
0.0
 10
2.6247
 20
12.771
 30
0.0
 10
2.5104
 20
12.771
 30
0.0
 10
2.4196
 20
12.7226
 30
0.0
 10
2.3514
 20
12.6262
 30
0.0
 10
2.3514
 20
12.6262
 30
0.0
 10
2.2663
 20
12.5034
 30
0.0
 10
2.2235
 20
12.2757
 30
0.0
 10
2.2235
 20
11.9441
 30
0.0
  0
SPLINE
  5
5A
330
1F
100
AcDbEntity
  8
DEFAULT_1
 62
   250
100
AcDbSpline
210
0.0
220
0.0
230
1.0
 70
    11
 71
     3
 72
    20
 73
    16
 74
     0
 42
0.0000000001
 43
0.0000000001
 40
0.0
 40
0.0
 40
0.0
 40
0.0
 40
0.2
 40
0.2
 40
0.2
 40
0.2
 40
0.4
 40
0.4
 40
0.4
 40
0.4
 40
0.6
 40
0.6
 40
0.6
 40
0.6
 40
1.0
 40
1.0
 40
1.0
 40
1.0
 10
15.5073
 20
10.8406
 30
0.0
 10
15.5073
 20
10.8406
 30
0.0
 10
18.0073
 20
10.4877
 30
0.0
 10
18.0073
 20
10.4877
 30
0.0
 10
18.0073
 20
10.4877
 30
0.0
 10
18.0073
 20
10.4877
 30
0.0
 10
18.0073
 20
10.4094
 30
0.0
 10
18.0073
 20
10.4094
 30
0.0
 10
18.0073
 20
10.4094
 30
0.0
 10
18.0073
 20
10.4094
 30
0.0
 10
15.5073
 20
10.0331
 30
0.0
 10
15.5073
 20
10.0331
 30
0.0
 10
15.5073
 20
10.0331
 30
0.0
 10
15.5073
 20
10.0331
 30
0.0
 10
15.5073
 20
10.8406
 30
0.0
 10
15.5073
 20
10.8406
 30
0.0
  0
SPLINE
  5
5B
330
1F
100
AcDbEntity
  8
DEFAULT_1
 62
   250
100
AcDbSpline
210
0.0
220
0.0
230
1.0
 70
    11
 71
     3
 72
    20
 73
    16
 74
     0
 42
0.0000000001
 43
0.0000000001
 40
0.0
 40
0.0
 40
0.0
 40
0.0
 40
0.2
 40
0.2
 40
0.2
 40
0.2
 40
0.4
 40
0.4
 40
0.4
 40
0.4
 40
0.6
 40
0.6
 40
0.6
 40
0.6
 40
1.0
 40
1.0
 40
1.0
 40
1.0
 10
-16.1162
 20
10.0922
 30
0.0
 10
-16.1162
 20
10.0922
 30
0.0
 10
-18.6162
 20
10.4451
 30
0.0
 10
-18.6162
 20
10.4451
 30
0.0
 10
-18.6162
 20
10.4451
 30
0.0
 10
-18.6162
 20
10.4451
 30
0.0
 10
-18.6162
 20
10.5234
 30
0.0
 10
-18.6162
 20
10.5234
 30
0.0
 10
-18.6162
 20
10.5234
 30
0.0
 10
-18.6162
 20
10.5234
 30
0.0
 10
-16.1162
 20
10.8997
 30
0.0
 10
-16.1162
 20
10.8997
 30
0.0
 10
-16.1162
 20
10.8997
 30
0.0
 10
-16.1162
 20
10.8997
 30
0.0
 10
-16.1162
 20
10.0922
 30
0.0
 10
-16.1162
 20
10.0922
 30
0.0
  0
SPLINE
  5
5C
330
1F
100
AcDbEntity
  8
DEFAULT_1
 62
   250
100
AcDbSpline
210
0.0
220
0.0
230
1.0
 70
    11
 71
     3
 72
    84
 73
    80
 74
     0
 42
0.0000000001
 43
0.0000000001
 40
0.0
 40
0.0
 40
0.0
 40
0.0
 40
0.0476190476190476
 40
0.0476190476190476
 40
0.0476190476190476
 40
0.0476190476190476
 40
0.0952380952380952
 40
0.0952380952380952
 40
0.0952380952380952
 40
0.0952380952380952
 40
0.1428571428571428
 40
0.1428571428571428
 40
0.1428571428571428
 40
0.1428571428571428
 40
0.1904761904761905
 40
0.1904761904761905
 40
0.1904761904761905
 40
0.1904761904761905
 40
0.2380952380952381
 40
0.2380952380952381
 40
0.2380952380952381
 40
0.2380952380952381
 40
0.2857142857142857
 40
0.2857142857142857
 40
0.2857142857142857
 40
0.2857142857142857
 40
0.3333333333333333
 40
0.3333333333333333
 40
0.3333333333333333
 40
0.3333333333333333
 40
0.3809523809523809
 40
0.3809523809523809
 40
0.3809523809523809
 40
0.3809523809523809
 40
0.4285714285714285
 40
0.4285714285714285
 40
0.4285714285714285
 40
0.4285714285714285
 40
0.4761904761904762
 40
0.4761904761904762
 40
0.4761904761904762
 40
0.4761904761904762
 40
0.5238095238095238
 40
0.5238095238095238
 40
0.5238095238095238
 40
0.5238095238095238
 40
0.5714285714285714
 40
0.5714285714285714
 40
0.5714285714285714
 40
0.5714285714285714
 40
0.6190476190476191
 40
0.6190476190476191
 40
0.6190476190476191
 40
0.6190476190476191
 40
0.6666666666666666
 40
0.6666666666666666
 40
0.6666666666666666
 40
0.6666666666666666
 40
0.7142857142857143
 40
0.7142857142857143
 40
0.7142857142857143
 40
0.7142857142857143
 40
0.7619047619047619
 40
0.7619047619047619
 40
0.7619047619047619
 40
0.7619047619047619
 40
0.8095238095238095
 40
0.8095238095238095
 40
0.8095238095238095
 40
0.8095238095238095
 40
0.8571428571428571
 40
0.8571428571428571
 40
0.8571428571428571
 40
0.8571428571428571
 40
0.9047619047619048
 40
0.9047619047619048
 40
0.9047619047619048
 40
0.9047619047619048
 40
1.0
 40
1.0
 40
1.0
 40
1.0
 10
21.4433
 20
-5.6966
 30
0.0
 10
21.4433
 20
-5.6966
 30
0.0
 10
21.1924
 20
-5.4563
 30
0.0
 10
21.1924
 20
-5.4563
 30
0.0
 10
21.1924
 20
-5.4563
 30
0.0
 10
21.1924
 20
-5.4563
 30
0.0
 10
21.3128
 20
-5.3241
 30
0.0
 10
21.3128
 20
-5.3241
 30
0.0
 10
21.3128
 20
-5.3241
 30
0.0
 10
21.3128
 20
-5.3241
 30
0.0
 10
21.577
 20
-5.5756
 30
0.0
 10
21.577
 20
-5.5756
 30
0.0
 10
21.577
 20
-5.5756
 30
0.0
 10
21.6973
 20
-5.5008
 30
0.0
 10
21.8021
 20
-5.4513
 30
0.0
 10
21.8909
 20
-5.4266
 30
0.0
 10
21.8909
 20
-5.4266
 30
0.0
 10
22.0079
 20
-5.394
 30
0.0
 10
22.1383
 20
-5.3802
 30
0.0
 10
22.2812
 20
-5.3852
 30
0.0
 10
22.2812
 20
-5.3852
 30
0.0
 10
22.488
 20
-5.3924
 30
0.0
 10
22.6708
 20
-5.4406
 30
0.0
 10
22.8291
 20
-5.53
 30
0.0
 10
22.8291
 20
-5.53
 30
0.0
 10
22.9879
 20
-5.6193
 30
0.0
 10
23.106
 20
-5.7406
 30
0.0
 10
23.1835
 20
-5.8944
 30
0.0
 10
23.1835
 20
-5.8944
 30
0.0
 10
23.2604
 20
-6.0487
 30
0.0
 10
23.2962
 20
-6.2103
 30
0.0
 10
23.2903
 20
-6.38
 30
0.0
 10
23.2903
 20
-6.38
 30
0.0
 10
23.2858
 20
-6.5069
 30
0.0
 10
23.2641
 20
-6.621
 30
0.0
 10
23.2247
 20
-6.7227
 30
0.0
 10
23.2247
 20
-6.7227
 30
0.0
 10
23.1942
 20
-6.8007
 30
0.0
 10
23.1384
 20
-6.891
 30
0.0
 10
23.0566
 20
-6.9941
 30
0.0
 10
23.0566
 20
-6.9941
 30
0.0
 10
23.0566
 20
-6.9941
 30
0.0
 10
23.3076
 20
-7.2344
 30
0.0
 10
23.3076
 20
-7.2344
 30
0.0
 10
23.3076
 20
-7.2344
 30
0.0
 10
23.3076
 20
-7.2344
 30
0.0
 10
23.1872
 20
-7.3667
 30
0.0
 10
23.1872
 20
-7.3667
 30
0.0
 10
23.1872
 20
-7.3667
 30
0.0
 10
23.1872
 20
-7.3667
 30
0.0
 10
22.9244
 20
-7.1147
 30
0.0
 10
22.9244
 20
-7.1147
 30
0.0
 10
22.9244
 20
-7.1147
 30
0.0
 10
22.7844
 20
-7.2002
 30
0.0
 10
22.6653
 20
-7.2562
 30
0.0
 10
22.5674
 20
-7.2829
 30
0.0
 10
22.5674
 20
-7.2829
 30
0.0
 10
22.4695
 20
-7.3096
 30
0.0
 10
22.3524
 20
-7.3211
 30
0.0
 10
22.2165
 20
-7.3163
 30
0.0
 10
22.2165
 20
-7.3163
 30
0.0
 10
22.0093
 20
-7.3091
 30
0.0
 10
21.8259
 20
-7.2613
 30
0.0
 10
21.6666
 20
-7.1729
 30
0.0
 10
21.6666
 20
-7.1729
 30
0.0
 10
21.5073
 20
-7.0845
 30
0.0
 10
21.3887
 20
-6.9646
 30
0.0
 10
21.3103
 20
-6.8122
 30
0.0
 10
21.3103
 20
-6.8122
 30
0.0
 10
21.2322
 20
-6.6603
 30
0.0
 10
21.1962
 20
-6.4928
 30
0.0
 10
21.2026
 20
-6.31
 30
0.0
 10
21.2026
 20
-6.31
 30
0.0
 10
21.2069
 20
-6.1868
 30
0.0
 10
21.2266
 20
-6.0797
 30
0.0
 10
21.2628
 20
-5.9887
 30
0.0
 10
21.2628
 20
-5.9887
 30
0.0
 10
21.2984
 20
-5.8977
 30
0.0
 10
21.3587
 20
-5.8001
 30
0.0
 10
21.4433
 20
-5.6966
 30
0.0
  0
SPLINE
  5
5D
330
1F
100
AcDbEntity
  8
DEFAULT_1
 62
   250
100
AcDbSpline
210
0.0
220
0.0
230
1.0
 70
    11
 71
     3
 72
    32
 73
    28
 74
     0
 42
0.0000000001
 43
0.0000000001
 40
0.0
 40
0.0
 40
0.0
 40
0.0
 40
0.125
 40
0.125
 40
0.125
 40
0.125
 40
0.25
 40
0.25
 40
0.25
 40
0.25
 40
0.375
 40
0.375
 40
0.375
 40
0.375
 40
0.5
 40
0.5
 40
0.5
 40
0.5
 40
0.625
 40
0.625
 40
0.625
 40
0.625
 40
0.75
 40
0.75
 40
0.75
 40
0.75
 40
1.0
 40
1.0
 40
1.0
 40
1.0
 10
21.6232
 20
-5.8681
 30
0.0
 10
21.5525
 20
-5.9523
 30
0.0
 10
21.5033
 20
-6.0263
 30
0.0
 10
21.4762
 20
-6.0898
 30
0.0
 10
21.4762
 20
-6.0898
 30
0.0
 10
21.4495
 20
-6.1538
 30
0.0
 10
21.4341
 20
-6.2295
 30
0.0
 10
21.4311
 20
-6.3166
 30
0.0
 10
21.4311
 20
-6.3166
 30
0.0
 10
21.424
 20
-6.5178
 30
0.0
 10
21.4864
 20
-6.6861
 30
0.0
 10
21.6181
 20
-6.8224
 30
0.0
 10
21.6181
 20
-6.8224
 30
0.0
 10
21.75
 20
-6.9584
 30
0.0
 10
21.9511
 20
-7.0313
 30
0.0
 10
22.2224
 20
-7.0408
 30
0.0
 10
22.2224
 20
-7.0408
 30
0.0
 10
22.3286
 20
-7.0445
 30
0.0
 10
22.4235
 20
-7.0375
 30
0.0
 10
22.507
 20
-7.0201
 30
0.0
 10
22.507
 20
-7.0201
 30
0.0
 10
22.569
 20
-7.0076
 30
0.0
 10
22.6458
 20
-6.9798
 30
0.0
 10
22.7371
 20
-6.9359
 30
0.0
 10
22.7371
 20
-6.9359
 30
0.0
 10
22.7371
 20
-6.9359
 30
0.0
 10
21.6232
 20
-5.8681
 30
0.0
 10
21.6232
 20
-5.8681
 30
0.0
  0
SPLINE
  5
5E
330
1F
100
AcDbEntity
  8
DEFAULT_1
 62
   250
100
AcDbSpline
210
0.0
220
0.0
230
1.0
 70
    11
 71
     3
 72
    28
 73
    24
 74
     0
 42
0.0000000001
 43
0.0000000001
 40
0.0
 40
0.0
 40
0.0
 40
0.0
 40
0.1428571428571428
 40
0.1428571428571428
 40
0.1428571428571428
 40
0.1428571428571428
 40
0.2857142857142857
 40
0.2857142857142857
 40
0.2857142857142857
 40
0.2857142857142857
 40
0.4285714285714285
 40
0.4285714285714285
 40
0.4285714285714285
 40
0.4285714285714285
 40
0.5714285714285714
 40
0.5714285714285714
 40
0.5714285714285714
 40
0.5714285714285714
 40
0.7142857142857143
 40
0.7142857142857143
 40
0.7142857142857143
 40
0.7142857142857143
 40
1.0
 40
1.0
 40
1.0
 40
1.0
 10
21.7692
 20
-5.7603
 30
0.0
 10
21.7692
 20
-5.7603
 30
0.0
 10
22.879
 20
-6.8236
 30
0.0
 10
22.879
 20
-6.8236
 30
0.0
 10
22.879
 20
-6.8236
 30
0.0
 10
22.9393
 20
-6.7552
 30
0.0
 10
22.982
 20
-6.6913
 30
0.0
 10
23.0071
 20
-6.6323
 30
0.0
 10
23.0071
 20
-6.6323
 30
0.0
 10
23.0404
 20
-6.5554
 30
0.0
 10
23.0584
 20
-6.4713
 30
0.0
 10
23.0615
 20
-6.3805
 30
0.0
 10
23.0615
 20
-6.3805
 30
0.0
 10
23.0685
 20
-6.1803
 30
0.0
 10
23.0038
 20
-6.0128
 30
0.0
 10
22.8669
 20
-5.8772
 30
0.0
 10
22.8669
 20
-5.8772
 30
0.0
 10
22.7299
 20
-5.7421
 30
0.0
 10
22.5338
 20
-5.6698
 30
0.0
 10
22.2786
 20
-5.6609
 30
0.0
 10
22.2786
 20
-5.6609
 30
0.0
 10
22.0878
 20
-5.6542
 30
0.0
 10
21.9176
 20
-5.6873
 30
0.0
 10
21.7692
 20
-5.7603
 30
0.0
  0
SPLINE
  5
5F
330
1F
100
AcDbEntity
  8
DEFAULT_1
 62
   250
100
AcDbSpline
210
0.0
220
0.0
230
1.0
 70
    11
 71
     3
 72
    92
 73
    88
 74
     0
 42
0.0000000001
 43
0.0000000001
 40
0.0
 40
0.0
 40
0.0
 40
0.0
 40
0.0434782608695652
 40
0.0434782608695652
 40
0.0434782608695652
 40
0.0434782608695652
 40
0.0869565217391304
 40
0.0869565217391304
 40
0.0869565217391304
 40
0.0869565217391304
 40
0.1304347826086956
 40
0.1304347826086956
 40
0.1304347826086956
 40
0.1304347826086956
 40
0.1739130434782609
 40
0.1739130434782609
 40
0.1739130434782609
 40
0.1739130434782609
 40
0.2173913043478261
 40
0.2173913043478261
 40
0.2173913043478261
 40
0.2173913043478261
 40
0.2608695652173913
 40
0.2608695652173913
 40
0.2608695652173913
 40
0.2608695652173913
 40
0.3043478260869565
 40
0.3043478260869565
 40
0.3043478260869565
 40
0.3043478260869565
 40
0.3478260869565217
 40
0.3478260869565217
 40
0.3478260869565217
 40
0.3478260869565217
 40
0.391304347826087
 40
0.391304347826087
 40
0.391304347826087
 40
0.391304347826087
 40
0.4347826086956522
 40
0.4347826086956522
 40
0.4347826086956522
 40
0.4347826086956522
 40
0.4782608695652174
 40
0.4782608695652174
 40
0.4782608695652174
 40
0.4782608695652174
 40
0.5217391304347826
 40
0.5217391304347826
 40
0.5217391304347826
 40
0.5217391304347826
 40
0.5652173913043478
 40
0.5652173913043478
 40
0.5652173913043478
 40
0.5652173913043478
 40
0.6086956521739131
 40
0.6086956521739131
 40
0.6086956521739131
 40
0.6086956521739131
 40
0.6521739130434783
 40
0.6521739130434783
 40
0.6521739130434783
 40
0.6521739130434783
 40
0.6956521739130435
 40
0.6956521739130435
 40
0.6956521739130435
 40
0.6956521739130435
 40
0.7391304347826086
 40
0.7391304347826086
 40
0.7391304347826086
 40
0.7391304347826086
 40
0.782608695652174
 40
0.782608695652174
 40
0.782608695652174
 40
0.782608695652174
 40
0.8260869565217391
 40
0.8260869565217391
 40
0.8260869565217391
 40
0.8260869565217391
 40
0.8695652173913043
 40
0.8695652173913043
 40
0.8695652173913043
 40
0.8695652173913043
 40
0.9130434782608695
 40
0.9130434782608695
 40
0.9130434782608695
 40
0.9130434782608695
 40
1.0
 40
1.0
 40
1.0
 40
1.0
 10
22.7693
 20
-5.1528
 30
0.0
 10
22.7693
 20
-5.1528
 30
0.0
 10
22.7563
 20
-4.8916
 30
0.0
 10
22.7563
 20
-4.8916
 30
0.0
 10
22.7563
 20
-4.8916
 30
0.0
 10
22.8839
 20
-4.8767
 30
0.0
 10
22.9804
 20
-4.8354
 30
0.0
 10
23.0468
 20
-4.7675
 30
0.0
 10
23.0468
 20
-4.7675
 30
0.0
 10
23.1132
 20
-4.6993
 30
0.0
 10
23.1482
 20
-4.6158
 30
0.0
 10
23.1516
 20
-4.5166
 30
0.0
 10
23.1516
 20
-4.5166
 30
0.0
 10
23.1558
 20
-4.3972
 30
0.0
 10
23.1142
 20
-4.2946
 30
0.0
 10
23.0273
 20
-4.2092
 30
0.0
 10
23.0273
 20
-4.2092
 30
0.0
 10
22.9399
 20
-4.1233
 30
0.0
 10
22.8219
 20
-4.0778
 30
0.0
 10
22.6734
 20
-4.0726
 30
0.0
 10
22.6734
 20
-4.0726
 30
0.0
 10
22.5319
 20
-4.0676
 30
0.0
 10
22.4191
 20
-4.1032
 30
0.0
 10
22.3346
 20
-4.1798
 30
0.0
 10
22.3346
 20
-4.1798
 30
0.0
 10
22.25
 20
-4.2564
 30
0.0
 10
22.2055
 20
-4.3588
 30
0.0
 10
22.201
 20
-4.4876
 30
0.0
 10
22.201
 20
-4.4876
 30
0.0
 10
22.1982
 20
-4.5676
 30
0.0
 10
22.2139
 20
-4.6401
 30
0.0
 10
22.2479
 20
-4.7058
 30
0.0
 10
22.2479
 20
-4.7058
 30
0.0
 10
22.2819
 20
-4.7714
 30
0.0
 10
22.3271
 20
-4.8234
 30
0.0
 10
22.3837
 20
-4.8621
 30
0.0
 10
22.3837
 20
-4.8621
 30
0.0
 10
22.3837
 20
-4.8621
 30
0.0
 10
22.3455
 20
-5.0938
 30
0.0
 10
22.3455
 20
-5.0938
 30
0.0
 10
22.3455
 20
-5.0938
 30
0.0
 10
22.3455
 20
-5.0938
 30
0.0
 10
21.3153
 20
-4.862
 30
0.0
 10
21.3153
 20
-4.862
 30
0.0
 10
21.3153
 20
-4.862
 30
0.0
 10
21.3153
 20
-4.862
 30
0.0
 10
21.3503
 20
-3.8579
 30
0.0
 10
21.3503
 20
-3.8579
 30
0.0
 10
21.3503
 20
-3.8579
 30
0.0
 10
21.3503
 20
-3.8579
 30
0.0
 10
21.5873
 20
-3.8662
 30
0.0
 10
21.5873
 20
-3.8662
 30
0.0
 10
21.5873
 20
-3.8662
 30
0.0
 10
21.5873
 20
-3.8662
 30
0.0
 10
21.5591
 20
-4.6719
 30
0.0
 10
21.5591
 20
-4.6719
 30
0.0
 10
21.5591
 20
-4.6719
 30
0.0
 10
21.5591
 20
-4.6719
 30
0.0
 10
22.0978
 20
-4.7998
 30
0.0
 10
22.0978
 20
-4.7998
 30
0.0
 10
22.0978
 20
-4.7998
 30
0.0
 10
22.0174
 20
-4.6757
 30
0.0
 10
21.9796
 20
-4.5468
 30
0.0
 10
21.9842
 20
-4.4137
 30
0.0
 10
21.9842
 20
-4.4137
 30
0.0
 10
21.9904
 20
-4.2374
 30
0.0
 10
22.0566
 20
-4.0911
 30
0.0
 10
22.1831
 20
-3.974
 30
0.0
 10
22.1831
 20
-3.974
 30
0.0
 10
22.3095
 20
-3.8571
 30
0.0
 10
22.4687
 20
-3.8019
 30
0.0
 10
22.6604
 20
-3.8086
 30
0.0
 10
22.6604
 20
-3.8086
 30
0.0
 10
22.8433
 20
-3.815
 30
0.0
 10
22.9995
 20
-3.874
 30
0.0
 10
23.1288
 20
-3.9849
 30
0.0
 10
23.1288
 20
-3.9849
 30
0.0
 10
23.2873
 20
-4.1203
 30
0.0
 10
23.3629
 20
-4.3
 30
0.0
 10
23.3551
 20
-4.5237
 30
0.0
 10
23.3551
 20
-4.5237
 30
0.0
 10
23.3487
 20
-4.7075
 30
0.0
 10
23.2923
 20
-4.8557
 30
0.0
 10
23.1853
 20
-4.9682
 30
0.0
 10
23.1853
 20
-4.9682
 30
0.0
 10
23.0782
 20
-5.0807
 30
0.0
 10
22.9396
 20
-5.1422
 30
0.0
 10
22.7693
 20
-5.1528
 30
0.0
  0
SPLINE
  5
60
330
1F
100
AcDbEntity
  8
DEFAULT_1
 62
   250
100
AcDbSpline
210
0.0
220
0.0
230
1.0
 70
    11
 71
     3
 72
    52
 73
    48
 74
     0
 42
0.0000000001
 43
0.0000000001
 40
0.0
 40
0.0
 40
0.0
 40
0.0
 40
0.0769230769230769
 40
0.0769230769230769
 40
0.0769230769230769
 40
0.0769230769230769
 40
0.1538461538461539
 40
0.1538461538461539
 40
0.1538461538461539
 40
0.1538461538461539
 40
0.2307692307692308
 40
0.2307692307692308
 40
0.2307692307692308
 40
0.2307692307692308
 40
0.3076923076923077
 40
0.3076923076923077
 40
0.3076923076923077
 40
0.3076923076923077
 40
0.3846153846153846
 40
0.3846153846153846
 40
0.3846153846153846
 40
0.3846153846153846
 40
0.4615384615384616
 40
0.4615384615384616
 40
0.4615384615384616
 40
0.4615384615384616
 40
0.5384615384615384
 40
0.5384615384615384
 40
0.5384615384615384
 40
0.5384615384615384
 40
0.6153846153846154
 40
0.6153846153846154
 40
0.6153846153846154
 40
0.6153846153846154
 40
0.6923076923076923
 40
0.6923076923076923
 40
0.6923076923076923
 40
0.6923076923076923
 40
0.7692307692307693
 40
0.7692307692307693
 40
0.7692307692307693
 40
0.7692307692307693
 40
0.8461538461538461
 40
0.8461538461538461
 40
0.8461538461538461
 40
0.8461538461538461
 40
1.0
 40
1.0
 40
1.0
 40
1.0
 10
22.3574
 20
-3.5678
 30
0.0
 10
22.1185
 20
-3.5595
 30
0.0
 10
21.9271
 20
-3.5283
 30
0.0
 10
21.7836
 20
-3.4739
 30
0.0
 10
21.7836
 20
-3.4739
 30
0.0
 10
21.6396
 20
-3.4199
 30
0.0
 10
21.5298
 20
-3.3426
 30
0.0
 10
21.4541
 20
-3.243
 30
0.0
 10
21.4541
 20
-3.243
 30
0.0
 10
21.3786
 20
-3.1434
 30
0.0
 10
21.3433
 20
-3.0203
 30
0.0
 10
21.3485
 20
-2.8737
 30
0.0
 10
21.3485
 20
-2.8737
 30
0.0
 10
21.3523
 20
-2.7651
 30
0.0
 10
21.3777
 20
-2.6709
 30
0.0
 10
21.4243
 20
-2.5907
 30
0.0
 10
21.4243
 20
-2.5907
 30
0.0
 10
21.4703
 20
-2.5103
 30
0.0
 10
21.5357
 20
-2.4453
 30
0.0
 10
21.6199
 20
-2.3946
 30
0.0
 10
21.6199
 20
-2.3946
 30
0.0
 10
21.704
 20
-2.3444
 30
0.0
 10
21.8056
 20
-2.306
 30
0.0
 10
21.9245
 20
-2.2801
 30
0.0
 10
21.9245
 20
-2.2801
 30
0.0
 10
22.0436
 20
-2.2536
 30
0.0
 10
22.2031
 20
-2.2442
 30
0.0
 10
22.4033
 20
-2.2511
 30
0.0
 10
22.4033
 20
-2.2511
 30
0.0
 10
22.6402
 20
-2.2594
 30
0.0
 10
22.8302
 20
-2.2905
 30
0.0
 10
22.9742
 20
-2.344
 30
0.0
 10
22.9742
 20
-2.344
 30
0.0
 10
23.1182
 20
-2.398
 30
0.0
 10
23.228
 20
-2.4748
 30
0.0
 10
23.3041
 20
-2.5744
 30
0.0
 10
23.3041
 20
-2.5744
 30
0.0
 10
23.3802
 20
-2.674
 30
0.0
 10
23.4154
 20
-2.7976
 30
0.0
 10
23.4102
 20
-2.9457
 30
0.0
 10
23.4102
 20
-2.9457
 30
0.0
 10
23.4034
 20
-3.1403
 30
0.0
 10
23.3285
 20
-3.2907
 30
0.0
 10
23.185
 20
-3.3967
 30
0.0
 10
23.185
 20
-3.3967
 30
0.0
 10
23.0126
 20
-3.5239
 30
0.0
 10
22.7362
 20
-3.5811
 30
0.0
 10
22.3574
 20
-3.5678
 30
0.0
  0
SPLINE
  5
61
330
1F
100
AcDbEntity
  8
DEFAULT_1
 62
   250
100
AcDbSpline
210
0.0
220
0.0
230
1.0
 70
    11
 71
     3
 72
    36
 73
    32
 74
     0
 42
0.0000000001
 43
0.0000000001
 40
0.0
 40
0.0
 40
0.0
 40
0.0
 40
0.1111111111111111
 40
0.1111111111111111
 40
0.1111111111111111
 40
0.1111111111111111
 40
0.2222222222222222
 40
0.2222222222222222
 40
0.2222222222222222
 40
0.2222222222222222
 40
0.3333333333333333
 40
0.3333333333333333
 40
0.3333333333333333
 40
0.3333333333333333
 40
0.4444444444444444
 40
0.4444444444444444
 40
0.4444444444444444
 40
0.4444444444444444
 40
0.5555555555555556
 40
0.5555555555555556
 40
0.5555555555555556
 40
0.5555555555555556
 40
0.6666666666666666
 40
0.6666666666666666
 40
0.6666666666666666
 40
0.6666666666666666
 40
0.7777777777777778
 40
0.7777777777777778
 40
0.7777777777777778
 40
0.7777777777777778
 40
1.0
 40
1.0
 40
1.0
 40
1.0
 10
22.3663
 20
-3.313
 30
0.0
 10
22.6977
 20
-3.3246
 30
0.0
 10
22.9195
 20
-3.2933
 30
0.0
 10
23.0321
 20
-3.2196
 30
0.0
 10
23.0321
 20
-3.2196
 30
0.0
 10
23.1444
 20
-3.1459
 30
0.0
 10
23.2028
 20
-3.0523
 30
0.0
 10
23.2067
 20
-2.9386
 30
0.0
 10
23.2067
 20
-2.9386
 30
0.0
 10
23.2107
 20
-2.8244
 30
0.0
 10
23.1586
 20
-2.727
 30
0.0
 10
23.0513
 20
-2.6456
 30
0.0
 10
23.0513
 20
-2.6456
 30
0.0
 10
22.9439
 20
-2.5642
 30
0.0
 10
22.7248
 20
-2.5174
 30
0.0
 10
22.3944
 20
-2.5059
 30
0.0
 10
22.3944
 20
-2.5059
 30
0.0
 10
22.062
 20
-2.4943
 30
0.0
 10
21.8397
 20
-2.5256
 30
0.0
 10
21.728
 20
-2.5994
 30
0.0
 10
21.728
 20
-2.5994
 30
0.0
 10
21.6157
 20
-2.6731
 30
0.0
 10
21.5579
 20
-2.7676
 30
0.0
 10
21.5539
 20
-2.8832
 30
0.0
 10
21.5539
 20
-2.8832
 30
0.0
 10
21.5499
 20
-2.9974
 30
0.0
 10
21.5951
 20
-3.0899
 30
0.0
 10
21.689
 20
-3.1614
 30
0.0
 10
21.689
 20
-3.1614
 30
0.0
 10
21.8088
 20
-3.2507
 30
0.0
 10
22.0349
 20
-3.3014
 30
0.0
 10
22.3663
 20
-3.313
 30
0.0
  0
SPLINE
  5
62
330
1F
100
AcDbEntity
  8
DEFAULT_1
 62
   250
100
AcDbSpline
210
0.0
220
0.0
230
1.0
 70
    11
 71
     3
 72
    20
 73
    16
 74
     0
 42
0.0000000001
 43
0.0000000001
 40
0.0
 40
0.0
 40
0.0
 40
0.0
 40
0.2
 40
0.2
 40
0.2
 40
0.2
 40
0.4
 40
0.4
 40
0.4
 40
0.4
 40
0.6
 40
0.6
 40
0.6
 40
0.6
 40
1.0
 40
1.0
 40
1.0
 40
1.0
 10
23.2731
 20
-11.988
 30
0.0
 10
23.2731
 20
-11.988
 30
0.0
 10
23.7129
 20
-9.5018
 30
0.0
 10
23.7129
 20
-9.5018
 30
0.0
 10
23.7129
 20
-9.5018
 30
0.0
 10
23.7129
 20
-9.5018
 30
0.0
 10
23.7912
 20
-9.5045
 30
0.0
 10
23.7912
 20
-9.5045
 30
0.0
 10
23.7912
 20
-9.5045
 30
0.0
 10
23.7912
 20
-9.5045
 30
0.0
 10
24.08
 20
-12.0161
 30
0.0
 10
24.08
 20
-12.0161
 30
0.0
 10
24.08
 20
-12.0161
 30
0.0
 10
24.08
 20
-12.0161
 30
0.0
 10
23.2731
 20
-11.988
 30
0.0
 10
23.2731
 20
-11.988
 30
0.0
  0
SPLINE
  5
63
330
1F
100
AcDbEntity
  8
DEFAULT_1
 62
   250
100
AcDbSpline
210
0.0
220
0.0
230
1.0
 70
    11
 71
     3
 72
    20
 73
    16
 74
     0
 42
0.0000000001
 43
0.0000000001
 40
0.0
 40
0.0
 40
0.0
 40
0.0
 40
0.2
 40
0.2
 40
0.2
 40
0.2
 40
0.4
 40
0.4
 40
0.4
 40
0.4
 40
0.6
 40
0.6
 40
0.6
 40
0.6
 40
1.0
 40
1.0
 40
1.0
 40
1.0
 10
24.5439
 20
1.7743
 30
0.0
 10
24.5439
 20
1.7743
 30
0.0
 10
24.1041
 20
-0.7119
 30
0.0
 10
24.1041
 20
-0.7119
 30
0.0
 10
24.1041
 20
-0.7119
 30
0.0
 10
24.1041
 20
-0.7119
 30
0.0
 10
24.0257
 20
-0.7092
 30
0.0
 10
24.0257
 20
-0.7092
 30
0.0
 10
24.0257
 20
-0.7092
 30
0.0
 10
24.0257
 20
-0.7092
 30
0.0
 10
23.7369
 20
1.8025
 30
0.0
 10
23.7369
 20
1.8025
 30
0.0
 10
23.7369
 20
1.8025
 30
0.0
 10
23.7369
 20
1.8025
 30
0.0
 10
24.5439
 20
1.7743
 30
0.0
 10
24.5439
 20
1.7743
 30
0.0
  0
SPLINE
  5
64
330
1F
100
AcDbEntity
  8
DEFAULT_1
 62
   250
100
AcDbSpline
210
0.0
220
0.0
230
1.0
 70
    24
 71
     3
 72
     8
 73
     4
 74
     0
 42
0.0000000001
 43
0.0000000001
 40
0.0
 40
0.0
 40
0.0
 40
0.0
 40
1.0
 40
1.0
 40
1.0
 40
1.0
 10
-14.0142
 20
3.3351
 30
0.0
 10
-14.0142
 20
3.3351
 30
0.0
 10
-12.4484
 20
3.3078
 30
0.0
 10
-12.4484
 20
3.3078
 30
0.0
  0
SPLINE
  5
65
330
1F
100
AcDbEntity
  8
DEFAULT_1
 62
   250
100
AcDbSpline
210
0.0
220
0.0
230
1.0
 70
    24
 71
     3
 72
     8
 73
     4
 74
     0
 42
0.0000000001
 43
0.0000000001
 40
0.0
 40
0.0
 40
0.0
 40
0.0
 40
1.0
 40
1.0
 40
1.0
 40
1.0
 10
-15.6873
 20
3.4136
 30
0.0
 10
-15.6873
 20
3.4136
 30
0.0
 10
15.2436
 20
3.4136
 30
0.0
 10
15.2436
 20
3.4136
 30
0.0
  0
SPLINE
  5
66
330
1F
100
AcDbEntity
  8
DEFAULT_1
 62
   250
100
AcDbSpline
210
0.0
220
0.0
230
1.0
 70
    24
 71
     3
 72
     8
 73
     4
 74
     0
 42
0.0000000001
 43
0.0000000001
 40
0.0
 40
0.0
 40
0.0
 40
0.0
 40
1.0
 40
1.0
 40
1.0
 40
1.0
 10
-15.6379
 20
3.3635
 30
0.0
 10
-15.6379
 20
3.3635
 30
0.0
 10
15.1943
 20
3.3635
 30
0.0
 10
15.1943
 20
3.3635
 30
0.0
  0
SPLINE
  5
67
330
1F
100
AcDbEntity
  8
DEFAULT_1
 62
   250
100
AcDbSpline
210
0.0
220
0.0
230
1.0
 70
    24
 71
     3
 72
     8
 73
     4
 74
     0
 42
0.0000000001
 43
0.0000000001
 40
0.0
 40
0.0
 40
0.0
 40
0.0
 40
1.0
 40
1.0
 40
1.0
 40
1.0
 10
-14.014
 20
3.3351
 30
0.0
 10
-14.014
 20
3.3351
 30
0.0
 10
-13.9294
 20
3.3337
 30
0.0
 10
-13.9294
 20
3.3337
 30
0.0
  0
SPLINE
  5
68
330
1F
100
AcDbEntity
  8
DEFAULT_1
 62
   250
100
AcDbSpline
210
0.0
220
0.0
230
1.0
 70
    24
 71
     3
 72
     8
 73
     4
 74
     0
 42
0.0000000001
 43
0.0000000001
 40
0.0
 40
0.0
 40
0.0
 40
0.0
 40
1.0
 40
1.0
 40
1.0
 40
1.0
 10
9.7772
 20
1.1727
 30
0.0
 10
9.7772
 20
1.1727
 30
0.0
 10
9.7608
 20
1.1898
 30
0.0
 10
9.7608
 20
1.1898
 30
0.0
  0
SPLINE
  5
69
330
1F
100
AcDbEntity
  8
DEFAULT_1
 62
   250
100
AcDbSpline
210
0.0
220
0.0
230
1.0
 70
    24
 71
     3
 72
     8
 73
     4
 74
     0
 42
0.0000000001
 43
0.0000000001
 40
0.0
 40
0.0
 40
0.0
 40
0.0
 40
1.0
 40
1.0
 40
1.0
 40
1.0
 10
8.3359
 20
0.8221
 30
0.0
 10
8.3359
 20
0.8221
 30
0.0
 10
-8.7796
 20
0.8221
 30
0.0
 10
-8.7796
 20
0.8221
 30
0.0
  0
SPLINE
  5
6A
330
1F
100
AcDbEntity
  8
DEFAULT_1
 62
   250
100
AcDbSpline
210
0.0
220
0.0
230
1.0
 70
    24
 71
     3
 72
     8
 73
     4
 74
     0
 42
0.0000000001
 43
0.0000000001
 40
0.0
 40
0.0
 40
0.0
 40
0.0
 40
1.0
 40
1.0
 40
1.0
 40
1.0
 10
8.0
 20
0.7235
 30
0.0
 10
8.0
 20
0.7235
 30
0.0
 10
-8.4436
 20
0.7235
 30
0.0
 10
-8.4436
 20
0.7235
 30
0.0
  0
SPLINE
  5
6B
330
1F
100
AcDbEntity
  8
DEFAULT_1
 62
   250
100
AcDbSpline
210
0.0
220
0.0
230
1.0
 70
    24
 71
     3
 72
     8
 73
     4
 74
     0
 42
0.0000000001
 43
0.0000000001
 40
0.0
 40
0.0
 40
0.0
 40
0.0
 40
1.0
 40
1.0
 40
1.0
 40
1.0
 10
-9.7792
 20
1.0119
 30
0.0
 10
-9.7792
 20
1.0119
 30
0.0
 10
-9.8143
 20
1.0176
 30
0.0
 10
-9.8143
 20
1.0176
 30
0.0
  0
SPLINE
  5
6C
330
1F
100
AcDbEntity
  8
DEFAULT_1
 62
   250
100
AcDbSpline
210
0.0
220
0.0
230
1.0
 70
    24
 71
     3
 72
     8
 73
     4
 74
     0
 42
0.0000000001
 43
0.0000000001
 40
0.0
 40
0.0
 40
0.0
 40
0.0
 40
1.0
 40
1.0
 40
1.0
 40
1.0
 10
-12.7841
 20
1.1727
 30
0.0
 10
-12.7841
 20
1.1727
 30
0.0
 10
-10.2209
 20
1.1727
 30
0.0
 10
-10.2209
 20
1.1727
 30
0.0
  0
SPLINE
  5
6D
330
1F
100
AcDbEntity
  8
DEFAULT_1
 62
   250
100
AcDbSpline
210
0.0
220
0.0
230
1.0
 70
    24
 71
     3
 72
     8
 73
     4
 74
     0
 42
0.0000000001
 43
0.0000000001
 40
0.0
 40
0.0
 40
0.0
 40
0.0
 40
1.0
 40
1.0
 40
1.0
 40
1.0
 10
-10.2209
 20
1.1727
 30
0.0
 10
-10.2209
 20
1.1727
 30
0.0
 10
-10.2045
 20
1.1898
 30
0.0
 10
-10.2045
 20
1.1898
 30
0.0
  0
SPLINE
  5
6E
330
1F
100
AcDbEntity
  8
DEFAULT_1
 62
   250
100
AcDbSpline
210
0.0
220
0.0
230
1.0
 70
    24
 71
     3
 72
     8
 73
     4
 74
     0
 42
0.0000000001
 43
0.0000000001
 40
0.0
 40
0.0
 40
0.0
 40
0.0
 40
1.0
 40
1.0
 40
1.0
 40
1.0
 10
10.0205
 20
1.7274
 30
0.0
 10
10.0205
 20
1.7274
 30
0.0
 10
9.9704
 20
1.7283
 30
0.0
 10
9.9704
 20
1.7283
 30
0.0
  0
SPLINE
  5
6F
330
1F
100
AcDbEntity
  8
DEFAULT_1
 62
   250
100
AcDbSpline
210
0.0
220
0.0
230
1.0
 70
    24
 71
     3
 72
     8
 73
     4
 74
     0
 42
0.0000000001
 43
0.0000000001
 40
0.0
 40
0.0
 40
0.0
 40
0.0
 40
1.0
 40
1.0
 40
1.0
 40
1.0
 10
12.3405
 20
1.1727
 30
0.0
 10
12.3405
 20
1.1727
 30
0.0
 10
9.7772
 20
1.1727
 30
0.0
 10
9.7772
 20
1.1727
 30
0.0
  0
SPLINE
  5
70
330
1F
100
AcDbEntity
  8
DEFAULT_1
 62
   250
100
AcDbSpline
210
0.0
220
0.0
230
1.0
 70
    24
 71
     3
 72
     8
 73
     4
 74
     0
 42
0.0000000001
 43
0.0000000001
 40
0.0
 40
0.0
 40
0.0
 40
0.0
 40
1.0
 40
1.0
 40
1.0
 40
1.0
 10
13.5179
 20
3.3342
 30
0.0
 10
13.5179
 20
3.3342
 30
0.0
 10
12.0318
 20
3.3084
 30
0.0
 10
12.0318
 20
3.3084
 30
0.0
  0
SPLINE
  5
71
330
1F
100
AcDbEntity
  8
DEFAULT_1
 62
   250
100
AcDbSpline
210
0.0
220
0.0
230
1.0
 70
    24
 71
     3
 72
     8
 73
     4
 74
     0
 42
0.0000000001
 43
0.0000000001
 40
0.0
 40
0.0
 40
0.0
 40
0.0
 40
1.0
 40
1.0
 40
1.0
 40
1.0
 10
12.2524
 20
3.3124
 30
0.0
 10
12.2524
 20
3.3124
 30
0.0
 10
12.2825
 20
3.3129
 30
0.0
 10
12.2825
 20
3.3129
 30
0.0
  0
SPLINE
  5
72
330
1F
100
AcDbEntity
  8
DEFAULT_1
 62
   250
100
AcDbSpline
210
0.0
220
0.0
230
1.0
 70
    24
 71
     3
 72
     8
 73
     4
 74
     0
 42
0.0000000001
 43
0.0000000001
 40
0.0
 40
0.0
 40
0.0
 40
0.0
 40
1.0
 40
1.0
 40
1.0
 40
1.0
 10
13.4655
 20
3.3334
 30
0.0
 10
13.4655
 20
3.3334
 30
0.0
 10
13.5698
 20
3.3351
 30
0.0
 10
13.5698
 20
3.3351
 30
0.0
  0
SPLINE
  5
73
330
1F
100
AcDbEntity
  8
DEFAULT_1
 62
   250
100
AcDbSpline
210
0.0
220
0.0
230
1.0
 70
    24
 71
     3
 72
     8
 73
     4
 74
     0
 42
0.0000000001
 43
0.0000000001
 40
0.0
 40
0.0
 40
0.0
 40
0.0
 40
1.0
 40
1.0
 40
1.0
 40
1.0
 10
13.4847
 20
3.3337
 30
0.0
 10
13.4847
 20
3.3337
 30
0.0
 10
13.4868
 20
3.3338
 30
0.0
 10
13.4868
 20
3.3338
 30
0.0
  0
SPLINE
  5
74
330
1F
100
AcDbEntity
  8
DEFAULT_1
 62
   250
100
AcDbSpline
210
0.0
220
0.0
230
1.0
 70
    24
 71
     3
 72
     8
 73
     4
 74
     0
 42
0.0000000001
 43
0.0000000001
 40
0.0
 40
0.0
 40
0.0
 40
0.0
 40
1.0
 40
1.0
 40
1.0
 40
1.0
 10
13.5698
 20
3.3351
 30
0.0
 10
13.5698
 20
3.3351
 30
0.0
 10
13.5319
 20
3.3345
 30
0.0
 10
13.5319
 20
3.3345
 30
0.0
  0
SPLINE
  5
75
330
1F
100
AcDbEntity
  8
DEFAULT_1
 62
   250
100
AcDbSpline
210
0.0
220
0.0
230
1.0
 70
    24
 71
     3
 72
     8
 73
     4
 74
     0
 42
0.0000000001
 43
0.0000000001
 40
0.0
 40
0.0
 40
0.0
 40
0.0
 40
1.0
 40
1.0
 40
1.0
 40
1.0
 10
-9.9678
 20
1.0642
 30
0.0
 10
-9.9678
 20
1.0642
 30
0.0
 10
-9.9596
 20
1.0607
 30
0.0
 10
-9.9596
 20
1.0607
 30
0.0
  0
SPLINE
  5
76
330
1F
100
AcDbEntity
  8
DEFAULT_1
 62
   250
100
AcDbSpline
210
0.0
220
0.0
230
1.0
 70
    24
 71
     3
 72
     8
 73
     4
 74
     0
 42
0.0000000001
 43
0.0000000001
 40
0.0
 40
0.0
 40
0.0
 40
0.0
 40
1.0
 40
1.0
 40
1.0
 40
1.0
 10
-9.969
 20
1.0648
 30
0.0
 10
-9.969
 20
1.0648
 30
0.0
 10
-9.9565
 20
1.0595
 30
0.0
 10
-9.9565
 20
1.0595
 30
0.0
  0
SPLINE
  5
77
330
1F
100
AcDbEntity
  8
DEFAULT_1
 62
   250
100
AcDbSpline
210
0.0
220
0.0
230
1.0
 70
    24
 71
     3
 72
     8
 73
     4
 74
     0
 42
0.0000000001
 43
0.0000000001
 40
0.0
 40
0.0
 40
0.0
 40
0.0
 40
1.0
 40
1.0
 40
1.0
 40
1.0
 10
-10.1907
 20
1.2043
 30
0.0
 10
-10.1907
 20
1.2043
 30
0.0
 10
-10.2045
 20
1.1898
 30
0.0
 10
-10.2045
 20
1.1898
 30
0.0
  0
SPLINE
  5
78
330
1F
100
AcDbEntity
  8
DEFAULT_1
 62
   250
100
AcDbSpline
210
0.0
220
0.0
230
1.0
 70
    24
 71
     3
 72
     8
 73
     4
 74
     0
 42
0.0000000001
 43
0.0000000001
 40
0.0
 40
0.0
 40
0.0
 40
0.0
 40
1.0
 40
1.0
 40
1.0
 40
1.0
 10
9.7608
 20
1.1898
 30
0.0
 10
9.7608
 20
1.1898
 30
0.0
 10
9.7471
 20
1.2043
 30
0.0
 10
9.7471
 20
1.2043
 30
0.0
  0
SPLINE
  5
79
330
1F
100
AcDbEntity
  8
DEFAULT_1
 62
   250
100
AcDbSpline
210
0.0
220
0.0
230
1.0
 70
    24
 71
     3
 72
     8
 73
     4
 74
     0
 42
0.0000000001
 43
0.0000000001
 40
0.0
 40
0.0
 40
0.0
 40
0.0
 40
1.0
 40
1.0
 40
1.0
 40
1.0
 10
8.1004
 20
1.4203
 30
0.0
 10
8.1004
 20
1.4203
 30
0.0
 10
8.0984
 20
1.4239
 30
0.0
 10
8.0984
 20
1.4239
 30
0.0
  0
SPLINE
  5
7A
330
1F
100
AcDbEntity
  8
DEFAULT_1
 62
   250
100
AcDbSpline
210
0.0
220
0.0
230
1.0
 70
    24
 71
     3
 72
     8
 73
     4
 74
     0
 42
0.0000000001
 43
0.0000000001
 40
0.0
 40
0.0
 40
0.0
 40
0.0
 40
1.0
 40
1.0
 40
1.0
 40
1.0
 10
-8.544
 20
1.4205
 30
0.0
 10
-8.544
 20
1.4205
 30
0.0
 10
-8.5408
 20
1.4241
 30
0.0
 10
-8.5408
 20
1.4241
 30
0.0
  0
SPLINE
  5
7B
330
1F
100
AcDbEntity
  8
DEFAULT_1
 62
   250
100
AcDbSpline
210
0.0
220
0.0
230
1.0
 70
    24
 71
     3
 72
     8
 73
     4
 74
     0
 42
0.0000000001
 43
0.0000000001
 40
0.0
 40
0.0
 40
0.0
 40
0.0
 40
1.0
 40
1.0
 40
1.0
 40
1.0
 10
-0.0775
 20
1.0055
 30
0.0
 10
-0.0775
 20
1.0055
 30
0.0
 10
-0.3663
 20
1.0055
 30
0.0
 10
-0.3663
 20
1.0055
 30
0.0
  0
SPLINE
  5
7C
330
1F
100
AcDbEntity
  8
DEFAULT_1
 62
   250
100
AcDbSpline
210
0.0
220
0.0
230
1.0
 70
    24
 71
     3
 72
     8
 73
     4
 74
     0
 42
0.0000000001
 43
0.0000000001
 40
0.0
 40
0.0
 40
0.0
 40
0.0
 40
1.0
 40
1.0
 40
1.0
 40
1.0
 10
-1.0432
 20
1.498
 30
0.0
 10
-1.0432
 20
1.498
 30
0.0
 10
-1.0478
 20
1.5116
 30
0.0
 10
-1.0478
 20
1.5116
 30
0.0
  0
SPLINE
  5
7D
330
1F
100
AcDbEntity
  8
DEFAULT_1
 62
   250
100
AcDbSpline
210
0.0
220
0.0
230
1.0
 70
    24
 71
     3
 72
     8
 73
     4
 74
     0
 42
0.0000000001
 43
0.0000000001
 40
0.0
 40
0.0
 40
0.0
 40
0.0
 40
1.0
 40
1.0
 40
1.0
 40
1.0
 10
-1.0443
 20
1.5012
 30
0.0
 10
-1.0443
 20
1.5012
 30
0.0
 10
-1.0478
 20
1.5116
 30
0.0
 10
-1.0478
 20
1.5116
 30
0.0
  0
SPLINE
  5
7E
330
1F
100
AcDbEntity
  8
DEFAULT_1
 62
   250
100
AcDbSpline
210
0.0
220
0.0
230
1.0
 70
    24
 71
     3
 72
     8
 73
     4
 74
     0
 42
0.0000000001
 43
0.0000000001
 40
0.0
 40
0.0
 40
0.0
 40
0.0
 40
1.0
 40
1.0
 40
1.0
 40
1.0
 10
-1.057
 20
1.5216
 30
0.0
 10
-1.057
 20
1.5216
 30
0.0
 10
-1.0739
 20
1.5158
 30
0.0
 10
-1.0739
 20
1.5158
 30
0.0
  0
SPLINE
  5
7F
330
1F
100
AcDbEntity
  8
DEFAULT_1
 62
   250
100
AcDbSpline
210
0.0
220
0.0
230
1.0
 70
    24
 71
     3
 72
     8
 73
     4
 74
     0
 42
0.0000000001
 43
0.0000000001
 40
0.0
 40
0.0
 40
0.0
 40
0.0
 40
1.0
 40
1.0
 40
1.0
 40
1.0
 10
-1.042
 20
1.4947
 30
0.0
 10
-1.042
 20
1.4947
 30
0.0
 10
-1.0468
 20
1.5086
 30
0.0
 10
-1.0468
 20
1.5086
 30
0.0
  0
SPLINE
  5
80
330
1F
100
AcDbEntity
  8
DEFAULT_1
 62
   250
100
AcDbSpline
210
0.0
220
0.0
230
1.0
 70
    24
 71
     3
 72
     8
 73
     4
 74
     0
 42
0.0000000001
 43
0.0000000001
 40
0.0
 40
0.0
 40
0.0
 40
0.0
 40
1.0
 40
1.0
 40
1.0
 40
1.0
 10
13.51
 20
1.7375
 30
0.0
 10
13.51
 20
1.7375
 30
0.0
 10
12.0582
 20
1.7375
 30
0.0
 10
12.0582
 20
1.7375
 30
0.0
  0
SPLINE
  5
81
330
1F
100
AcDbEntity
  8
DEFAULT_1
 62
   250
100
AcDbSpline
210
0.0
220
0.0
230
1.0
 70
    24
 71
     3
 72
     8
 73
     4
 74
     0
 42
0.0000000001
 43
0.0000000001
 40
0.0
 40
0.0
 40
0.0
 40
0.0
 40
1.0
 40
1.0
 40
1.0
 40
1.0
 10
15.2436
 20
3.9327
 30
0.0
 10
15.2436
 20
3.9327
 30
0.0
 10
-15.6873
 20
3.9327
 30
0.0
 10
-15.6873
 20
3.9327
 30
0.0
  0
SPLINE
  5
82
330
1F
100
AcDbEntity
  8
DEFAULT_1
 62
   250
100
AcDbSpline
210
0.0
220
0.0
230
1.0
 70
    24
 71
     3
 72
     8
 73
     4
 74
     0
 42
0.0000000001
 43
0.0000000001
 40
0.0
 40
0.0
 40
0.0
 40
0.0
 40
1.0
 40
1.0
 40
1.0
 40
1.0
 10
-18.564
 20
4.0322
 30
0.0
 10
-18.564
 20
4.0322
 30
0.0
 10
18.1203
 20
4.0322
 30
0.0
 10
18.1203
 20
4.0322
 30
0.0
  0
SPLINE
  5
83
330
1F
100
AcDbEntity
  8
DEFAULT_1
 62
   250
100
AcDbSpline
210
0.0
220
0.0
230
1.0
 70
    24
 71
     3
 72
     8
 73
     4
 74
     0
 42
0.0000000001
 43
0.0000000001
 40
0.0
 40
0.0
 40
0.0
 40
0.0
 40
1.0
 40
1.0
 40
1.0
 40
1.0
 10
-18.6131
 20
4.0824
 30
0.0
 10
-18.6131
 20
4.0824
 30
0.0
 10
18.1696
 20
4.0824
 30
0.0
 10
18.1696
 20
4.0824
 30
0.0
  0
SPLINE
  5
84
330
1F
100
AcDbEntity
  8
DEFAULT_1
 62
   250
100
AcDbSpline
210
0.0
220
0.0
230
1.0
 70
    24
 71
     3
 72
     8
 73
     4
 74
     0
 42
0.0000000001
 43
0.0000000001
 40
0.0
 40
0.0
 40
0.0
 40
0.0
 40
1.0
 40
1.0
 40
1.0
 40
1.0
 10
-6.7242
 20
4.9527
 30
0.0
 10
-6.7242
 20
4.9527
 30
0.0
 10
-6.7242
 20
4.451
 30
0.0
 10
-6.7242
 20
4.451
 30
0.0
  0
SPLINE
  5
85
330
1F
100
AcDbEntity
  8
DEFAULT_1
 62
   250
100
AcDbSpline
210
0.0
220
0.0
230
1.0
 70
    24
 71
     3
 72
     8
 73
     4
 74
     0
 42
0.0000000001
 43
0.0000000001
 40
0.0
 40
0.0
 40
0.0
 40
0.0
 40
1.0
 40
1.0
 40
1.0
 40
1.0
 10
6.2805
 20
4.451
 30
0.0
 10
6.2805
 20
4.451
 30
0.0
 10
6.2805
 20
4.9527
 30
0.0
 10
6.2805
 20
4.9527
 30
0.0
  0
SPLINE
  5
86
330
1F
100
AcDbEntity
  8
DEFAULT_1
 62
   250
100
AcDbSpline
210
0.0
220
0.0
230
1.0
 70
    24
 71
     3
 72
     8
 73
     4
 74
     0
 42
0.0000000001
 43
0.0000000001
 40
0.0
 40
0.0
 40
0.0
 40
0.0
 40
1.0
 40
1.0
 40
1.0
 40
1.0
 10
18.1696
 20
4.451
 30
0.0
 10
18.1696
 20
4.451
 30
0.0
 10
-18.6131
 20
4.451
 30
0.0
 10
-18.6131
 20
4.451
 30
0.0
  0
SPLINE
  5
87
330
1F
100
AcDbEntity
  8
DEFAULT_1
 62
   250
100
AcDbSpline
210
0.0
220
0.0
230
1.0
 70
    24
 71
     3
 72
     8
 73
     4
 74
     0
 42
0.0000000001
 43
0.0000000001
 40
0.0
 40
0.0
 40
0.0
 40
0.0
 40
1.0
 40
1.0
 40
1.0
 40
1.0
 10
11.8282
 20
4.4511
 30
0.0
 10
11.8282
 20
4.4511
 30
0.0
 10
9.7141
 20
4.4511
 30
0.0
 10
9.7141
 20
4.4511
 30
0.0
  0
SPLINE
  5
88
330
1F
100
AcDbEntity
  8
DEFAULT_1
 62
   250
100
AcDbSpline
210
0.0
220
0.0
230
1.0
 70
    24
 71
     3
 72
     8
 73
     4
 74
     0
 42
0.0000000001
 43
0.0000000001
 40
0.0
 40
0.0
 40
0.0
 40
0.0
 40
1.0
 40
1.0
 40
1.0
 40
1.0
 10
0.5221
 20
4.4511
 30
0.0
 10
0.5221
 20
4.4511
 30
0.0
 10
8.226
 20
4.4511
 30
0.0
 10
8.226
 20
4.4511
 30
0.0
  0
SPLINE
  5
89
330
1F
100
AcDbEntity
  8
DEFAULT_1
 62
   250
100
AcDbSpline
210
0.0
220
0.0
230
1.0
 70
    24
 71
     3
 72
     8
 73
     4
 74
     0
 42
0.0000000001
 43
0.0000000001
 40
0.0
 40
0.0
 40
0.0
 40
0.0
 40
1.0
 40
1.0
 40
1.0
 40
1.0
 10
5.8609
 20
4.4511
 30
0.0
 10
5.8609
 20
4.4511
 30
0.0
 10
6.0658
 20
4.9527
 30
0.0
 10
6.0658
 20
4.9527
 30
0.0
  0
SPLINE
  5
8A
330
1F
100
AcDbEntity
  8
DEFAULT_1
 62
   250
100
AcDbSpline
210
0.0
220
0.0
230
1.0
 70
    24
 71
     3
 72
     8
 73
     4
 74
     0
 42
0.0000000001
 43
0.0000000001
 40
0.0
 40
0.0
 40
0.0
 40
0.0
 40
1.0
 40
1.0
 40
1.0
 40
1.0
 10
6.0658
 20
4.9527
 30
0.0
 10
6.0658
 20
4.9527
 30
0.0
 10
6.8514
 20
4.9527
 30
0.0
 10
6.8514
 20
4.9527
 30
0.0
  0
SPLINE
  5
8B
330
1F
100
AcDbEntity
  8
DEFAULT_1
 62
   250
100
AcDbSpline
210
0.0
220
0.0
230
1.0
 70
    24
 71
     3
 72
     8
 73
     4
 74
     0
 42
0.0000000001
 43
0.0000000001
 40
0.0
 40
0.0
 40
0.0
 40
0.0
 40
1.0
 40
1.0
 40
1.0
 40
1.0
 10
6.8514
 20
4.451
 30
0.0
 10
6.8514
 20
4.451
 30
0.0
 10
6.8514
 20
4.9527
 30
0.0
 10
6.8514
 20
4.9527
 30
0.0
  0
SPLINE
  5
8C
330
1F
100
AcDbEntity
  8
DEFAULT_1
 62
   250
100
AcDbSpline
210
0.0
220
0.0
230
1.0
 70
    24
 71
     3
 72
     8
 73
     4
 74
     0
 42
0.0000000001
 43
0.0000000001
 40
0.0
 40
0.0
 40
0.0
 40
0.0
 40
1.0
 40
1.0
 40
1.0
 40
1.0
 10
-8.6697
 20
4.4511
 30
0.0
 10
-8.6697
 20
4.4511
 30
0.0
 10
-0.9658
 20
4.4511
 30
0.0
 10
-0.9658
 20
4.4511
 30
0.0
  0
SPLINE
  5
8D
330
1F
100
AcDbEntity
  8
DEFAULT_1
 62
   250
100
AcDbSpline
210
0.0
220
0.0
230
1.0
 70
    24
 71
     3
 72
     8
 73
     4
 74
     0
 42
0.0000000001
 43
0.0000000001
 40
0.0
 40
0.0
 40
0.0
 40
0.0
 40
1.0
 40
1.0
 40
1.0
 40
1.0
 10
-7.295
 20
4.9527
 30
0.0
 10
-7.295
 20
4.9527
 30
0.0
 10
-7.295
 20
4.451
 30
0.0
 10
-7.295
 20
4.451
 30
0.0
  0
SPLINE
  5
8E
330
1F
100
AcDbEntity
  8
DEFAULT_1
 62
   250
100
AcDbSpline
210
0.0
220
0.0
230
1.0
 70
    24
 71
     3
 72
     8
 73
     4
 74
     0
 42
0.0000000001
 43
0.0000000001
 40
0.0
 40
0.0
 40
0.0
 40
0.0
 40
1.0
 40
1.0
 40
1.0
 40
1.0
 10
-7.295
 20
4.9527
 30
0.0
 10
-7.295
 20
4.9527
 30
0.0
 10
-6.5095
 20
4.9527
 30
0.0
 10
-6.5095
 20
4.9527
 30
0.0
  0
SPLINE
  5
8F
330
1F
100
AcDbEntity
  8
DEFAULT_1
 62
   250
100
AcDbSpline
210
0.0
220
0.0
230
1.0
 70
    24
 71
     3
 72
     8
 73
     4
 74
     0
 42
0.0000000001
 43
0.0000000001
 40
0.0
 40
0.0
 40
0.0
 40
0.0
 40
1.0
 40
1.0
 40
1.0
 40
1.0
 10
-6.3046
 20
4.4511
 30
0.0
 10
-6.3046
 20
4.4511
 30
0.0
 10
-6.5095
 20
4.9527
 30
0.0
 10
-6.5095
 20
4.9527
 30
0.0
  0
SPLINE
  5
90
330
1F
100
AcDbEntity
  8
DEFAULT_1
 62
   250
100
AcDbSpline
210
0.0
220
0.0
230
1.0
 70
    24
 71
     3
 72
     8
 73
     4
 74
     0
 42
0.0000000001
 43
0.0000000001
 40
0.0
 40
0.0
 40
0.0
 40
0.0
 40
1.0
 40
1.0
 40
1.0
 40
1.0
 10
-12.2719
 20
4.4511
 30
0.0
 10
-12.2719
 20
4.4511
 30
0.0
 10
-10.1578
 20
4.4511
 30
0.0
 10
-10.1578
 20
4.4511
 30
0.0
  0
SPLINE
  5
91
330
1F
100
AcDbEntity
  8
DEFAULT_1
 62
   250
100
AcDbSpline
210
0.0
220
0.0
230
1.0
 70
    24
 71
     3
 72
     8
 73
     4
 74
     0
 42
0.0000000001
 43
0.0000000001
 40
0.0
 40
0.0
 40
0.0
 40
0.0
 40
1.0
 40
1.0
 40
1.0
 40
1.0
 10
-12.5667
 20
1.7375
 30
0.0
 10
-12.5667
 20
1.7375
 30
0.0
 10
-13.9538
 20
1.7375
 30
0.0
 10
-13.9538
 20
1.7375
 30
0.0
  0
SPLINE
  5
92
330
1F
100
AcDbEntity
  8
DEFAULT_1
 62
   250
100
AcDbSpline
210
0.0
220
0.0
230
1.0
 70
    24
 71
     3
 72
     8
 73
     4
 74
     0
 42
0.0000000001
 43
0.0000000001
 40
0.0
 40
0.0
 40
0.0
 40
0.0
 40
1.0
 40
1.0
 40
1.0
 40
1.0
 10
-12.5019
 20
1.7375
 30
0.0
 10
-12.5019
 20
1.7375
 30
0.0
 10
-12.5667
 20
1.7375
 30
0.0
 10
-12.5667
 20
1.7375
 30
0.0
  0
SPLINE
  5
93
330
1F
100
AcDbEntity
  8
DEFAULT_1
 62
   250
100
AcDbSpline
210
0.0
220
0.0
230
1.0
 70
    24
 71
     3
 72
     8
 73
     4
 74
     0
 42
0.0000000001
 43
0.0000000001
 40
0.0
 40
0.0
 40
0.0
 40
0.0
 40
1.0
 40
1.0
 40
1.0
 40
1.0
 10
-10.4841
 20
3.2732
 30
0.0
 10
-10.4841
 20
3.2732
 30
0.0
 10
-10.4894
 20
3.2737
 30
0.0
 10
-10.4894
 20
3.2737
 30
0.0
  0
SPLINE
  5
94
330
1F
100
AcDbEntity
  8
DEFAULT_1
 62
   250
100
AcDbSpline
210
0.0
220
0.0
230
1.0
 70
    24
 71
     3
 72
     8
 73
     4
 74
     0
 42
0.0000000001
 43
0.0000000001
 40
0.0
 40
0.0
 40
0.0
 40
0.0
 40
1.0
 40
1.0
 40
1.0
 40
1.0
 10
12.0197
 20
3.3034
 30
0.0
 10
12.0197
 20
3.3034
 30
0.0
 10
12.0111
 20
3.3075
 30
0.0
 10
12.0111
 20
3.3075
 30
0.0
  0
SPLINE
  5
95
330
1F
100
AcDbEntity
  8
DEFAULT_1
 62
   250
100
AcDbSpline
210
0.0
220
0.0
230
1.0
 70
    24
 71
     3
 72
     8
 73
     4
 74
     0
 42
0.0000000001
 43
0.0000000001
 40
0.0
 40
0.0
 40
0.0
 40
0.0
 40
1.0
 40
1.0
 40
1.0
 40
1.0
 10
12.0363
 20
3.2935
 30
0.0
 10
12.0363
 20
3.2935
 30
0.0
 10
12.0167
 20
3.3055
 30
0.0
 10
12.0167
 20
3.3055
 30
0.0
  0
SPLINE
  5
96
330
1F
100
AcDbEntity
  8
DEFAULT_1
 62
   250
100
AcDbSpline
210
0.0
220
0.0
230
1.0
 70
    24
 71
     3
 72
     8
 73
     4
 74
     0
 42
0.0000000001
 43
0.0000000001
 40
0.0
 40
0.0
 40
0.0
 40
0.0
 40
1.0
 40
1.0
 40
1.0
 40
1.0
 10
0.6303
 20
1.5158
 30
0.0
 10
0.6303
 20
1.5158
 30
0.0
 10
0.6134
 20
1.5216
 30
0.0
 10
0.6134
 20
1.5216
 30
0.0
  0
SPLINE
  5
97
330
1F
100
AcDbEntity
  8
DEFAULT_1
 62
   250
100
AcDbSpline
210
0.0
220
0.0
230
1.0
 70
    24
 71
     3
 72
     8
 73
     4
 74
     0
 42
0.0000000001
 43
0.0000000001
 40
0.0
 40
0.0
 40
0.0
 40
0.0
 40
1.0
 40
1.0
 40
1.0
 40
1.0
 10
0.599
 20
1.4966
 30
0.0
 10
0.599
 20
1.4966
 30
0.0
 10
0.6079
 20
1.5239
 30
0.0
 10
0.6079
 20
1.5239
 30
0.0
  0
SPLINE
  5
98
330
1F
100
AcDbEntity
  8
DEFAULT_1
 62
   250
100
AcDbSpline
210
0.0
220
0.0
230
1.0
 70
    24
 71
     3
 72
     8
 73
     4
 74
     0
 42
0.0000000001
 43
0.0000000001
 40
0.0
 40
0.0
 40
0.0
 40
0.0
 40
1.0
 40
1.0
 40
1.0
 40
1.0
 10
0.6006
 20
1.5013
 30
0.0
 10
0.6006
 20
1.5013
 30
0.0
 10
0.6025
 20
1.5069
 30
0.0
 10
0.6025
 20
1.5069
 30
0.0
  0
SPLINE
  5
99
330
1F
100
AcDbEntity
  8
DEFAULT_1
 62
   250
100
AcDbSpline
210
0.0
220
0.0
230
1.0
 70
    24
 71
     3
 72
     8
 73
     4
 74
     0
 42
0.0000000001
 43
0.0000000001
 40
0.0
 40
0.0
 40
0.0
 40
0.0
 40
1.0
 40
1.0
 40
1.0
 40
1.0
 10
0.5991
 20
1.4966
 30
0.0
 10
0.5991
 20
1.4966
 30
0.0
 10
0.6025
 20
1.5069
 30
0.0
 10
0.6025
 20
1.5069
 30
0.0
  0
SPLINE
  5
9A
330
1F
100
AcDbEntity
  8
DEFAULT_1
 62
   250
100
AcDbSpline
210
0.0
220
0.0
230
1.0
 70
    24
 71
     3
 72
     8
 73
     4
 74
     0
 42
0.0000000001
 43
0.0000000001
 40
0.0
 40
0.0
 40
0.0
 40
0.0
 40
1.0
 40
1.0
 40
1.0
 40
1.0
 10
6.7924
 20
-6.2932
 30
0.0
 10
6.7924
 20
-6.2932
 30
0.0
 10
-8.3212
 20
-6.2932
 30
0.0
 10
-8.3212
 20
-6.2932
 30
0.0
  0
SPLINE
  5
9B
330
1F
100
AcDbEntity
  8
DEFAULT_1
 62
   250
100
AcDbSpline
210
0.0
220
0.0
230
1.0
 70
    24
 71
     3
 72
     8
 73
     4
 74
     0
 42
0.0000000001
 43
0.0000000001
 40
0.0
 40
0.0
 40
0.0
 40
0.0
 40
1.0
 40
1.0
 40
1.0
 40
1.0
 10
6.9118
 20
-3.2647
 30
0.0
 10
6.9118
 20
-3.2647
 30
0.0
 10
6.9825
 20
-2.9622
 30
0.0
 10
6.9825
 20
-2.9622
 30
0.0
  0
SPLINE
  5
9C
330
1F
100
AcDbEntity
  8
DEFAULT_1
 62
   250
100
AcDbSpline
210
0.0
220
0.0
230
1.0
 70
    24
 71
     3
 72
     8
 73
     4
 74
     0
 42
0.0000000001
 43
0.0000000001
 40
0.0
 40
0.0
 40
0.0
 40
0.0
 40
1.0
 40
1.0
 40
1.0
 40
1.0
 10
6.9089
 20
-6.2932
 30
0.0
 10
6.9089
 20
-6.2932
 30
0.0
 10
6.7924
 20
-6.2932
 30
0.0
 10
6.7924
 20
-6.2932
 30
0.0
  0
SPLINE
  5
9D
330
1F
100
AcDbEntity
  8
DEFAULT_1
 62
   250
100
AcDbSpline
210
0.0
220
0.0
230
1.0
 70
    24
 71
     3
 72
     8
 73
     4
 74
     0
 42
0.0000000001
 43
0.0000000001
 40
0.0
 40
0.0
 40
0.0
 40
0.0
 40
1.0
 40
1.0
 40
1.0
 40
1.0
 10
6.9118
 20
-3.2647
 30
0.0
 10
6.9118
 20
-3.2647
 30
0.0
 10
6.8541
 20
-3.5628
 30
0.0
 10
6.8541
 20
-3.5628
 30
0.0
  0
SPLINE
  5
9E
330
1F
100
AcDbEntity
  8
DEFAULT_1
 62
   250
100
AcDbSpline
210
0.0
220
0.0
230
1.0
 70
     8
 71
     3
 72
    12
 73
     8
 74
     0
 42
0.0000000001
 43
0.0000000001
 40
0.0
 40
0.0
 40
0.0
 40
0.0
 40
0.3333333333333333
 40
0.3333333333333333
 40
0.3333333333333333
 40
0.3333333333333333
 40
1.0
 40
1.0
 40
1.0
 40
1.0
 10
-9.4432
 20
1.0055
 30
0.0
 10
-9.7701
 20
1.0195
 30
0.0
 10
-10.0592
 20
1.2175
 30
0.0
 10
-10.1507
 20
1.5404
 30
0.0
 10
-10.1507
 20
1.5404
 30
0.0
 10
-10.1975
 20
1.7054
 30
0.0
 10
-10.1815
 20
1.8997
 30
0.0
 10
-10.1844
 20
2.0627
 30
0.0
  0
SPLINE
  5
9F
330
1F
100
AcDbEntity
  8
DEFAULT_1
 62
   250
100
AcDbSpline
210
0.0
220
0.0
230
1.0
 70
     8
 71
     3
 72
    12
 73
     8
 74
     0
 42
0.0000000001
 43
0.0000000001
 40
0.0
 40
0.0
 40
0.0
 40
0.0
 40
0.3333333333333333
 40
0.3333333333333333
 40
0.3333333333333333
 40
0.3333333333333333
 40
1.0
 40
1.0
 40
1.0
 40
1.0
 10
-10.1844
 20
2.0627
 30
0.0
 10
-10.1844
 20
2.0627
 30
0.0
 10
-10.1998
 20
2.9486
 30
0.0
 10
-10.1998
 20
2.9486
 30
0.0
 10
-10.1998
 20
2.9486
 30
0.0
 10
-10.1998
 20
2.9486
 30
0.0
 10
-10.2057
 20
3.2829
 30
0.0
 10
-10.2057
 20
3.2829
 30
0.0
  0
SPLINE
  5
A0
330
1F
100
AcDbEntity
  8
DEFAULT_1
 62
   250
100
AcDbSpline
210
0.0
220
0.0
230
1.0
 70
     8
 71
     3
 72
    12
 73
     8
 74
     0
 42
0.0000000001
 43
0.0000000001
 40
0.0
 40
0.0
 40
0.0
 40
0.0
 40
0.3333333333333333
 40
0.3333333333333333
 40
0.3333333333333333
 40
0.3333333333333333
 40
1.0
 40
1.0
 40
1.0
 40
1.0
 10
-10.2057
 20
3.2829
 30
0.0
 10
-10.2062
 20
3.3107
 30
0.0
 10
-10.2283
 20
3.3305
 30
0.0
 10
-10.2551
 20
3.3322
 30
0.0
 10
-10.2551
 20
3.3322
 30
0.0
 10
-10.3326
 20
3.3025
 30
0.0
 10
-10.4051
 20
3.2749
 30
0.0
 10
-10.4894
 20
3.2737
 30
0.0
  0
SPLINE
  5
A1
330
1F
100
AcDbEntity
  8
DEFAULT_1
 62
   250
100
AcDbSpline
210
0.0
220
0.0
230
1.0
 70
    24
 71
     3
 72
     8
 73
     4
 74
     0
 42
0.0000000001
 43
0.0000000001
 40
0.0
 40
0.0
 40
0.0
 40
0.0
 40
1.0
 40
1.0
 40
1.0
 40
1.0
 10
-10.4894
 20
3.2737
 30
0.0
 10
-10.4894
 20
3.2737
 30
0.0
 10
-12.5467
 20
3.3097
 30
0.0
 10
-12.5467
 20
3.3097
 30
0.0
  0
SPLINE
  5
A2
330
1F
100
AcDbEntity
  8
DEFAULT_1
 62
   250
100
AcDbSpline
210
0.0
220
0.0
230
1.0
 70
     8
 71
     3
 72
     8
 73
     4
 74
     0
 42
0.0000000001
 43
0.0000000001
 40
0.0
 40
0.0
 40
0.0
 40
0.0
 40
1.0
 40
1.0
 40
1.0
 40
1.0
 10
-13.9647
 20
3.2854
 30
0.0
 10
-13.4744
 20
3.2763
 30
0.0
 10
-12.9842
 20
3.2651
 30
0.0
 10
-12.4939
 20
3.258
 30
0.0
  0
SPLINE
  5
A3
330
1F
100
AcDbEntity
  8
DEFAULT_1
 62
   250
100
AcDbSpline
210
0.0
220
0.0
230
1.0
 70
     8
 71
     3
 72
    12
 73
     8
 74
     0
 42
0.0000000001
 43
0.0000000001
 40
0.0
 40
0.0
 40
0.0
 40
0.0
 40
0.3333333333333333
 40
0.3333333333333333
 40
0.3333333333333333
 40
0.3333333333333333
 40
1.0
 40
1.0
 40
1.0
 40
1.0
 10
-12.4939
 20
3.258
 30
0.0
 10
-12.4939
 20
3.258
 30
0.0
 10
-12.154
 20
3.2525
 30
0.0
 10
-12.154
 20
3.2525
 30
0.0
 10
-12.154
 20
3.2525
 30
0.0
 10
-12.154
 20
3.2525
 30
0.0
 10
-10.8247
 20
3.2293
 30
0.0
 10
-10.8247
 20
3.2293
 30
0.0
  0
SPLINE
  5
A4
330
1F
100
AcDbEntity
  8
DEFAULT_1
 62
   250
100
AcDbSpline
210
0.0
220
0.0
230
1.0
 70
     8
 71
     3
 72
    28
 73
    24
 74
     0
 42
0.0000000001
 43
0.0000000001
 40
0.0
 40
0.0
 40
0.0
 40
0.0
 40
0.1428571428571428
 40
0.1428571428571428
 40
0.1428571428571428
 40
0.1428571428571428
 40
0.2857142857142857
 40
0.2857142857142857
 40
0.2857142857142857
 40
0.2857142857142857
 40
0.4285714285714285
 40
0.4285714285714285
 40
0.4285714285714285
 40
0.4285714285714285
 40
0.5714285714285714
 40
0.5714285714285714
 40
0.5714285714285714
 40
0.5714285714285714
 40
0.7142857142857143
 40
0.7142857142857143
 40
0.7142857142857143
 40
0.7142857142857143
 40
1.0
 40
1.0
 40
1.0
 40
1.0
 10
-10.8247
 20
3.2293
 30
0.0
 10
-10.6947
 20
3.227
 30
0.0
 10
-10.5588
 20
3.2211
 30
0.0
 10
-10.4266
 20
3.2243
 30
0.0
 10
-10.4266
 20
3.2243
 30
0.0
 10
-10.3777
 20
3.2255
 30
0.0
 10
-10.3289
 20
3.2366
 30
0.0
 10
-10.2828
 20
3.2524
 30
0.0
 10
-10.2828
 20
3.2524
 30
0.0
 10
-10.2587
 20
3.2608
 30
0.0
 10
-10.2256
 20
3.2813
 30
0.0
 10
-10.2004
 20
3.2837
 30
0.0
 10
-10.2004
 20
3.2837
 30
0.0
 10
-10.1053
 20
3.2925
 30
0.0
 10
-10.0071
 20
3.2868
 30
0.0
 10
-9.9119
 20
3.2866
 30
0.0
 10
-9.9119
 20
3.2866
 30
0.0
 10
-9.716
 20
3.2861
 30
0.0
 10
-9.5202
 20
3.2841
 30
0.0
 10
-9.3243
 20
3.2815
 30
0.0
 10
-9.3243
 20
3.2815
 30
0.0
 10
-9.166
 20
3.2792
 30
0.0
 10
-9.0078
 20
3.2765
 30
0.0
 10
-8.8495
 20
3.2724
 30
0.0
  0
SPLINE
  5
A5
330
1F
100
AcDbEntity
  8
DEFAULT_1
 62
   250
100
AcDbSpline
210
0.0
220
0.0
230
1.0
 70
    24
 71
     3
 72
     8
 73
     4
 74
     0
 42
0.0000000001
 43
0.0000000001
 40
0.0
 40
0.0
 40
0.0
 40
0.0
 40
1.0
 40
1.0
 40
1.0
 40
1.0
 10
-8.8495
 20
3.2724
 30
0.0
 10
-8.8495
 20
3.2724
 30
0.0
 10
-8.6966
 20
3.2674
 30
0.0
 10
-8.6966
 20
3.2674
 30
0.0
  0
SPLINE
  5
A6
330
1F
100
AcDbEntity
  8
DEFAULT_1
 62
   250
100
AcDbSpline
210
0.0
220
0.0
230
1.0
 70
     8
 71
     3
 72
    12
 73
     8
 74
     0
 42
0.0000000001
 43
0.0000000001
 40
0.0
 40
0.0
 40
0.0
 40
0.0
 40
0.3333333333333333
 40
0.3333333333333333
 40
0.3333333333333333
 40
0.3333333333333333
 40
1.0
 40
1.0
 40
1.0
 40
1.0
 10
-8.6966
 20
3.2674
 30
0.0
 10
-8.6769
 20
3.2665
 30
0.0
 10
-8.6417
 20
3.2705
 30
0.0
 10
-8.6223
 20
3.2622
 30
0.0
 10
-8.6223
 20
3.2622
 30
0.0
 10
-8.5803
 20
3.244
 30
0.0
 10
-8.5407
 20
3.2229
 30
0.0
 10
-8.4973
 20
3.208
 30
0.0
  0
SPLINE
  5
A7
330
1F
100
AcDbEntity
  8
DEFAULT_1
 62
   250
100
AcDbSpline
210
0.0
220
0.0
230
1.0
 70
     8
 71
     3
 72
    20
 73
    16
 74
     0
 42
0.0000000001
 43
0.0000000001
 40
0.0
 40
0.0
 40
0.0
 40
0.0
 40
0.2
 40
0.2
 40
0.2
 40
0.2
 40
0.4
 40
0.4
 40
0.4
 40
0.4
 40
0.6
 40
0.6
 40
0.6
 40
0.6
 40
1.0
 40
1.0
 40
1.0
 40
1.0
 10
-8.4973
 20
3.208
 30
0.0
 10
-8.4973
 20
3.208
 30
0.0
 10
-8.5028
 20
2.8735
 30
0.0
 10
-8.5028
 20
2.8735
 30
0.0
 10
-8.5028
 20
2.8735
 30
0.0
 10
-8.5028
 20
2.8735
 30
0.0
 10
-8.5163
 20
2.0627
 30
0.0
 10
-8.5163
 20
2.0627
 30
0.0
 10
-8.5163
 20
2.0627
 30
0.0
 10
-8.5163
 20
2.0627
 30
0.0
 10
-8.5219
 20
1.7283
 30
0.0
 10
-8.5219
 20
1.7283
 30
0.0
 10
-8.5219
 20
1.7283
 30
0.0
 10
-8.5219
 20
1.7283
 30
0.0
 10
-8.5304
 20
1.6257
 30
0.0
 10
-8.5304
 20
1.6257
 30
0.0
  0
SPLINE
  5
A8
330
1F
100
AcDbEntity
  8
DEFAULT_1
 62
   250
100
AcDbSpline
210
0.0
220
0.0
230
1.0
 70
     8
 71
     3
 72
     8
 73
     4
 74
     0
 42
0.0000000001
 43
0.0000000001
 40
0.0
 40
0.0
 40
0.0
 40
0.0
 40
1.0
 40
1.0
 40
1.0
 40
1.0
 10
-8.5304
 20
1.6257
 30
0.0
 10
-8.5401
 20
1.5565
 30
0.0
 10
-8.5677
 20
1.4982
 30
0.0
 10
-8.5819
 20
1.4316
 30
0.0
  0
SPLINE
  5
A9
330
1F
100
AcDbEntity
  8
DEFAULT_1
 62
   250
100
AcDbSpline
210
0.0
220
0.0
230
1.0
 70
     8
 71
     3
 72
    12
 73
     8
 74
     0
 42
0.0000000001
 43
0.0000000001
 40
0.0
 40
0.0
 40
0.0
 40
0.0
 40
0.3333333333333333
 40
0.3333333333333333
 40
0.3333333333333333
 40
0.3333333333333333
 40
1.0
 40
1.0
 40
1.0
 40
1.0
 10
-8.7831
 20
1.0201
 30
0.0
 10
-8.7703
 20
1.0449
 30
0.0
 10
-8.7231
 20
1.0635
 30
0.0
 10
-8.7018
 20
1.0798
 30
0.0
 10
-8.7018
 20
1.0798
 30
0.0
 10
-8.6297
 20
1.1357
 30
0.0
 10
-8.5672
 20
1.202
 30
0.0
 10
-8.5168
 20
1.2782
 30
0.0
  0
SPLINE
  5
AA
330
1F
100
AcDbEntity
  8
DEFAULT_1
 62
   250
100
AcDbSpline
210
0.0
220
0.0
230
1.0
 70
     8
 71
     3
 72
    12
 73
     8
 74
     0
 42
0.0000000001
 43
0.0000000001
 40
0.0
 40
0.0
 40
0.0
 40
0.0
 40
0.3333333333333333
 40
0.3333333333333333
 40
0.3333333333333333
 40
0.3333333333333333
 40
1.0
 40
1.0
 40
1.0
 40
1.0
 10
-8.5168
 20
1.2782
 30
0.0
 10
-8.5168
 20
1.2782
 30
0.0
 10
-8.4829
 20
1.3346
 30
0.0
 10
-8.4829
 20
1.3346
 30
0.0
 10
-8.4829
 20
1.3346
 30
0.0
 10
-8.4829
 20
1.3346
 30
0.0
 10
-8.4511
 20
1.399
 30
0.0
 10
-8.4511
 20
1.399
 30
0.0
  0
SPLINE
  5
AB
330
1F
100
AcDbEntity
  8
DEFAULT_1
 62
   250
100
AcDbSpline
210
0.0
220
0.0
230
1.0
 70
     8
 71
     3
 72
    12
 73
     8
 74
     0
 42
0.0000000001
 43
0.0000000001
 40
0.0
 40
0.0
 40
0.0
 40
0.0
 40
0.3333333333333333
 40
0.3333333333333333
 40
0.3333333333333333
 40
0.3333333333333333
 40
1.0
 40
1.0
 40
1.0
 40
1.0
 10
-8.4511
 20
1.399
 30
0.0
 10
-8.4317
 20
1.4411
 30
0.0
 10
-8.5182
 20
1.4523
 30
0.0
 10
-8.5356
 20
1.459
 30
0.0
 10
-8.5356
 20
1.459
 30
0.0
 10
-8.5549
 20
1.457
 30
0.0
 10
-8.5593
 20
1.4529
 30
0.0
 10
-8.5754
 20
1.4401
 30
0.0
  0
SPLINE
  5
AC
330
1F
100
AcDbEntity
  8
DEFAULT_1
 62
   250
100
AcDbSpline
210
0.0
220
0.0
230
1.0
 70
    24
 71
     3
 72
     8
 73
     4
 74
     0
 42
0.0000000001
 43
0.0000000001
 40
0.0
 40
0.0
 40
0.0
 40
0.0
 40
1.0
 40
1.0
 40
1.0
 40
1.0
 10
-0.3663
 20
1.0055
 30
0.0
 10
-0.3663
 20
1.0055
 30
0.0
 10
-0.5293
 20
1.0237
 30
0.0
 10
-0.5293
 20
1.0237
 30
0.0
  0
SPLINE
  5
AD
330
1F
100
AcDbEntity
  8
DEFAULT_1
 62
   250
100
AcDbSpline
210
0.0
220
0.0
230
1.0
 70
     8
 71
     3
 72
    32
 73
    28
 74
     0
 42
0.0000000001
 43
0.0000000001
 40
0.0
 40
0.0
 40
0.0
 40
0.0
 40
0.125
 40
0.125
 40
0.125
 40
0.125
 40
0.25
 40
0.25
 40
0.25
 40
0.25
 40
0.375
 40
0.375
 40
0.375
 40
0.375
 40
0.5
 40
0.5
 40
0.5
 40
0.5
 40
0.625
 40
0.625
 40
0.625
 40
0.625
 40
0.75
 40
0.75
 40
0.75
 40
0.75
 40
1.0
 40
1.0
 40
1.0
 40
1.0
 10
-0.5293
 20
1.0237
 30
0.0
 10
-0.6557
 20
1.0401
 30
0.0
 10
-0.794
 20
1.1282
 30
0.0
 10
-0.8826
 20
1.2164
 30
0.0
 10
-0.8826
 20
1.2164
 30
0.0
 10
-0.9341
 20
1.2676
 30
0.0
 10
-0.9606
 20
1.3034
 30
0.0
 10
-1.0001
 20
1.366
 30
0.0
 10
-1.0001
 20
1.366
 30
0.0
 10
-1.0184
 20
1.3948
 30
0.0
 10
-1.0301
 20
1.4479
 30
0.0
 10
-1.0743
 20
1.4483
 30
0.0
 10
-1.0743
 20
1.4483
 30
0.0
 10
-3.5488
 20
1.4699
 30
0.0
 10
-6.0237
 20
1.4483
 30
0.0
 10
-8.4984
 20
1.4483
 30
0.0
 10
-8.4984
 20
1.4483
 30
0.0
 10
-8.5488
 20
1.4394
 30
0.0
 10
-8.5489
 20
1.4017
 30
0.0
 10
-8.574
 20
1.3597
 30
0.0
 10
-8.574
 20
1.3597
 30
0.0
 10
-8.6164
 20
1.2887
 30
0.0
 10
-8.6627
 20
1.2245
 30
0.0
 10
-8.7232
 20
1.168
 30
0.0
 10
-8.7232
 20
1.168
 30
0.0
 10
-8.7612
 20
1.1325
 30
0.0
 10
-8.8217
 20
1.1058
 30
0.0
 10
-8.853
 20
1.0653
 30
0.0
  0
SPLINE
  5
AE
330
1F
100
AcDbEntity
  8
DEFAULT_1
 62
   250
100
AcDbSpline
210
0.0
220
0.0
230
1.0
 70
     8
 71
     3
 72
    12
 73
     8
 74
     0
 42
0.0000000001
 43
0.0000000001
 40
0.0
 40
0.0
 40
0.0
 40
0.0
 40
0.3333333333333333
 40
0.3333333333333333
 40
0.3333333333333333
 40
0.3333333333333333
 40
1.0
 40
1.0
 40
1.0
 40
1.0
 10
-9.3844
 20
1.0055
 30
0.0
 10
-9.0799
 20
1.0186
 30
0.0
 10
-8.8075
 20
1.1884
 30
0.0
 10
-8.6968
 20
1.4802
 30
0.0
 10
-8.6968
 20
1.4802
 30
0.0
 10
-8.627
 20
1.6638
 30
0.0
 10
-8.6465
 20
1.8722
 30
0.0
 10
-8.6432
 20
2.0627
 30
0.0
  0
SPLINE
  5
AF
330
1F
100
AcDbEntity
  8
DEFAULT_1
 62
   250
100
AcDbSpline
210
0.0
220
0.0
230
1.0
 70
     8
 71
     3
 72
    12
 73
     8
 74
     0
 42
0.0000000001
 43
0.0000000001
 40
0.0
 40
0.0
 40
0.0
 40
0.0
 40
0.3333333333333333
 40
0.3333333333333333
 40
0.3333333333333333
 40
0.3333333333333333
 40
1.0
 40
1.0
 40
1.0
 40
1.0
 10
-8.6432
 20
2.0627
 30
0.0
 10
-8.6432
 20
2.0627
 30
0.0
 10
-8.6281
 20
2.9276
 30
0.0
 10
-8.6281
 20
2.9276
 30
0.0
 10
-8.6281
 20
2.9276
 30
0.0
 10
-8.6281
 20
2.9276
 30
0.0
 10
-8.6219
 20
3.2677
 30
0.0
 10
-8.6219
 20
3.2677
 30
0.0
  0
SPLINE
  5
B0
330
1F
100
AcDbEntity
  8
DEFAULT_1
 62
   250
100
AcDbSpline
210
0.0
220
0.0
230
1.0
 70
     8
 71
     3
 72
     8
 73
     4
 74
     0
 42
0.0000000001
 43
0.0000000001
 40
0.0
 40
0.0
 40
0.0
 40
0.0
 40
1.0
 40
1.0
 40
1.0
 40
1.0
 10
-8.6219
 20
3.2677
 30
0.0
 10
-8.6079
 20
3.3002
 30
0.0
 10
-8.553
 20
3.3339
 30
0.0
 10
-8.5284
 20
3.2872
 30
0.0
  0
SPLINE
  5
B1
330
1F
100
AcDbEntity
  8
DEFAULT_1
 62
   250
100
AcDbSpline
210
0.0
220
0.0
230
1.0
 70
     8
 71
     3
 72
    12
 73
     8
 74
     0
 42
0.0000000001
 43
0.0000000001
 40
0.0
 40
0.0
 40
0.0
 40
0.0
 40
0.3333333333333333
 40
0.3333333333333333
 40
0.3333333333333333
 40
0.3333333333333333
 40
1.0
 40
1.0
 40
1.0
 40
1.0
 10
-10.2495
 20
3.333
 30
0.0
 10
-9.9722
 20
3.3493
 30
0.0
 10
-9.6905
 20
3.3351
 30
0.0
 10
-9.4133
 20
3.3319
 30
0.0
 10
-9.4133
 20
3.3319
 30
0.0
 10
-9.1366
 20
3.3286
 30
0.0
 10
-8.8535
 20
3.3372
 30
0.0
 10
-8.5772
 20
3.3125
 30
0.0
  0
SPLINE
  5
B2
330
1F
100
AcDbEntity
  8
DEFAULT_1
 62
   250
100
AcDbSpline
210
0.0
220
0.0
230
1.0
 70
     8
 71
     3
 72
     8
 73
     4
 74
     0
 42
0.0000000001
 43
0.0000000001
 40
0.0
 40
0.0
 40
0.0
 40
0.0
 40
1.0
 40
1.0
 40
1.0
 40
1.0
 10
8.0517
 20
3.2067
 30
0.0
 10
8.0485
 20
3.2071
 30
0.0
 10
8.0455
 20
3.2077
 30
0.0
 10
8.0424
 20
3.2087
 30
0.0
  0
SPLINE
  5
B3
330
1F
100
AcDbEntity
  8
DEFAULT_1
 62
   250
100
AcDbSpline
210
0.0
220
0.0
230
1.0
 70
     8
 71
     3
 72
    32
 73
    28
 74
     0
 42
0.0000000001
 43
0.0000000001
 40
0.0
 40
0.0
 40
0.0
 40
0.0
 40
0.125
 40
0.125
 40
0.125
 40
0.125
 40
0.25
 40
0.25
 40
0.25
 40
0.25
 40
0.375
 40
0.375
 40
0.375
 40
0.375
 40
0.5
 40
0.5
 40
0.5
 40
0.5
 40
0.625
 40
0.625
 40
0.625
 40
0.625
 40
0.75
 40
0.75
 40
0.75
 40
0.75
 40
1.0
 40
1.0
 40
1.0
 40
1.0
 10
8.0424
 20
3.2087
 30
0.0
 10
8.0424
 20
3.2087
 30
0.0
 10
8.0353
 20
3.2086
 30
0.0
 10
8.0353
 20
3.2086
 30
0.0
 10
8.0353
 20
3.2086
 30
0.0
 10
8.0353
 20
3.2086
 30
0.0
 10
8.0225
 20
3.2087
 30
0.0
 10
8.0225
 20
3.2087
 30
0.0
 10
8.0225
 20
3.2087
 30
0.0
 10
8.0225
 20
3.2087
 30
0.0
 10
8.0192
 20
3.2087
 30
0.0
 10
8.0192
 20
3.2087
 30
0.0
 10
8.0192
 20
3.2087
 30
0.0
 10
8.0192
 20
3.2087
 30
0.0
 10
7.9993
 20
3.2097
 30
0.0
 10
7.9993
 20
3.2097
 30
0.0
 10
7.9993
 20
3.2097
 30
0.0
 10
7.9993
 20
3.2097
 30
0.0
 10
7.9828
 20
3.2082
 30
0.0
 10
7.9828
 20
3.2082
 30
0.0
 10
7.9828
 20
3.2082
 30
0.0
 10
7.9828
 20
3.2082
 30
0.0
 10
7.9714
 20
3.2101
 30
0.0
 10
7.9714
 20
3.2101
 30
0.0
 10
7.9714
 20
3.2101
 30
0.0
 10
7.9714
 20
3.2101
 30
0.0
 10
7.9592
 20
3.207
 30
0.0
 10
7.9592
 20
3.207
 30
0.0
  0
SPLINE
  5
B4
330
1F
100
AcDbEntity
  8
DEFAULT_1
 62
   250
100
AcDbSpline
210
0.0
220
0.0
230
1.0
 70
     8
 71
     3
 72
     8
 73
     4
 74
     0
 42
0.0000000001
 43
0.0000000001
 40
0.0
 40
0.0
 40
0.0
 40
0.0
 40
1.0
 40
1.0
 40
1.0
 40
1.0
 10
7.9592
 20
3.207
 30
0.0
 10
5.5433
 20
3.207
 30
0.0
 10
3.1276
 20
3.2023
 30
0.0
 10
0.7117
 20
3.207
 30
0.0
  0
SPLINE
  5
B5
330
1F
100
AcDbEntity
  8
DEFAULT_1
 62
   250
100
AcDbSpline
210
0.0
220
0.0
230
1.0
 70
    24
 71
     3
 72
     8
 73
     4
 74
     0
 42
0.0000000001
 43
0.0000000001
 40
0.0
 40
0.0
 40
0.0
 40
0.0
 40
1.0
 40
1.0
 40
1.0
 40
1.0
 10
0.7117
 20
3.207
 30
0.0
 10
0.7117
 20
3.207
 30
0.0
 10
0.6666
 20
3.208
 30
0.0
 10
0.6666
 20
3.208
 30
0.0
  0
SPLINE
  5
B6
330
1F
100
AcDbEntity
  8
DEFAULT_1
 62
   250
100
AcDbSpline
210
0.0
220
0.0
230
1.0
 70
     8
 71
     3
 72
    20
 73
    16
 74
     0
 42
0.0000000001
 43
0.0000000001
 40
0.0
 40
0.0
 40
0.0
 40
0.0
 40
0.2
 40
0.2
 40
0.2
 40
0.2
 40
0.4
 40
0.4
 40
0.4
 40
0.4
 40
0.6
 40
0.6
 40
0.6
 40
0.6
 40
1.0
 40
1.0
 40
1.0
 40
1.0
 10
0.6666
 20
3.208
 30
0.0
 10
0.6267
 20
3.2277
 30
0.0
 10
0.5985
 20
3.2718
 30
0.0
 10
0.5518
 20
3.2756
 30
0.0
 10
0.5518
 20
3.2756
 30
0.0
 10
0.2957
 20
3.296
 30
0.0
 10
0.0348
 20
3.2864
 30
0.0
 10
-0.2218
 20
3.2867
 30
0.0
 10
-0.2218
 20
3.2867
 30
0.0
 10
-0.4784
 20
3.2864
 30
0.0
 10
-0.7393
 20
3.296
 30
0.0
 10
-0.9955
 20
3.2756
 30
0.0
 10
-0.9955
 20
3.2756
 30
0.0
 10
-1.0422
 20
3.2718
 30
0.0
 10
-1.0704
 20
3.2277
 30
0.0
 10
-1.1103
 20
3.208
 30
0.0
  0
SPLINE
  5
B7
330
1F
100
AcDbEntity
  8
DEFAULT_1
 62
   250
100
AcDbSpline
210
0.0
220
0.0
230
1.0
 70
     8
 71
     3
 72
    52
 73
    48
 74
     0
 42
0.0000000001
 43
0.0000000001
 40
0.0
 40
0.0
 40
0.0
 40
0.0
 40
0.0769230769230769
 40
0.0769230769230769
 40
0.0769230769230769
 40
0.0769230769230769
 40
0.1538461538461539
 40
0.1538461538461539
 40
0.1538461538461539
 40
0.1538461538461539
 40
0.2307692307692308
 40
0.2307692307692308
 40
0.2307692307692308
 40
0.2307692307692308
 40
0.3076923076923077
 40
0.3076923076923077
 40
0.3076923076923077
 40
0.3076923076923077
 40
0.3846153846153846
 40
0.3846153846153846
 40
0.3846153846153846
 40
0.3846153846153846
 40
0.4615384615384616
 40
0.4615384615384616
 40
0.4615384615384616
 40
0.4615384615384616
 40
0.5384615384615384
 40
0.5384615384615384
 40
0.5384615384615384
 40
0.5384615384615384
 40
0.6153846153846154
 40
0.6153846153846154
 40
0.6153846153846154
 40
0.6153846153846154
 40
0.6923076923076923
 40
0.6923076923076923
 40
0.6923076923076923
 40
0.6923076923076923
 40
0.7692307692307693
 40
0.7692307692307693
 40
0.7692307692307693
 40
0.7692307692307693
 40
0.8461538461538461
 40
0.8461538461538461
 40
0.8461538461538461
 40
0.8461538461538461
 40
1.0
 40
1.0
 40
1.0
 40
1.0
 10
-1.1103
 20
3.208
 30
0.0
 10
-1.1103
 20
3.208
 30
0.0
 10
-1.1554
 20
3.207
 30
0.0
 10
-1.1554
 20
3.207
 30
0.0
 10
-1.1554
 20
3.207
 30
0.0
 10
-1.1554
 20
3.207
 30
0.0
 10
-1.4898
 20
3.207
 30
0.0
 10
-1.4898
 20
3.207
 30
0.0
 10
-1.4898
 20
3.207
 30
0.0
 10
-1.4898
 20
3.207
 30
0.0
 10
-8.0685
 20
3.207
 30
0.0
 10
-8.0685
 20
3.207
 30
0.0
 10
-8.0685
 20
3.207
 30
0.0
 10
-8.0685
 20
3.207
 30
0.0
 10
-8.4029
 20
3.207
 30
0.0
 10
-8.4029
 20
3.207
 30
0.0
 10
-8.4029
 20
3.207
 30
0.0
 10
-8.4029
 20
3.207
 30
0.0
 10
-8.4152
 20
3.2102
 30
0.0
 10
-8.4152
 20
3.2102
 30
0.0
 10
-8.4152
 20
3.2102
 30
0.0
 10
-8.4152
 20
3.2102
 30
0.0
 10
-8.4266
 20
3.2083
 30
0.0
 10
-8.4266
 20
3.2083
 30
0.0
 10
-8.4266
 20
3.2083
 30
0.0
 10
-8.4266
 20
3.2083
 30
0.0
 10
-8.4428
 20
3.2097
 30
0.0
 10
-8.4428
 20
3.2097
 30
0.0
 10
-8.4428
 20
3.2097
 30
0.0
 10
-8.4428
 20
3.2097
 30
0.0
 10
-8.4628
 20
3.2089
 30
0.0
 10
-8.4628
 20
3.2089
 30
0.0
 10
-8.4628
 20
3.2089
 30
0.0
 10
-8.4628
 20
3.2089
 30
0.0
 10
-8.4664
 20
3.2089
 30
0.0
 10
-8.4664
 20
3.2089
 30
0.0
 10
-8.4664
 20
3.2089
 30
0.0
 10
-8.4664
 20
3.2089
 30
0.0
 10
-8.4791
 20
3.2086
 30
0.0
 10
-8.4791
 20
3.2086
 30
0.0
 10
-8.4791
 20
3.2086
 30
0.0
 10
-8.4791
 20
3.2086
 30
0.0
 10
-8.4861
 20
3.2087
 30
0.0
 10
-8.4861
 20
3.2087
 30
0.0
 10
-8.4861
 20
3.2087
 30
0.0
 10
-8.4861
 20
3.2087
 30
0.0
 10
-8.4949
 20
3.2067
 30
0.0
 10
-8.4949
 20
3.2067
 30
0.0
  0
SPLINE
  5
B8
330
1F
100
AcDbEntity
  8
DEFAULT_1
 62
   250
100
AcDbSpline
210
0.0
220
0.0
230
1.0
 70
     8
 71
     3
 72
     8
 73
     4
 74
     0
 42
0.0000000001
 43
0.0000000001
 40
0.0
 40
0.0
 40
0.0
 40
0.0
 40
1.0
 40
1.0
 40
1.0
 40
1.0
 10
-8.4696
 20
3.2654
 30
0.0
 10
-8.4907
 20
3.2693
 30
0.0
 10
-8.5076
 20
3.2815
 30
0.0
 10
-8.5284
 20
3.2872
 30
0.0
  0
SPLINE
  5
B9
330
1F
100
AcDbEntity
  8
DEFAULT_1
 62
   250
100
AcDbSpline
210
0.0
220
0.0
230
1.0
 70
     8
 71
     3
 72
     8
 73
     4
 74
     0
 42
0.0000000001
 43
0.0000000001
 40
0.0
 40
0.0
 40
0.0
 40
0.0
 40
1.0
 40
1.0
 40
1.0
 40
1.0
 10
-8.4973
 20
3.208
 30
0.0
 10
-8.4943
 20
3.2399
 30
0.0
 10
-8.4786
 20
3.2464
 30
0.0
 10
-8.4522
 20
3.2569
 30
0.0
  0
SPLINE
  5
BA
330
1F
100
AcDbEntity
  8
DEFAULT_1
 62
   250
100
AcDbSpline
210
0.0
220
0.0
230
1.0
 70
     8
 71
     3
 72
    16
 73
    12
 74
     0
 42
0.0000000001
 43
0.0000000001
 40
0.0
 40
0.0
 40
0.0
 40
0.0
 40
0.25
 40
0.25
 40
0.25
 40
0.25
 40
0.5
 40
0.5
 40
0.5
 40
0.5
 40
1.0
 40
1.0
 40
1.0
 40
1.0
 10
-8.4522
 20
3.2569
 30
0.0
 10
-8.4522
 20
3.2569
 30
0.0
 10
-8.112
 20
3.2572
 30
0.0
 10
-8.112
 20
3.2572
 30
0.0
 10
-8.112
 20
3.2572
 30
0.0
 10
-8.112
 20
3.2572
 30
0.0
 10
-1.4948
 20
3.2572
 30
0.0
 10
-1.4948
 20
3.2572
 30
0.0
 10
-1.4948
 20
3.2572
 30
0.0
 10
-1.4948
 20
3.2572
 30
0.0
 10
-1.1603
 20
3.2572
 30
0.0
 10
-1.1603
 20
3.2572
 30
0.0
  0
SPLINE
  5
BB
330
1F
100
AcDbEntity
  8
DEFAULT_1
 62
   250
100
AcDbSpline
210
0.0
220
0.0
230
1.0
 70
     8
 71
     3
 72
     8
 73
     4
 74
     0
 42
0.0000000001
 43
0.0000000001
 40
0.0
 40
0.0
 40
0.0
 40
0.0
 40
1.0
 40
1.0
 40
1.0
 40
1.0
 10
-1.1603
 20
3.2572
 30
0.0
 10
-1.1336
 20
3.2572
 30
0.0
 10
-1.1108
 20
3.2348
 30
0.0
 10
-1.1103
 20
3.208
 30
0.0
  0
SPLINE
  5
BC
330
1F
100
AcDbEntity
  8
DEFAULT_1
 62
   250
100
AcDbSpline
210
0.0
220
0.0
230
1.0
 70
     8
 71
     3
 72
    12
 73
     8
 74
     0
 42
0.0000000001
 43
0.0000000001
 40
0.0
 40
0.0
 40
0.0
 40
0.0
 40
0.3333333333333333
 40
0.3333333333333333
 40
0.3333333333333333
 40
0.3333333333333333
 40
1.0
 40
1.0
 40
1.0
 40
1.0
 10
-1.1103
 20
3.208
 30
0.0
 10
-1.1103
 20
3.208
 30
0.0
 10
-1.1044
 20
2.8735
 30
0.0
 10
-1.1044
 20
2.8735
 30
0.0
 10
-1.1044
 20
2.8735
 30
0.0
 10
-1.1044
 20
2.8735
 30
0.0
 10
-1.0903
 20
2.0627
 30
0.0
 10
-1.0903
 20
2.0627
 30
0.0
  0
SPLINE
  5
BD
330
1F
100
AcDbEntity
  8
DEFAULT_1
 62
   250
100
AcDbSpline
210
0.0
220
0.0
230
1.0
 70
     8
 71
     3
 72
     8
 73
     4
 74
     0
 42
0.0000000001
 43
0.0000000001
 40
0.0
 40
0.0
 40
0.0
 40
0.0
 40
1.0
 40
1.0
 40
1.0
 40
1.0
 10
-1.0903
 20
2.0627
 30
0.0
 10
-1.0871
 20
1.881
 30
0.0
 10
-1.1034
 20
1.6858
 30
0.0
 10
-1.0468
 20
1.5086
 30
0.0
  0
SPLINE
  5
BE
330
1F
100
AcDbEntity
  8
DEFAULT_1
 62
   250
100
AcDbSpline
210
0.0
220
0.0
230
1.0
 70
     8
 71
     3
 72
    28
 73
    24
 74
     0
 42
0.0000000001
 43
0.0000000001
 40
0.0
 40
0.0
 40
0.0
 40
0.0
 40
0.1428571428571428
 40
0.1428571428571428
 40
0.1428571428571428
 40
0.1428571428571428
 40
0.2857142857142857
 40
0.2857142857142857
 40
0.2857142857142857
 40
0.2857142857142857
 40
0.4285714285714285
 40
0.4285714285714285
 40
0.4285714285714285
 40
0.4285714285714285
 40
0.5714285714285714
 40
0.5714285714285714
 40
0.5714285714285714
 40
0.5714285714285714
 40
0.7142857142857143
 40
0.7142857142857143
 40
0.7142857142857143
 40
0.7142857142857143
 40
1.0
 40
1.0
 40
1.0
 40
1.0
 10
-1.0722
 20
1.4434
 30
0.0
 10
-1.07
 20
1.4315
 30
0.0
 10
-1.0746
 20
1.4088
 30
0.0
 10
-1.0694
 20
1.399
 30
0.0
 10
-1.0694
 20
1.399
 30
0.0
 10
-0.9633
 20
1.2017
 30
0.0
 10
-0.8095
 20
1.0656
 30
0.0
 10
-0.5972
 20
0.9915
 30
0.0
 10
-0.5972
 20
0.9915
 30
0.0
 10
-0.5238
 20
0.9659
 30
0.0
 10
-0.4425
 20
0.9574
 30
0.0
 10
-0.3654
 20
0.9562
 30
0.0
 10
-0.3654
 20
0.9562
 30
0.0
 10
-0.2198
 20
0.9538
 30
0.0
 10
-0.0536
 20
0.9432
 30
0.0
 10
0.0934
 20
0.9753
 30
0.0
 10
0.0934
 20
0.9753
 30
0.0
 10
0.3316
 20
1.0274
 30
0.0
 10
0.5126
 20
1.1887
 30
0.0
 10
0.6257
 20
1.399
 30
0.0
 10
0.6257
 20
1.399
 30
0.0
 10
0.6317
 20
1.41
 30
0.0
 10
0.6258
 20
1.4331
 30
0.0
 10
0.6293
 20
1.4465
 30
0.0
  0
SPLINE
  5
BF
330
1F
100
AcDbEntity
  8
DEFAULT_1
 62
   250
100
AcDbSpline
210
0.0
220
0.0
230
1.0
 70
     8
 71
     3
 72
     8
 73
     4
 74
     0
 42
0.0000000001
 43
0.0000000001
 40
0.0
 40
0.0
 40
0.0
 40
0.0
 40
1.0
 40
1.0
 40
1.0
 40
1.0
 10
0.6079
 20
1.5239
 30
0.0
 10
0.659
 20
1.696
 30
0.0
 10
0.6435
 20
1.8882
 30
0.0
 10
0.6465
 20
2.0627
 30
0.0
  0
SPLINE
  5
C0
330
1F
100
AcDbEntity
  8
DEFAULT_1
 62
   250
100
AcDbSpline
210
0.0
220
0.0
230
1.0
 70
     8
 71
     3
 72
    32
 73
    28
 74
     0
 42
0.0000000001
 43
0.0000000001
 40
0.0
 40
0.0
 40
0.0
 40
0.0
 40
0.125
 40
0.125
 40
0.125
 40
0.125
 40
0.25
 40
0.25
 40
0.25
 40
0.25
 40
0.375
 40
0.375
 40
0.375
 40
0.375
 40
0.5
 40
0.5
 40
0.5
 40
0.5
 40
0.625
 40
0.625
 40
0.625
 40
0.625
 40
0.75
 40
0.75
 40
0.75
 40
0.75
 40
1.0
 40
1.0
 40
1.0
 40
1.0
 10
0.6465
 20
2.0627
 30
0.0
 10
0.6465
 20
2.0627
 30
0.0
 10
0.6608
 20
2.8735
 30
0.0
 10
0.6608
 20
2.8735
 30
0.0
 10
0.6608
 20
2.8735
 30
0.0
 10
0.6608
 20
2.8735
 30
0.0
 10
0.6666
 20
3.208
 30
0.0
 10
0.6666
 20
3.208
 30
0.0
 10
0.6666
 20
3.208
 30
0.0
 10
0.6666
 20
3.208
 30
0.0
 10
0.6815
 20
3.2426
 30
0.0
 10
0.6815
 20
3.2426
 30
0.0
 10
0.6815
 20
3.2426
 30
0.0
 10
0.6815
 20
3.2426
 30
0.0
 10
0.7167
 20
3.2572
 30
0.0
 10
0.7167
 20
3.2572
 30
0.0
 10
0.7167
 20
3.2572
 30
0.0
 10
0.7167
 20
3.2572
 30
0.0
 10
1.051
 20
3.2572
 30
0.0
 10
1.051
 20
3.2572
 30
0.0
 10
1.051
 20
3.2572
 30
0.0
 10
1.051
 20
3.2572
 30
0.0
 10
7.6683
 20
3.2572
 30
0.0
 10
7.6683
 20
3.2572
 30
0.0
 10
7.6683
 20
3.2572
 30
0.0
 10
7.6683
 20
3.2572
 30
0.0
 10
8.0084
 20
3.2569
 30
0.0
 10
8.0084
 20
3.2569
 30
0.0
  0
SPLINE
  5
C1
330
1F
100
AcDbEntity
  8
DEFAULT_1
 62
   250
100
AcDbSpline
210
0.0
220
0.0
230
1.0
 70
     8
 71
     3
 72
     8
 73
     4
 74
     0
 42
0.0000000001
 43
0.0000000001
 40
0.0
 40
0.0
 40
0.0
 40
0.0
 40
1.0
 40
1.0
 40
1.0
 40
1.0
 10
8.0084
 20
3.2569
 30
0.0
 10
8.0329
 20
3.2473
 30
0.0
 10
8.053
 20
3.2393
 30
0.0
 10
8.0535
 20
3.208
 30
0.0
  0
SPLINE
  5
C2
330
1F
100
AcDbEntity
  8
DEFAULT_1
 62
   250
100
AcDbSpline
210
0.0
220
0.0
230
1.0
 70
     8
 71
     3
 72
    20
 73
    16
 74
     0
 42
0.0000000001
 43
0.0000000001
 40
0.0
 40
0.0
 40
0.0
 40
0.0
 40
0.2
 40
0.2
 40
0.2
 40
0.2
 40
0.4
 40
0.4
 40
0.4
 40
0.4
 40
0.6
 40
0.6
 40
0.6
 40
0.6
 40
1.0
 40
1.0
 40
1.0
 40
1.0
 10
8.0535
 20
3.208
 30
0.0
 10
8.0535
 20
3.208
 30
0.0
 10
8.0592
 20
2.8737
 30
0.0
 10
8.0592
 20
2.8737
 30
0.0
 10
8.0592
 20
2.8737
 30
0.0
 10
8.0592
 20
2.8737
 30
0.0
 10
8.0726
 20
2.0627
 30
0.0
 10
8.0726
 20
2.0627
 30
0.0
 10
8.0726
 20
2.0627
 30
0.0
 10
8.0726
 20
2.0627
 30
0.0
 10
8.0781
 20
1.7283
 30
0.0
 10
8.0781
 20
1.7283
 30
0.0
 10
8.0781
 20
1.7283
 30
0.0
 10
8.0781
 20
1.7283
 30
0.0
 10
8.0824
 20
1.6597
 30
0.0
 10
8.0824
 20
1.6597
 30
0.0
  0
SPLINE
  5
C3
330
1F
100
AcDbEntity
  8
DEFAULT_1
 62
   250
100
AcDbSpline
210
0.0
220
0.0
230
1.0
 70
     8
 71
     3
 72
     8
 73
     4
 74
     0
 42
0.0000000001
 43
0.0000000001
 40
0.0
 40
0.0
 40
0.0
 40
0.0
 40
1.0
 40
1.0
 40
1.0
 40
1.0
 10
8.0824
 20
1.6597
 30
0.0
 10
8.0911
 20
1.5773
 30
0.0
 10
8.1231
 20
1.5097
 30
0.0
 10
8.1384
 20
1.4313
 30
0.0
  0
SPLINE
  5
C4
330
1F
100
AcDbEntity
  8
DEFAULT_1
 62
   250
100
AcDbSpline
210
0.0
220
0.0
230
1.0
 70
     8
 71
     3
 72
    16
 73
    12
 74
     0
 42
0.0000000001
 43
0.0000000001
 40
0.0
 40
0.0
 40
0.0
 40
0.0
 40
0.25
 40
0.25
 40
0.25
 40
0.25
 40
0.5
 40
0.5
 40
0.5
 40
0.5
 40
1.0
 40
1.0
 40
1.0
 40
1.0
 10
8.0405
 20
1.4458
 30
0.0
 10
7.9752
 20
1.4219
 30
0.0
 10
8.0307
 20
1.3487
 30
0.0
 10
8.0526
 20
1.3127
 30
0.0
 10
8.0526
 20
1.3127
 30
0.0
 10
8.1017
 20
1.2319
 30
0.0
 10
8.1602
 20
1.1603
 30
0.0
 10
8.233
 20
1.0999
 30
0.0
 10
8.233
 20
1.0999
 30
0.0
 10
8.2598
 20
1.0775
 30
0.0
 10
8.3243
 20
1.0502
 30
0.0
 10
8.3393
 20
1.02
 30
0.0
  0
SPLINE
  5
C5
330
1F
100
AcDbEntity
  8
DEFAULT_1
 62
   250
100
AcDbSpline
210
0.0
220
0.0
230
1.0
 70
     8
 71
     3
 72
    12
 73
     8
 74
     0
 42
0.0000000001
 43
0.0000000001
 40
0.0
 40
0.0
 40
0.0
 40
0.0
 40
0.3333333333333333
 40
0.3333333333333333
 40
0.3333333333333333
 40
0.3333333333333333
 40
1.0
 40
1.0
 40
1.0
 40
1.0
 10
8.9407
 20
1.0055
 30
0.0
 10
8.6138
 20
1.0195
 30
0.0
 10
8.3247
 20
1.2175
 30
0.0
 10
8.2331
 20
1.5404
 30
0.0
 10
8.2331
 20
1.5404
 30
0.0
 10
8.1864
 20
1.7054
 30
0.0
 10
8.2024
 20
1.8996
 30
0.0
 10
8.1995
 20
2.0627
 30
0.0
  0
SPLINE
  5
C6
330
1F
100
AcDbEntity
  8
DEFAULT_1
 62
   250
100
AcDbSpline
210
0.0
220
0.0
230
1.0
 70
     8
 71
     3
 72
    12
 73
     8
 74
     0
 42
0.0000000001
 43
0.0000000001
 40
0.0
 40
0.0
 40
0.0
 40
0.0
 40
0.3333333333333333
 40
0.3333333333333333
 40
0.3333333333333333
 40
0.3333333333333333
 40
1.0
 40
1.0
 40
1.0
 40
1.0
 10
8.1995
 20
2.0627
 30
0.0
 10
8.1995
 20
2.0627
 30
0.0
 10
8.1844
 20
2.9278
 30
0.0
 10
8.1844
 20
2.9278
 30
0.0
 10
8.1844
 20
2.9278
 30
0.0
 10
8.1844
 20
2.9278
 30
0.0
 10
8.1786
 20
3.2622
 30
0.0
 10
8.1786
 20
3.2622
 30
0.0
  0
SPLINE
  5
C7
330
1F
100
AcDbEntity
  8
DEFAULT_1
 62
   250
100
AcDbSpline
210
0.0
220
0.0
230
1.0
 70
     8
 71
     3
 72
    12
 73
     8
 74
     0
 42
0.0000000001
 43
0.0000000001
 40
0.0
 40
0.0
 40
0.0
 40
0.0
 40
0.3333333333333333
 40
0.3333333333333333
 40
0.3333333333333333
 40
0.3333333333333333
 40
1.0
 40
1.0
 40
1.0
 40
1.0
 10
8.1786
 20
3.2622
 30
0.0
 10
8.1781
 20
3.2907
 30
0.0
 10
8.1551
 20
3.3101
 30
0.0
 10
8.1279
 20
3.3114
 30
0.0
 10
8.1279
 20
3.3114
 30
0.0
 10
8.1167
 20
3.3058
 30
0.0
 10
8.0901
 20
3.2972
 30
0.0
 10
8.0846
 20
3.2872
 30
0.0
  0
SPLINE
  5
C8
330
1F
100
AcDbEntity
  8
DEFAULT_1
 62
   250
100
AcDbSpline
210
0.0
220
0.0
230
1.0
 70
     8
 71
     3
 72
    32
 73
    28
 74
     0
 42
0.0000000001
 43
0.0000000001
 40
0.0
 40
0.0
 40
0.0
 40
0.0
 40
0.125
 40
0.125
 40
0.125
 40
0.125
 40
0.25
 40
0.25
 40
0.25
 40
0.25
 40
0.375
 40
0.375
 40
0.375
 40
0.375
 40
0.5
 40
0.5
 40
0.5
 40
0.5
 40
0.625
 40
0.625
 40
0.625
 40
0.625
 40
0.75
 40
0.75
 40
0.75
 40
0.75
 40
1.0
 40
1.0
 40
1.0
 40
1.0
 10
8.0529
 20
3.2069
 30
0.0
 10
8.0957
 20
3.2238
 30
0.0
 10
8.1365
 20
3.2439
 30
0.0
 10
8.1786
 20
3.2622
 30
0.0
 10
8.1786
 20
3.2622
 30
0.0
 10
8.2223
 20
3.281
 30
0.0
 10
8.3009
 20
3.2693
 30
0.0
 10
8.3466
 20
3.2707
 30
0.0
 10
8.3466
 20
3.2707
 30
0.0
 10
8.4951
 20
3.2751
 30
0.0
 10
8.6437
 20
3.2778
 30
0.0
 10
8.7921
 20
3.28
 30
0.0
 10
8.7921
 20
3.28
 30
0.0
 10
8.9932
 20
3.2833
 30
0.0
 10
9.1943
 20
3.2854
 30
0.0
 10
9.3953
 20
3.2863
 30
0.0
 10
9.3953
 20
3.2863
 30
0.0
 10
9.5145
 20
3.2869
 30
0.0
 10
9.6376
 20
3.2948
 30
0.0
 10
9.7566
 20
3.2837
 30
0.0
 10
9.7566
 20
3.2837
 30
0.0
 10
9.7852
 20
3.281
 30
0.0
 10
9.8167
 20
3.2595
 30
0.0
 10
9.8448
 20
3.2506
 30
0.0
 10
9.8448
 20
3.2506
 30
0.0
 10
9.8945
 20
3.2348
 30
0.0
 10
9.9443
 20
3.2249
 30
0.0
 10
9.9965
 20
3.2242
 30
0.0
  0
SPLINE
  5
C9
330
1F
100
AcDbEntity
  8
DEFAULT_1
 62
   250
100
AcDbSpline
210
0.0
220
0.0
230
1.0
 70
     8
 71
     3
 72
    24
 73
    20
 74
     0
 42
0.0000000001
 43
0.0000000001
 40
0.0
 40
0.0
 40
0.0
 40
0.0
 40
0.1666666666666667
 40
0.1666666666666667
 40
0.1666666666666667
 40
0.1666666666666667
 40
0.3333333333333333
 40
0.3333333333333333
 40
0.3333333333333333
 40
0.3333333333333333
 40
0.5
 40
0.5
 40
0.5
 40
0.5
 40
0.6666666666666666
 40
0.6666666666666666
 40
0.6666666666666666
 40
0.6666666666666666
 40
1.0
 40
1.0
 40
1.0
 40
1.0
 10
8.1334
 20
3.3125
 30
0.0
 10
8.3784
 20
3.3345
 30
0.0
 10
8.6289
 20
3.3274
 30
0.0
 10
8.8743
 20
3.3307
 30
0.0
 10
8.8743
 20
3.3307
 30
0.0
 10
9.175
 20
3.3347
 30
0.0
 10
9.4771
 20
3.3436
 30
0.0
 10
9.778
 20
3.3343
 30
0.0
 10
9.778
 20
3.3343
 30
0.0
 10
9.8191
 20
3.333
 30
0.0
 10
9.8516
 20
3.3131
 30
0.0
 10
9.89
 20
3.3013
 30
0.0
 10
9.89
 20
3.3013
 30
0.0
 10
9.9393
 20
3.2862
 30
0.0
 10
9.9921
 20
3.2729
 30
0.0
 10
10.0458
 20
3.2737
 30
0.0
 10
10.0458
 20
3.2737
 30
0.0
 10
10.7122
 20
3.2833
 30
0.0
 10
11.3787
 20
3.2969
 30
0.0
 10
12.0451
 20
3.3085
 30
0.0
  0
SPLINE
  5
CA
330
1F
100
AcDbEntity
  8
DEFAULT_1
 62
   250
100
AcDbSpline
210
0.0
220
0.0
230
1.0
 70
     8
 71
     3
 72
     8
 73
     4
 74
     0
 42
0.0000000001
 43
0.0000000001
 40
0.0
 40
0.0
 40
0.0
 40
0.0
 40
1.0
 40
1.0
 40
1.0
 40
1.0
 10
13.5234
 20
3.2855
 30
0.0
 10
12.3655
 20
3.248
 30
0.0
 10
11.2046
 20
3.2435
 30
0.0
 10
10.0467
 20
3.2235
 30
0.0
  0
SPLINE
  5
CB
330
1F
100
AcDbEntity
  8
DEFAULT_1
 62
   250
100
AcDbSpline
210
0.0
220
0.0
230
1.0
 70
    24
 71
     3
 72
     8
 73
     4
 74
     0
 42
0.0000000001
 43
0.0000000001
 40
0.0
 40
0.0
 40
0.0
 40
0.0
 40
1.0
 40
1.0
 40
1.0
 40
1.0
 10
10.0467
 20
3.2235
 30
0.0
 10
10.0467
 20
3.2235
 30
0.0
 10
9.9968
 20
3.2244
 30
0.0
 10
9.9968
 20
3.2244
 30
0.0
  0
SPLINE
  5
CC
330
1F
100
AcDbEntity
  8
DEFAULT_1
 62
   250
100
AcDbSpline
210
0.0
220
0.0
230
1.0
 70
     8
 71
     3
 72
    12
 73
     8
 74
     0
 42
0.0000000001
 43
0.0000000001
 40
0.0
 40
0.0
 40
0.0
 40
0.0
 40
0.3333333333333333
 40
0.3333333333333333
 40
0.3333333333333333
 40
0.3333333333333333
 40
1.0
 40
1.0
 40
1.0
 40
1.0
 10
9.7161
 20
1.1852
 30
0.0
 10
9.7161
 20
1.1852
 30
0.0
 10
9.7503
 20
1.2168
 30
0.0
 10
9.7503
 20
1.2168
 30
0.0
 10
9.7503
 20
1.2168
 30
0.0
 10
9.7503
 20
1.2168
 30
0.0
 10
9.8638
 20
1.3604
 30
0.0
 10
9.8638
 20
1.3604
 30
0.0
  0
SPLINE
  5
CD
330
1F
100
AcDbEntity
  8
DEFAULT_1
 62
   250
100
AcDbSpline
210
0.0
220
0.0
230
1.0
 70
     8
 71
     3
 72
     8
 73
     4
 74
     0
 42
0.0000000001
 43
0.0000000001
 40
0.0
 40
0.0
 40
0.0
 40
0.0
 40
1.0
 40
1.0
 40
1.0
 40
1.0
 10
9.8638
 20
1.3604
 30
0.0
 10
10.0059
 20
1.5419
 30
0.0
 10
9.9728
 20
1.8646
 30
0.0
 10
9.9762
 20
2.0627
 30
0.0
  0
SPLINE
  5
CE
330
1F
100
AcDbEntity
  8
DEFAULT_1
 62
   250
100
AcDbSpline
210
0.0
220
0.0
230
1.0
 70
     8
 71
     3
 72
    12
 73
     8
 74
     0
 42
0.0000000001
 43
0.0000000001
 40
0.0
 40
0.0
 40
0.0
 40
0.0
 40
0.3333333333333333
 40
0.3333333333333333
 40
0.3333333333333333
 40
0.3333333333333333
 40
1.0
 40
1.0
 40
1.0
 40
1.0
 10
9.9762
 20
2.0627
 30
0.0
 10
9.9762
 20
2.0627
 30
0.0
 10
9.9907
 20
2.89
 30
0.0
 10
9.9907
 20
2.89
 30
0.0
 10
9.9907
 20
2.89
 30
0.0
 10
9.9907
 20
2.89
 30
0.0
 10
9.9965
 20
3.2243
 30
0.0
 10
9.9965
 20
3.2243
 30
0.0
  0
SPLINE
  5
CF
330
1F
100
AcDbEntity
  8
DEFAULT_1
 62
   250
100
AcDbSpline
210
0.0
220
0.0
230
1.0
 70
     8
 71
     3
 72
     8
 73
     4
 74
     0
 42
0.0000000001
 43
0.0000000001
 40
0.0
 40
0.0
 40
0.0
 40
0.0
 40
1.0
 40
1.0
 40
1.0
 40
1.0
 10
9.9965
 20
3.2243
 30
0.0
 10
9.997
 20
3.2523
 30
0.0
 10
10.019
 20
3.2718
 30
0.0
 10
10.0458
 20
3.2737
 30
0.0
  0
SPLINE
  5
D0
330
1F
100
AcDbEntity
  8
DEFAULT_1
 62
   250
100
AcDbSpline
210
0.0
220
0.0
230
1.0
 70
     8
 71
     3
 72
     8
 73
     4
 74
     0
 42
0.0000000001
 43
0.0000000001
 40
0.0
 40
0.0
 40
0.0
 40
0.0
 40
1.0
 40
1.0
 40
1.0
 40
1.0
 10
9.8069
 20
3.3319
 30
0.0
 10
9.6874
 20
3.2761
 30
0.0
 10
9.7568
 20
2.9909
 30
0.0
 10
9.7561
 20
2.9486
 30
0.0
  0
SPLINE
  5
D1
330
1F
100
AcDbEntity
  8
DEFAULT_1
 62
   250
100
AcDbSpline
210
0.0
220
0.0
230
1.0
 70
    24
 71
     3
 72
     8
 73
     4
 74
     0
 42
0.0000000001
 43
0.0000000001
 40
0.0
 40
0.0
 40
0.0
 40
0.0
 40
1.0
 40
1.0
 40
1.0
 40
1.0
 10
9.7561
 20
2.9486
 30
0.0
 10
9.7561
 20
2.9486
 30
0.0
 10
9.7407
 20
2.0627
 30
0.0
 10
9.7407
 20
2.0627
 30
0.0
  0
SPLINE
  5
D2
330
1F
100
AcDbEntity
  8
DEFAULT_1
 62
   250
100
AcDbSpline
210
0.0
220
0.0
230
1.0
 70
     8
 71
     3
 72
    12
 73
     8
 74
     0
 42
0.0000000001
 43
0.0000000001
 40
0.0
 40
0.0
 40
0.0
 40
0.0
 40
0.3333333333333333
 40
0.3333333333333333
 40
0.3333333333333333
 40
0.3333333333333333
 40
1.0
 40
1.0
 40
1.0
 40
1.0
 10
9.7407
 20
2.0627
 30
0.0
 10
9.7379
 20
1.8997
 30
0.0
 10
9.7538
 20
1.7054
 30
0.0
 10
9.7071
 20
1.5404
 30
0.0
 10
9.7071
 20
1.5404
 30
0.0
 10
9.6155
 20
1.2175
 30
0.0
 10
9.3264
 20
1.0195
 30
0.0
 10
8.9996
 20
1.0055
 30
0.0
  0
SPLINE
  5
D3
330
1F
100
AcDbEntity
  8
DEFAULT_1
 62
   250
100
AcDbSpline
210
0.0
220
0.0
230
1.0
 70
     8
 71
     3
 72
     8
 73
     4
 74
     0
 42
0.0000000001
 43
0.0000000001
 40
0.0
 40
0.0
 40
0.0
 40
0.0
 40
1.0
 40
1.0
 40
1.0
 40
1.0
 10
10.0458
 20
3.2737
 30
0.0
 10
10.0526
 20
2.8766
 30
0.0
 10
10.0332
 20
2.4503
 30
0.0
 10
10.0264
 20
2.0617
 30
0.0
  0
SPLINE
  5
D4
330
1F
100
AcDbEntity
  8
DEFAULT_1
 62
   250
100
AcDbSpline
210
0.0
220
0.0
230
1.0
 70
     8
 71
     3
 72
    12
 73
     8
 74
     0
 42
0.0000000001
 43
0.0000000001
 40
0.0
 40
0.0
 40
0.0
 40
0.0
 40
0.3333333333333333
 40
0.3333333333333333
 40
0.3333333333333333
 40
0.3333333333333333
 40
1.0
 40
1.0
 40
1.0
 40
1.0
 10
10.0264
 20
2.0617
 30
0.0
 10
10.0264
 20
2.0617
 30
0.0
 10
10.0205
 20
1.7274
 30
0.0
 10
10.0205
 20
1.7274
 30
0.0
 10
10.0205
 20
1.7274
 30
0.0
 10
10.0205
 20
1.7274
 30
0.0
 10
10.0131
 20
1.6324
 30
0.0
 10
10.0131
 20
1.6324
 30
0.0
  0
SPLINE
  5
D5
330
1F
100
AcDbEntity
  8
DEFAULT_1
 62
   250
100
AcDbSpline
210
0.0
220
0.0
230
1.0
 70
     8
 71
     3
 72
    16
 73
    12
 74
     0
 42
0.0000000001
 43
0.0000000001
 40
0.0
 40
0.0
 40
0.0
 40
0.0
 40
0.25
 40
0.25
 40
0.25
 40
0.25
 40
0.5
 40
0.5
 40
0.5
 40
0.5
 40
1.0
 40
1.0
 40
1.0
 40
1.0
 10
10.0131
 20
1.6324
 30
0.0
 10
9.9866
 20
1.4533
 30
0.0
 10
9.9028
 20
1.3011
 30
0.0
 10
9.7772
 20
1.1727
 30
0.0
 10
9.7772
 20
1.1727
 30
0.0
 10
9.7544
 20
1.1493
 30
0.0
 10
9.7153
 20
1.1308
 30
0.0
 10
9.6869
 20
1.1154
 30
0.0
 10
9.6869
 20
1.1154
 30
0.0
 10
9.5928
 20
1.0641
 30
0.0
 10
9.4916
 20
1.0345
 30
0.0
 10
9.3864
 20
1.0163
 30
0.0
  0
SPLINE
  5
D6
330
1F
100
AcDbEntity
  8
DEFAULT_1
 62
   250
100
AcDbSpline
210
0.0
220
0.0
230
1.0
 70
     8
 71
     3
 72
     8
 73
     4
 74
     0
 42
0.0000000001
 43
0.0000000001
 40
0.0
 40
0.0
 40
0.0
 40
0.0
 40
1.0
 40
1.0
 40
1.0
 40
1.0
 10
9.6867
 20
1.1609
 30
0.0
 10
9.5914
 20
1.0903
 30
0.0
 10
9.4902
 20
1.0449
 30
0.0
 10
9.3743
 20
1.0182
 30
0.0
  0
SPLINE
  5
D7
330
1F
100
AcDbEntity
  8
DEFAULT_1
 62
   250
100
AcDbSpline
210
0.0
220
0.0
230
1.0
 70
     8
 71
     3
 72
    24
 73
    20
 74
     0
 42
0.0000000001
 43
0.0000000001
 40
0.0
 40
0.0
 40
0.0
 40
0.0
 40
0.1666666666666667
 40
0.1666666666666667
 40
0.1666666666666667
 40
0.1666666666666667
 40
0.3333333333333333
 40
0.3333333333333333
 40
0.3333333333333333
 40
0.3333333333333333
 40
0.5
 40
0.5
 40
0.5
 40
0.5
 40
0.6666666666666666
 40
0.6666666666666666
 40
0.6666666666666666
 40
0.6666666666666666
 40
1.0
 40
1.0
 40
1.0
 40
1.0
 10
9.9704
 20
1.7283
 30
0.0
 10
9.9704
 20
1.7283
 30
0.0
 10
9.6359
 20
1.7283
 30
0.0
 10
9.6359
 20
1.7283
 30
0.0
 10
9.6359
 20
1.7283
 30
0.0
 10
9.6359
 20
1.7283
 30
0.0
 10
8.4126
 20
1.7283
 30
0.0
 10
8.4126
 20
1.7283
 30
0.0
 10
8.4126
 20
1.7283
 30
0.0
 10
8.4126
 20
1.7283
 30
0.0
 10
8.0781
 20
1.7283
 30
0.0
 10
8.0781
 20
1.7283
 30
0.0
 10
8.0781
 20
1.7283
 30
0.0
 10
8.0781
 20
1.7283
 30
0.0
 10
8.0561
 20
1.7292
 30
0.0
 10
8.0561
 20
1.7292
 30
0.0
 10
8.0561
 20
1.7292
 30
0.0
 10
8.0561
 20
1.7292
 30
0.0
 10
7.9837
 20
1.7274
 30
0.0
 10
7.9837
 20
1.7274
 30
0.0
  0
SPLINE
  5
D8
330
1F
100
AcDbEntity
  8
DEFAULT_1
 62
   250
100
AcDbSpline
210
0.0
220
0.0
230
1.0
 70
    24
 71
     3
 72
    12
 73
     8
 74
     0
 42
0.0000000001
 43
0.0000000001
 40
0.0
 40
0.0
 40
0.0
 40
0.0
 40
0.3333333333333333
 40
0.3333333333333333
 40
0.3333333333333333
 40
0.3333333333333333
 40
1.0
 40
1.0
 40
1.0
 40
1.0
 10
8.0074
 20
1.399
 30
0.0
 10
8.0074
 20
1.399
 30
0.0
 10
7.6729
 20
1.399
 30
0.0
 10
7.6729
 20
1.399
 30
0.0
 10
7.6729
 20
1.399
 30
0.0
 10
7.6729
 20
1.399
 30
0.0
 10
0.9601
 20
1.399
 30
0.0
 10
0.9601
 20
1.399
 30
0.0
  0
SPLINE
  5
D9
330
1F
100
AcDbEntity
  8
DEFAULT_1
 62
   250
100
AcDbSpline
210
0.0
220
0.0
230
1.0
 70
     8
 71
     3
 72
     8
 73
     4
 74
     0
 42
0.0000000001
 43
0.0000000001
 40
0.0
 40
0.0
 40
0.0
 40
0.0
 40
1.0
 40
1.0
 40
1.0
 40
1.0
 10
0.9601
 20
1.399
 30
0.0
 10
0.8754
 20
1.399
 30
0.0
 10
0.6741
 20
1.3424
 30
0.0
 10
0.5758
 20
1.4287
 30
0.0
  0
SPLINE
  5
DA
330
1F
100
AcDbEntity
  8
DEFAULT_1
 62
   250
100
AcDbSpline
210
0.0
220
0.0
230
1.0
 70
     8
 71
     3
 72
    16
 73
    12
 74
     0
 42
0.0000000001
 43
0.0000000001
 40
0.0
 40
0.0
 40
0.0
 40
0.0
 40
0.25
 40
0.25
 40
0.25
 40
0.25
 40
0.5
 40
0.5
 40
0.5
 40
0.5
 40
1.0
 40
1.0
 40
1.0
 40
1.0
 10
8.4093
 20
1.0653
 30
0.0
 10
8.401
 20
1.0882
 30
0.0
 10
8.3295
 20
1.1248
 30
0.0
 10
8.3114
 20
1.14
 30
0.0
 10
8.3114
 20
1.14
 30
0.0
 10
8.2372
 20
1.2019
 30
0.0
 10
8.1812
 20
1.2749
 30
0.0
 10
8.1315
 20
1.3576
 30
0.0
 10
8.1315
 20
1.3576
 30
0.0
 10
8.1145
 20
1.3859
 30
0.0
 10
8.1079
 20
1.4314
 30
0.0
 10
8.0729
 20
1.4452
 30
0.0
  0
SPLINE
  5
DB
330
1F
100
AcDbEntity
  8
DEFAULT_1
 62
   250
100
AcDbSpline
210
0.0
220
0.0
230
1.0
 70
     8
 71
     3
 72
    20
 73
    16
 74
     0
 42
0.0000000001
 43
0.0000000001
 40
0.0
 40
0.0
 40
0.0
 40
0.0
 40
0.2
 40
0.2
 40
0.2
 40
0.2
 40
0.4
 40
0.4
 40
0.4
 40
0.4
 40
0.6
 40
0.6
 40
0.6
 40
0.6
 40
1.0
 40
1.0
 40
1.0
 40
1.0
 10
8.0729
 20
1.4452
 30
0.0
 10
8.0729
 20
1.4452
 30
0.0
 10
8.0546
 20
1.4483
 30
0.0
 10
8.0546
 20
1.4483
 30
0.0
 10
8.0546
 20
1.4483
 30
0.0
 10
8.0546
 20
1.4483
 30
0.0
 10
7.7202
 20
1.4483
 30
0.0
 10
7.7202
 20
1.4483
 30
0.0
 10
7.7202
 20
1.4483
 30
0.0
 10
7.7202
 20
1.4483
 30
0.0
 10
0.965
 20
1.4483
 30
0.0
 10
0.965
 20
1.4483
 30
0.0
 10
0.965
 20
1.4483
 30
0.0
 10
0.965
 20
1.4483
 30
0.0
 10
0.6306
 20
1.4483
 30
0.0
 10
0.6306
 20
1.4483
 30
0.0
  0
SPLINE
  5
DC
330
1F
100
AcDbEntity
  8
DEFAULT_1
 62
   250
100
AcDbSpline
210
0.0
220
0.0
230
1.0
 70
     8
 71
     3
 72
    16
 73
    12
 74
     0
 42
0.0000000001
 43
0.0000000001
 40
0.0
 40
0.0
 40
0.0
 40
0.0
 40
0.25
 40
0.25
 40
0.25
 40
0.25
 40
0.5
 40
0.5
 40
0.5
 40
0.5
 40
1.0
 40
1.0
 40
1.0
 40
1.0
 10
0.6306
 20
1.4483
 30
0.0
 10
0.5833
 20
1.4398
 30
0.0
 10
0.5814
 20
1.4052
 30
0.0
 10
0.5563
 20
1.366
 30
0.0
 10
0.5563
 20
1.366
 30
0.0
 10
0.5169
 20
1.3037
 30
0.0
 10
0.4902
 20
1.2674
 30
0.0
 10
0.439
 20
1.2164
 30
0.0
 10
0.439
 20
1.2164
 30
0.0
 10
0.3499
 20
1.128
 30
0.0
 10
0.2118
 20
1.0401
 30
0.0
 10
0.085
 20
1.0236
 30
0.0
  0
SPLINE
  5
DD
330
1F
100
AcDbEntity
  8
DEFAULT_1
 62
   250
100
AcDbSpline
210
0.0
220
0.0
230
1.0
 70
    24
 71
     3
 72
     8
 73
     4
 74
     0
 42
0.0000000001
 43
0.0000000001
 40
0.0
 40
0.0
 40
0.0
 40
0.0
 40
1.0
 40
1.0
 40
1.0
 40
1.0
 10
0.085
 20
1.0236
 30
0.0
 10
0.085
 20
1.0236
 30
0.0
 10
-0.0775
 20
1.0055
 30
0.0
 10
-0.0775
 20
1.0055
 30
0.0
  0
SPLINE
  5
DE
330
1F
100
AcDbEntity
  8
DEFAULT_1
 62
   250
100
AcDbSpline
210
0.0
220
0.0
230
1.0
 70
     8
 71
     3
 72
    16
 73
    12
 74
     0
 42
0.0000000001
 43
0.0000000001
 40
0.0
 40
0.0
 40
0.0
 40
0.0
 40
0.25
 40
0.25
 40
0.25
 40
0.25
 40
0.5
 40
0.5
 40
0.5
 40
0.5
 40
1.0
 40
1.0
 40
1.0
 40
1.0
 10
-1.0199
 20
3.2965
 30
0.0
 10
-1.0199
 20
3.2965
 30
0.0
 10
-1.0135
 20
3.2728
 30
0.0
 10
-1.0135
 20
3.2728
 30
0.0
 10
-1.0135
 20
3.2728
 30
0.0
 10
-1.0135
 20
3.2728
 30
0.0
 10
-1.0077
 20
2.9385
 30
0.0
 10
-1.0077
 20
2.9385
 30
0.0
 10
-1.0077
 20
2.9385
 30
0.0
 10
-1.0077
 20
2.9385
 30
0.0
 10
-0.9924
 20
2.0627
 30
0.0
 10
-0.9924
 20
2.0627
 30
0.0
  0
SPLINE
  5
DF
330
1F
100
AcDbEntity
  8
DEFAULT_1
 62
   250
100
AcDbSpline
210
0.0
220
0.0
230
1.0
 70
     8
 71
     3
 72
    12
 73
     8
 74
     0
 42
0.0000000001
 43
0.0000000001
 40
0.0
 40
0.0
 40
0.0
 40
0.0
 40
0.3333333333333333
 40
0.3333333333333333
 40
0.3333333333333333
 40
0.3333333333333333
 40
1.0
 40
1.0
 40
1.0
 40
1.0
 10
-0.9924
 20
2.0627
 30
0.0
 10
-0.9896
 20
1.8997
 30
0.0
 10
-1.0055
 20
1.7054
 30
0.0
 10
-0.9587
 20
1.5404
 30
0.0
 10
-0.9587
 20
1.5404
 30
0.0
 10
-0.8672
 20
1.2175
 30
0.0
 10
-0.5782
 20
1.0195
 30
0.0
 10
-0.2513
 20
1.0055
 30
0.0
  0
SPLINE
  5
E0
330
1F
100
AcDbEntity
  8
DEFAULT_1
 62
   250
100
AcDbSpline
210
0.0
220
0.0
230
1.0
 70
     8
 71
     3
 72
    16
 73
    12
 74
     0
 42
0.0000000001
 43
0.0000000001
 40
0.0
 40
0.0
 40
0.0
 40
0.0
 40
0.25
 40
0.25
 40
0.25
 40
0.25
 40
0.5
 40
0.5
 40
0.5
 40
0.5
 40
1.0
 40
1.0
 40
1.0
 40
1.0
 10
0.5762
 20
3.2965
 30
0.0
 10
0.5762
 20
3.2965
 30
0.0
 10
0.5699
 20
3.2728
 30
0.0
 10
0.5699
 20
3.2728
 30
0.0
 10
0.5699
 20
3.2728
 30
0.0
 10
0.5699
 20
3.2728
 30
0.0
 10
0.564
 20
2.9385
 30
0.0
 10
0.564
 20
2.9385
 30
0.0
 10
0.564
 20
2.9385
 30
0.0
 10
0.564
 20
2.9385
 30
0.0
 10
0.5487
 20
2.0627
 30
0.0
 10
0.5487
 20
2.0627
 30
0.0
  0
SPLINE
  5
E1
330
1F
100
AcDbEntity
  8
DEFAULT_1
 62
   250
100
AcDbSpline
210
0.0
220
0.0
230
1.0
 70
     8
 71
     3
 72
    12
 73
     8
 74
     0
 42
0.0000000001
 43
0.0000000001
 40
0.0
 40
0.0
 40
0.0
 40
0.0
 40
0.3333333333333333
 40
0.3333333333333333
 40
0.3333333333333333
 40
0.3333333333333333
 40
1.0
 40
1.0
 40
1.0
 40
1.0
 10
0.5487
 20
2.0627
 30
0.0
 10
0.5459
 20
1.8997
 30
0.0
 10
0.5618
 20
1.7054
 30
0.0
 10
0.5151
 20
1.5404
 30
0.0
 10
0.5151
 20
1.5404
 30
0.0
 10
0.4235
 20
1.2175
 30
0.0
 10
0.1345
 20
1.0195
 30
0.0
 10
-0.1924
 20
1.0055
 30
0.0
  0
SPLINE
  5
E2
330
1F
100
AcDbEntity
  8
DEFAULT_1
 62
   250
100
AcDbSpline
210
0.0
220
0.0
230
1.0
 70
     8
 71
     3
 72
    20
 73
    16
 74
     0
 42
0.0000000001
 43
0.0000000001
 40
0.0
 40
0.0
 40
0.0
 40
0.0
 40
0.2
 40
0.2
 40
0.2
 40
0.2
 40
0.4
 40
0.4
 40
0.4
 40
0.4
 40
0.6
 40
0.6
 40
0.6
 40
0.6
 40
1.0
 40
1.0
 40
1.0
 40
1.0
 10
-8.451
 20
1.399
 30
0.0
 10
-8.451
 20
1.399
 30
0.0
 10
-8.1166
 20
1.399
 30
0.0
 10
-8.1166
 20
1.399
 30
0.0
 10
-8.1166
 20
1.399
 30
0.0
 10
-8.1166
 20
1.399
 30
0.0
 10
-1.4038
 20
1.399
 30
0.0
 10
-1.4038
 20
1.399
 30
0.0
 10
-1.4038
 20
1.399
 30
0.0
 10
-1.4038
 20
1.399
 30
0.0
 10
-1.0694
 20
1.399
 30
0.0
 10
-1.0694
 20
1.399
 30
0.0
 10
-1.0694
 20
1.399
 30
0.0
 10
-1.0694
 20
1.399
 30
0.0
 10
-1.0296
 20
1.4197
 30
0.0
 10
-1.0296
 20
1.4197
 30
0.0
  0
SPLINE
  5
E3
330
1F
100
AcDbEntity
  8
DEFAULT_1
 62
   250
100
AcDbSpline
210
0.0
220
0.0
230
1.0
 70
     8
 71
     3
 72
     8
 73
     4
 74
     0
 42
0.0000000001
 43
0.0000000001
 40
0.0
 40
0.0
 40
0.0
 40
0.0
 40
1.0
 40
1.0
 40
1.0
 40
1.0
 10
-1.1599
 20
3.2569
 30
0.0
 10
-1.1536
 20
3.2422
 30
0.0
 10
-1.1557
 20
3.2227
 30
0.0
 10
-1.1554
 20
3.207
 30
0.0
  0
SPLINE
  5
E4
330
1F
100
AcDbEntity
  8
DEFAULT_1
 62
   250
100
AcDbSpline
210
0.0
220
0.0
230
1.0
 70
     8
 71
     3
 72
    16
 73
    12
 74
     0
 42
0.0000000001
 43
0.0000000001
 40
0.0
 40
0.0
 40
0.0
 40
0.0
 40
0.25
 40
0.25
 40
0.25
 40
0.25
 40
0.5
 40
0.5
 40
0.5
 40
0.5
 40
1.0
 40
1.0
 40
1.0
 40
1.0
 10
-1.1554
 20
3.207
 30
0.0
 10
-1.1554
 20
3.207
 30
0.0
 10
-1.1496
 20
2.8727
 30
0.0
 10
-1.1496
 20
2.8727
 30
0.0
 10
-1.1496
 20
2.8727
 30
0.0
 10
-1.1496
 20
2.8727
 30
0.0
 10
-1.1354
 20
2.0617
 30
0.0
 10
-1.1354
 20
2.0617
 30
0.0
 10
-1.1354
 20
2.0617
 30
0.0
 10
-1.1354
 20
2.0617
 30
0.0
 10
-1.1297
 20
1.7274
 30
0.0
 10
-1.1297
 20
1.7274
 30
0.0
  0
SPLINE
  5
E5
330
1F
100
AcDbEntity
  8
DEFAULT_1
 62
   250
100
AcDbSpline
210
0.0
220
0.0
230
1.0
 70
     8
 71
     3
 72
     8
 73
     4
 74
     0
 42
0.0000000001
 43
0.0000000001
 40
0.0
 40
0.0
 40
0.0
 40
0.0
 40
1.0
 40
1.0
 40
1.0
 40
1.0
 10
-1.1297
 20
1.7274
 30
0.0
 10
-1.1283
 20
1.6587
 30
0.0
 10
-1.1248
 20
1.5556
 30
0.0
 10
-1.0867
 20
1.4962
 30
0.0
  0
SPLINE
  5
E6
330
1F
100
AcDbEntity
  8
DEFAULT_1
 62
   250
100
AcDbSpline
210
0.0
220
0.0
230
1.0
 70
     8
 71
     3
 72
     8
 73
     4
 74
     0
 42
0.0000000001
 43
0.0000000001
 40
0.0
 40
0.0
 40
0.0
 40
0.0
 40
1.0
 40
1.0
 40
1.0
 40
1.0
 10
-1.1297
 20
1.7274
 30
0.0
 10
-0.5249
 20
1.7387
 30
0.0
 10
0.0812
 20
1.7387
 30
0.0
 10
0.686
 20
1.7274
 30
0.0
  0
SPLINE
  5
E7
330
1F
100
AcDbEntity
  8
DEFAULT_1
 62
   250
100
AcDbSpline
210
0.0
220
0.0
230
1.0
 70
     8
 71
     3
 72
     8
 73
     4
 74
     0
 42
0.0000000001
 43
0.0000000001
 40
0.0
 40
0.0
 40
0.0
 40
0.0
 40
1.0
 40
1.0
 40
1.0
 40
1.0
 10
0.7149
 20
3.2539
 30
0.0
 10
0.7114
 20
3.2388
 30
0.0
 10
0.712
 20
3.2225
 30
0.0
 10
0.7117
 20
3.207
 30
0.0
  0
SPLINE
  5
E8
330
1F
100
AcDbEntity
  8
DEFAULT_1
 62
   250
100
AcDbSpline
210
0.0
220
0.0
230
1.0
 70
     8
 71
     3
 72
    12
 73
     8
 74
     0
 42
0.0000000001
 43
0.0000000001
 40
0.0
 40
0.0
 40
0.0
 40
0.0
 40
0.3333333333333333
 40
0.3333333333333333
 40
0.3333333333333333
 40
0.3333333333333333
 40
1.0
 40
1.0
 40
1.0
 40
1.0
 10
0.7117
 20
3.207
 30
0.0
 10
0.7117
 20
3.207
 30
0.0
 10
0.7059
 20
2.8727
 30
0.0
 10
0.7059
 20
2.8727
 30
0.0
 10
0.7059
 20
2.8727
 30
0.0
 10
0.7059
 20
2.8727
 30
0.0
 10
0.6917
 20
2.0617
 30
0.0
 10
0.6917
 20
2.0617
 30
0.0
  0
SPLINE
  5
E9
330
1F
100
AcDbEntity
  8
DEFAULT_1
 62
   250
100
AcDbSpline
210
0.0
220
0.0
230
1.0
 70
     8
 71
     3
 72
    12
 73
     8
 74
     0
 42
0.0000000001
 43
0.0000000001
 40
0.0
 40
0.0
 40
0.0
 40
0.0
 40
0.3333333333333333
 40
0.3333333333333333
 40
0.3333333333333333
 40
0.3333333333333333
 40
1.0
 40
1.0
 40
1.0
 40
1.0
 10
0.6917
 20
2.0617
 30
0.0
 10
0.6886
 20
1.8852
 30
0.0
 10
0.706
 20
1.6844
 30
0.0
 10
0.6511
 20
1.5092
 30
0.0
 10
0.6511
 20
1.5092
 30
0.0
 10
0.6455
 20
1.4912
 30
0.0
 10
0.627
 20
1.4773
 30
0.0
 10
0.6192
 20
1.4601
 30
0.0
  0
SPLINE
  5
EA
330
1F
100
AcDbEntity
  8
DEFAULT_1
 62
   250
100
AcDbSpline
210
0.0
220
0.0
230
1.0
 70
    24
 71
     3
 72
     8
 73
     4
 74
     0
 42
0.0000000001
 43
0.0000000001
 40
0.0
 40
0.0
 40
0.0
 40
0.0
 40
1.0
 40
1.0
 40
1.0
 40
1.0
 10
0.6192
 20
1.4601
 30
0.0
 10
0.6192
 20
1.4601
 30
0.0
 10
0.6291
 20
1.4497
 30
0.0
 10
0.6291
 20
1.4497
 30
0.0
  0
SPLINE
  5
EB
330
1F
100
AcDbEntity
  8
DEFAULT_1
 62
   250
100
AcDbSpline
210
0.0
220
0.0
230
1.0
 70
     8
 71
     3
 72
    20
 73
    16
 74
     0
 42
0.0000000001
 43
0.0000000001
 40
0.0
 40
0.0
 40
0.0
 40
0.0
 40
0.2
 40
0.2
 40
0.2
 40
0.2
 40
0.4
 40
0.4
 40
0.4
 40
0.4
 40
0.6
 40
0.6
 40
0.6
 40
0.6
 40
1.0
 40
1.0
 40
1.0
 40
1.0
 10
8.0167
 20
1.5092
 30
0.0
 10
8.0167
 20
1.5092
 30
0.0
 10
7.6824
 20
1.5092
 30
0.0
 10
7.6824
 20
1.5092
 30
0.0
 10
7.6824
 20
1.5092
 30
0.0
 10
7.6824
 20
1.5092
 30
0.0
 10
0.9855
 20
1.5092
 30
0.0
 10
0.9855
 20
1.5092
 30
0.0
 10
0.9855
 20
1.5092
 30
0.0
 10
0.9855
 20
1.5092
 30
0.0
 10
0.6511
 20
1.5092
 30
0.0
 10
0.6511
 20
1.5092
 30
0.0
 10
0.6511
 20
1.5092
 30
0.0
 10
0.6511
 20
1.5092
 30
0.0
 10
0.6303
 20
1.5158
 30
0.0
 10
0.6303
 20
1.5158
 30
0.0
  0
SPLINE
  5
EC
330
1F
100
AcDbEntity
  8
DEFAULT_1
 62
   250
100
AcDbSpline
210
0.0
220
0.0
230
1.0
 70
     8
 71
     3
 72
     8
 73
     4
 74
     0
 42
0.0000000001
 43
0.0000000001
 40
0.0
 40
0.0
 40
0.0
 40
0.0
 40
1.0
 40
1.0
 40
1.0
 40
1.0
 10
8.0229
 20
3.2606
 30
0.0
 10
7.8683
 20
3.2359
 30
0.0
 10
7.9634
 20
2.9488
 30
0.0
 10
7.9647
 20
2.8727
 30
0.0
  0
SPLINE
  5
ED
330
1F
100
AcDbEntity
  8
DEFAULT_1
 62
   250
100
AcDbSpline
210
0.0
220
0.0
230
1.0
 70
     8
 71
     3
 72
    12
 73
     8
 74
     0
 42
0.0000000001
 43
0.0000000001
 40
0.0
 40
0.0
 40
0.0
 40
0.0
 40
0.3333333333333333
 40
0.3333333333333333
 40
0.3333333333333333
 40
0.3333333333333333
 40
1.0
 40
1.0
 40
1.0
 40
1.0
 10
7.9647
 20
2.8727
 30
0.0
 10
7.9647
 20
2.8727
 30
0.0
 10
7.9782
 20
2.0617
 30
0.0
 10
7.9782
 20
2.0617
 30
0.0
 10
7.9782
 20
2.0617
 30
0.0
 10
7.9782
 20
2.0617
 30
0.0
 10
7.9837
 20
1.7274
 30
0.0
 10
7.9837
 20
1.7274
 30
0.0
  0
SPLINE
  5
EE
330
1F
100
AcDbEntity
  8
DEFAULT_1
 62
   250
100
AcDbSpline
210
0.0
220
0.0
230
1.0
 70
     8
 71
     3
 72
     8
 73
     4
 74
     0
 42
0.0000000001
 43
0.0000000001
 40
0.0
 40
0.0
 40
0.0
 40
0.0
 40
1.0
 40
1.0
 40
1.0
 40
1.0
 10
7.9837
 20
1.7274
 30
0.0
 10
7.9858
 20
1.6407
 30
0.0
 10
7.9757
 20
1.4997
 30
0.0
 10
8.0757
 20
1.4622
 30
0.0
  0
SPLINE
  5
EF
330
1F
100
AcDbEntity
  8
DEFAULT_1
 62
   250
100
AcDbSpline
210
0.0
220
0.0
230
1.0
 70
     8
 71
     3
 72
    12
 73
     8
 74
     0
 42
0.0000000001
 43
0.0000000001
 40
0.0
 40
0.0
 40
0.0
 40
0.0
 40
0.3333333333333333
 40
0.3333333333333333
 40
0.3333333333333333
 40
0.3333333333333333
 40
1.0
 40
1.0
 40
1.0
 40
1.0
 10
8.1092
 20
1.5239
 30
0.0
 10
8.1018
 20
1.5346
 30
0.0
 10
8.0967
 20
1.5333
 30
0.0
 10
8.0825
 20
1.5361
 30
0.0
 10
8.0825
 20
1.5361
 30
0.0
 10
8.0577
 20
1.5341
 30
0.0
 10
8.0337
 20
1.5286
 30
0.0
 10
8.0167
 20
1.5092
 30
0.0
  0
SPLINE
  5
F0
330
1F
100
AcDbEntity
  8
DEFAULT_1
 62
   250
100
AcDbSpline
210
0.0
220
0.0
230
1.0
 70
     8
 71
     3
 72
    12
 73
     8
 74
     0
 42
0.0000000001
 43
0.0000000001
 40
0.0
 40
0.0
 40
0.0
 40
0.0
 40
0.3333333333333333
 40
0.3333333333333333
 40
0.3333333333333333
 40
0.3333333333333333
 40
1.0
 40
1.0
 40
1.0
 40
1.0
 10
8.0761
 20
1.4388
 30
0.0
 10
8.0706
 20
1.4397
 30
0.0
 10
8.0649
 20
1.44
 30
0.0
 10
8.0593
 20
1.4401
 30
0.0
 10
8.0593
 20
1.4401
 30
0.0
 10
8.0382
 20
1.4394
 30
0.0
 10
8.0183
 20
1.4273
 30
0.0
 10
8.0095
 20
1.4076
 30
0.0
  0
SPLINE
  5
F1
330
1F
100
AcDbEntity
  8
DEFAULT_1
 62
   250
100
AcDbSpline
210
0.0
220
0.0
230
1.0
 70
     8
 71
     3
 72
     8
 73
     4
 74
     0
 42
0.0000000001
 43
0.0000000001
 40
0.0
 40
0.0
 40
0.0
 40
0.0
 40
1.0
 40
1.0
 40
1.0
 40
1.0
 10
8.1007
 20
1.42
 30
0.0
 10
8.1133
 20
1.4228
 30
0.0
 10
8.1257
 20
1.4262
 30
0.0
 10
8.1381
 20
1.43
 30
0.0
  0
SPLINE
  5
F2
330
1F
100
AcDbEntity
  8
DEFAULT_1
 62
   250
100
AcDbSpline
210
0.0
220
0.0
230
1.0
 70
     8
 71
     3
 72
     8
 73
     4
 74
     0
 42
0.0000000001
 43
0.0000000001
 40
0.0
 40
0.0
 40
0.0
 40
0.0
 40
1.0
 40
1.0
 40
1.0
 40
1.0
 10
8.0425
 20
1.4465
 30
0.0
 10
8.0589
 20
1.4508
 30
0.0
 10
8.0756
 20
1.4528
 30
0.0
 10
8.0916
 20
1.4589
 30
0.0
  0
SPLINE
  5
F3
330
1F
100
AcDbEntity
  8
DEFAULT_1
 62
   250
100
AcDbSpline
210
0.0
220
0.0
230
1.0
 70
     8
 71
     3
 72
     8
 73
     4
 74
     0
 42
0.0000000001
 43
0.0000000001
 40
0.0
 40
0.0
 40
0.0
 40
0.0
 40
1.0
 40
1.0
 40
1.0
 40
1.0
 10
-0.0782
 20
0.9562
 30
0.0
 10
-0.0782
 20
0.9668
 30
0.0
 10
-0.0782
 20
0.9773
 30
0.0
 10
-0.0781
 20
0.9879
 30
0.0
  0
SPLINE
  5
F4
330
1F
100
AcDbEntity
  8
DEFAULT_1
 62
   250
100
AcDbSpline
210
0.0
220
0.0
230
1.0
 70
     8
 71
     3
 72
     8
 73
     4
 74
     0
 42
0.0000000001
 43
0.0000000001
 40
0.0
 40
0.0
 40
0.0
 40
0.0
 40
1.0
 40
1.0
 40
1.0
 40
1.0
 10
-0.3654
 20
0.9562
 30
0.0
 10
-0.3654
 20
0.9668
 30
0.0
 10
-0.3655
 20
0.9773
 30
0.0
 10
-0.3657
 20
0.9879
 30
0.0
  0
SPLINE
  5
F5
330
1F
100
AcDbEntity
  8
DEFAULT_1
 62
   250
100
AcDbSpline
210
0.0
220
0.0
230
1.0
 70
     8
 71
     3
 72
     8
 73
     4
 74
     0
 42
0.0000000001
 43
0.0000000001
 40
0.0
 40
0.0
 40
0.0
 40
0.0
 40
1.0
 40
1.0
 40
1.0
 40
1.0
 10
8.0259
 20
3.2654
 30
0.0
 10
8.047
 20
3.2693
 30
0.0
 10
8.0639
 20
3.2815
 30
0.0
 10
8.0846
 20
3.2872
 30
0.0
  0
SPLINE
  5
F6
330
1F
100
AcDbEntity
  8
DEFAULT_1
 62
   250
100
AcDbSpline
210
0.0
220
0.0
230
1.0
 70
     8
 71
     3
 72
     8
 73
     4
 74
     0
 42
0.0000000001
 43
0.0000000001
 40
0.0
 40
0.0
 40
0.0
 40
0.0
 40
1.0
 40
1.0
 40
1.0
 40
1.0
 10
0.599
 20
1.4966
 30
0.0
 10
0.5911
 20
1.4748
 30
0.0
 10
0.5822
 20
1.4533
 30
0.0
 10
0.5745
 20
1.4315
 30
0.0
  0
SPLINE
  5
F7
330
1F
100
AcDbEntity
  8
DEFAULT_1
 62
   250
100
AcDbSpline
210
0.0
220
0.0
230
1.0
 70
    24
 71
     3
 72
     8
 73
     4
 74
     0
 42
0.0000000001
 43
0.0000000001
 40
0.0
 40
0.0
 40
0.0
 40
0.0
 40
1.0
 40
1.0
 40
1.0
 40
1.0
 10
-1.1603
 20
3.2572
 30
0.0
 10
-1.1603
 20
3.2572
 30
0.0
 10
-1.0637
 20
3.3222
 30
0.0
 10
-1.0637
 20
3.3222
 30
0.0
  0
SPLINE
  5
F8
330
1F
100
AcDbEntity
  8
DEFAULT_1
 62
   250
100
AcDbSpline
210
0.0
220
0.0
230
1.0
 70
     8
 71
     3
 72
    24
 73
    20
 74
     0
 42
0.0000000001
 43
0.0000000001
 40
0.0
 40
0.0
 40
0.0
 40
0.0
 40
0.1666666666666667
 40
0.1666666666666667
 40
0.1666666666666667
 40
0.1666666666666667
 40
0.3333333333333333
 40
0.3333333333333333
 40
0.3333333333333333
 40
0.3333333333333333
 40
0.5
 40
0.5
 40
0.5
 40
0.5
 40
0.6666666666666666
 40
0.6666666666666666
 40
0.6666666666666666
 40
0.6666666666666666
 40
1.0
 40
1.0
 40
1.0
 40
1.0
 10
-1.0637
 20
3.3222
 30
0.0
 10
-1.0374
 20
3.339
 30
0.0
 10
-0.9645
 20
3.3286
 30
0.0
 10
-0.9377
 20
3.3294
 30
0.0
 10
-0.9377
 20
3.3294
 30
0.0
 10
-0.8217
 20
3.3322
 30
0.0
 10
-0.7056
 20
3.3336
 30
0.0
 10
-0.5894
 20
3.3346
 30
0.0
 10
-0.5894
 20
3.3346
 30
0.0
 10
-0.3167
 20
3.3367
 30
0.0
 10
-0.0439
 20
3.3369
 30
0.0
 10
0.2288
 20
3.3338
 30
0.0
 10
0.2288
 20
3.3338
 30
0.0
 10
0.3193
 20
3.3328
 30
0.0
 10
0.4099
 20
3.332
 30
0.0
 10
0.5004
 20
3.3291
 30
0.0
 10
0.5004
 20
3.3291
 30
0.0
 10
0.5255
 20
3.3283
 30
0.0
 10
0.5952
 20
3.338
 30
0.0
 10
0.6199
 20
3.3222
 30
0.0
  0
SPLINE
  5
F9
330
1F
100
AcDbEntity
  8
DEFAULT_1
 62
   250
100
AcDbSpline
210
0.0
220
0.0
230
1.0
 70
    24
 71
     3
 72
     8
 73
     4
 74
     0
 42
0.0000000001
 43
0.0000000001
 40
0.0
 40
0.0
 40
0.0
 40
0.0
 40
1.0
 40
1.0
 40
1.0
 40
1.0
 10
0.6199
 20
3.3222
 30
0.0
 10
0.6199
 20
3.3222
 30
0.0
 10
0.7167
 20
3.2572
 30
0.0
 10
0.7167
 20
3.2572
 30
0.0
  0
SPLINE
  5
FA
330
1F
100
AcDbEntity
  8
DEFAULT_1
 62
   250
100
AcDbSpline
210
0.0
220
0.0
230
1.0
 70
     8
 71
     3
 72
     8
 73
     4
 74
     0
 42
0.0000000001
 43
0.0000000001
 40
0.0
 40
0.0
 40
0.0
 40
0.0
 40
1.0
 40
1.0
 40
1.0
 40
1.0
 10
-1.018
 20
1.43
 30
0.0
 10
-1.03
 20
1.4462
 30
0.0
 10
-1.039
 20
1.459
 30
0.0
 10
-1.0633
 20
1.459
 30
0.0
  0
SPLINE
  5
FB
330
1F
100
AcDbEntity
  8
DEFAULT_1
 62
   250
100
AcDbSpline
210
0.0
220
0.0
230
1.0
 70
    24
 71
     3
 72
    16
 73
    12
 74
     0
 42
0.0000000001
 43
0.0000000001
 40
0.0
 40
0.0
 40
0.0
 40
0.0
 40
0.25
 40
0.25
 40
0.25
 40
0.25
 40
0.5
 40
0.5
 40
0.5
 40
0.5
 40
1.0
 40
1.0
 40
1.0
 40
1.0
 10
-1.0633
 20
1.459
 30
0.0
 10
-1.0633
 20
1.459
 30
0.0
 10
-1.3976
 20
1.459
 30
0.0
 10
-1.3976
 20
1.459
 30
0.0
 10
-1.3976
 20
1.459
 30
0.0
 10
-1.3976
 20
1.459
 30
0.0
 10
-8.2011
 20
1.459
 30
0.0
 10
-8.2011
 20
1.459
 30
0.0
 10
-8.2011
 20
1.459
 30
0.0
 10
-8.2011
 20
1.459
 30
0.0
 10
-8.5356
 20
1.459
 30
0.0
 10
-8.5356
 20
1.459
 30
0.0
  0
SPLINE
  5
FC
330
1F
100
AcDbEntity
  8
DEFAULT_1
 62
   250
100
AcDbSpline
210
0.0
220
0.0
230
1.0
 70
     8
 71
     3
 72
     8
 73
     4
 74
     0
 42
0.0000000001
 43
0.0000000001
 40
0.0
 40
0.0
 40
0.0
 40
0.0
 40
1.0
 40
1.0
 40
1.0
 40
1.0
 10
-8.4274
 20
1.7274
 30
0.0
 10
-8.4515
 20
1.7289
 30
0.0
 10
-8.4757
 20
1.7292
 30
0.0
 10
-8.4998
 20
1.7292
 30
0.0
  0
SPLINE
  5
FD
330
1F
100
AcDbEntity
  8
DEFAULT_1
 62
   250
100
AcDbSpline
210
0.0
220
0.0
230
1.0
 70
     8
 71
     3
 72
    16
 73
    12
 74
     0
 42
0.0000000001
 43
0.0000000001
 40
0.0
 40
0.0
 40
0.0
 40
0.0
 40
0.25
 40
0.25
 40
0.25
 40
0.25
 40
0.5
 40
0.5
 40
0.5
 40
0.5
 40
1.0
 40
1.0
 40
1.0
 40
1.0
 10
-8.4998
 20
1.7292
 30
0.0
 10
-8.4998
 20
1.7292
 30
0.0
 10
-8.5219
 20
1.7282
 30
0.0
 10
-8.5219
 20
1.7282
 30
0.0
 10
-8.5219
 20
1.7282
 30
0.0
 10
-8.5219
 20
1.7282
 30
0.0
 10
-10.4141
 20
1.7283
 30
0.0
 10
-10.4141
 20
1.7283
 30
0.0
 10
-10.4141
 20
1.7283
 30
0.0
 10
-10.4141
 20
1.7283
 30
0.0
 10
-10.4642
 20
1.7274
 30
0.0
 10
-10.4642
 20
1.7274
 30
0.0
  0
SPLINE
  5
FE
330
1F
100
AcDbEntity
  8
DEFAULT_1
 62
   250
100
AcDbSpline
210
0.0
220
0.0
230
1.0
 70
     8
 71
     3
 72
     8
 73
     4
 74
     0
 42
0.0000000001
 43
0.0000000001
 40
0.0
 40
0.0
 40
0.0
 40
0.0
 40
1.0
 40
1.0
 40
1.0
 40
1.0
 10
-10.1644
 20
1.1888
 30
0.0
 10
-10.295
 20
1.309
 30
0.0
 10
-10.3808
 20
1.4622
 30
0.0
 10
-10.407
 20
1.6393
 30
0.0
  0
SPLINE
  5
FF
330
1F
100
AcDbEntity
  8
DEFAULT_1
 62
   250
100
AcDbSpline
210
0.0
220
0.0
230
1.0
 70
     8
 71
     3
 72
    16
 73
    12
 74
     0
 42
0.0000000001
 43
0.0000000001
 40
0.0
 40
0.0
 40
0.0
 40
0.0
 40
0.25
 40
0.25
 40
0.25
 40
0.25
 40
0.5
 40
0.5
 40
0.5
 40
0.5
 40
1.0
 40
1.0
 40
1.0
 40
1.0
 10
-10.407
 20
1.6393
 30
0.0
 10
-10.407
 20
1.6393
 30
0.0
 10
-10.4139
 20
1.7268
 30
0.0
 10
-10.4139
 20
1.7268
 30
0.0
 10
-10.4139
 20
1.7268
 30
0.0
 10
-10.4139
 20
1.7268
 30
0.0
 10
-10.4198
 20
2.0612
 30
0.0
 10
-10.4198
 20
2.0612
 30
0.0
 10
-10.4198
 20
2.0612
 30
0.0
 10
-10.4198
 20
2.0612
 30
0.0
 10
-10.4344
 20
2.89
 30
0.0
 10
-10.4344
 20
2.89
 30
0.0
  0
SPLINE
  5
100
330
1F
100
AcDbEntity
  8
DEFAULT_1
 62
   250
100
AcDbSpline
210
0.0
220
0.0
230
1.0
 70
     8
 71
     3
 72
     8
 73
     4
 74
     0
 42
0.0000000001
 43
0.0000000001
 40
0.0
 40
0.0
 40
0.0
 40
0.0
 40
1.0
 40
1.0
 40
1.0
 40
1.0
 10
-10.4344
 20
2.89
 30
0.0
 10
-10.4351
 20
2.9318
 30
0.0
 10
-10.3664
 20
3.2156
 30
0.0
 10
-10.4841
 20
3.2732
 30
0.0
  0
SPLINE
  5
101
330
1F
100
AcDbEntity
  8
DEFAULT_1
 62
   250
100
AcDbSpline
210
0.0
220
0.0
230
1.0
 70
     8
 71
     3
 72
    20
 73
    16
 74
     0
 42
0.0000000001
 43
0.0000000001
 40
0.0
 40
0.0
 40
0.0
 40
0.0
 40
0.2
 40
0.2
 40
0.2
 40
0.2
 40
0.4
 40
0.4
 40
0.4
 40
0.4
 40
0.6
 40
0.6
 40
0.6
 40
0.6
 40
1.0
 40
1.0
 40
1.0
 40
1.0
 10
-9.8183
 20
1.0146
 30
0.0
 10
-10.0285
 20
1.048
 30
0.0
 10
-10.2457
 20
1.1336
 30
0.0
 10
-10.3504
 20
1.3336
 30
0.0
 10
-10.3504
 20
1.3336
 30
0.0
 10
-10.3828
 20
1.3954
 30
0.0
 10
-10.4198
 20
1.4575
 30
0.0
 10
-10.4346
 20
1.527
 30
0.0
 10
-10.4346
 20
1.527
 30
0.0
 10
-10.4736
 20
1.7103
 30
0.0
 10
-10.4666
 20
1.8663
 30
0.0
 10
-10.47
 20
2.0617
 30
0.0
 10
-10.47
 20
2.0617
 30
0.0
 10
-10.4768
 20
2.4503
 30
0.0
 10
-10.4964
 20
2.8767
 30
0.0
 10
-10.4894
 20
3.2737
 30
0.0
  0
SPLINE
  5
102
330
1F
100
AcDbEntity
  8
DEFAULT_1
 62
   250
100
AcDbSpline
210
0.0
220
0.0
230
1.0
 70
     8
 71
     3
 72
     8
 73
     4
 74
     0
 42
0.0000000001
 43
0.0000000001
 40
0.0
 40
0.0
 40
0.0
 40
0.0
 40
1.0
 40
1.0
 40
1.0
 40
1.0
 10
-10.14
 20
1.1681
 30
0.0
 10
-10.04
 20
1.091
 30
0.0
 10
-9.933
 20
1.0438
 30
0.0
 10
-9.8098
 20
1.0166
 30
0.0
  0
SPLINE
  5
103
330
1F
100
AcDbEntity
  8
DEFAULT_1
 62
   250
100
AcDbSpline
210
0.0
220
0.0
230
1.0
 70
     8
 71
     3
 72
     8
 73
     4
 74
     0
 42
0.0000000001
 43
0.0000000001
 40
0.0
 40
0.0
 40
0.0
 40
0.0
 40
1.0
 40
1.0
 40
1.0
 40
1.0
 10
-13.2212
 20
1.0055
 30
0.0
 10
-13.1213
 20
1.011
 30
0.0
 10
-13.0296
 20
1.0303
 30
0.0
 10
-12.9392
 20
1.075
 30
0.0
  0
SPLINE
  5
104
330
1F
100
AcDbEntity
  8
DEFAULT_1
 62
   250
100
AcDbSpline
210
0.0
220
0.0
230
1.0
 70
     8
 71
     3
 72
    20
 73
    16
 74
     0
 42
0.0000000001
 43
0.0000000001
 40
0.0
 40
0.0
 40
0.0
 40
0.0
 40
0.2
 40
0.2
 40
0.2
 40
0.2
 40
0.4
 40
0.4
 40
0.4
 40
0.4
 40
0.6
 40
0.6
 40
0.6
 40
0.6
 40
1.0
 40
1.0
 40
1.0
 40
1.0
 10
-8.4605
 20
1.5092
 30
0.0
 10
-8.4605
 20
1.5092
 30
0.0
 10
-8.126
 20
1.5092
 30
0.0
 10
-8.126
 20
1.5092
 30
0.0
 10
-8.126
 20
1.5092
 30
0.0
 10
-8.126
 20
1.5092
 30
0.0
 10
-1.4292
 20
1.5092
 30
0.0
 10
-1.4292
 20
1.5092
 30
0.0
 10
-1.4292
 20
1.5092
 30
0.0
 10
-1.4292
 20
1.5092
 30
0.0
 10
-1.0949
 20
1.5092
 30
0.0
 10
-1.0949
 20
1.5092
 30
0.0
 10
-1.0949
 20
1.5092
 30
0.0
 10
-1.0949
 20
1.5092
 30
0.0
 10
-1.0739
 20
1.5158
 30
0.0
 10
-1.0739
 20
1.5158
 30
0.0
  0
SPLINE
  5
105
330
1F
100
AcDbEntity
  8
DEFAULT_1
 62
   250
100
AcDbSpline
210
0.0
220
0.0
230
1.0
 70
     8
 71
     3
 72
     8
 73
     4
 74
     0
 42
0.0000000001
 43
0.0000000001
 40
0.0
 40
0.0
 40
0.0
 40
0.0
 40
1.0
 40
1.0
 40
1.0
 40
1.0
 10
-1.0848
 20
1.4936
 30
0.0
 10
-1.0777
 20
1.4827
 30
0.0
 10
-1.0686
 20
1.4721
 30
0.0
 10
-1.063
 20
1.4604
 30
0.0
  0
SPLINE
  5
106
330
1F
100
AcDbEntity
  8
DEFAULT_1
 62
   250
100
AcDbSpline
210
0.0
220
0.0
230
1.0
 70
     8
 71
     3
 72
     8
 73
     4
 74
     0
 42
0.0000000001
 43
0.0000000001
 40
0.0
 40
0.0
 40
0.0
 40
0.0
 40
1.0
 40
1.0
 40
1.0
 40
1.0
 10
-1.018
 20
1.43
 30
0.0
 10
-1.024
 20
1.452
 30
0.0
 10
-1.0344
 20
1.4732
 30
0.0
 10
-1.042
 20
1.4947
 30
0.0
  0
SPLINE
  5
107
330
1F
100
AcDbEntity
  8
DEFAULT_1
 62
   250
100
AcDbSpline
210
0.0
220
0.0
230
1.0
 70
     8
 71
     3
 72
     8
 73
     4
 74
     0
 42
0.0000000001
 43
0.0000000001
 40
0.0
 40
0.0
 40
0.0
 40
0.0
 40
1.0
 40
1.0
 40
1.0
 40
1.0
 10
-8.5444
 20
1.42
 30
0.0
 10
-8.557
 20
1.4228
 30
0.0
 10
-8.5694
 20
1.4262
 30
0.0
 10
-8.5818
 20
1.43
 30
0.0
  0
SPLINE
  5
108
330
1F
100
AcDbEntity
  8
DEFAULT_1
 62
   250
100
AcDbSpline
210
0.0
220
0.0
230
1.0
 70
     8
 71
     3
 72
     8
 73
     4
 74
     0
 42
0.0000000001
 43
0.0000000001
 40
0.0
 40
0.0
 40
0.0
 40
0.0
 40
1.0
 40
1.0
 40
1.0
 40
1.0
 10
-8.5124
 20
1.465
 30
0.0
 10
-8.4184
 20
1.5051
 30
0.0
 10
-8.4301
 20
1.6457
 30
0.0
 10
-8.4274
 20
1.7274
 30
0.0
  0
SPLINE
  5
109
330
1F
100
AcDbEntity
  8
DEFAULT_1
 62
   250
100
AcDbSpline
210
0.0
220
0.0
230
1.0
 70
     8
 71
     3
 72
    12
 73
     8
 74
     0
 42
0.0000000001
 43
0.0000000001
 40
0.0
 40
0.0
 40
0.0
 40
0.0
 40
0.3333333333333333
 40
0.3333333333333333
 40
0.3333333333333333
 40
0.3333333333333333
 40
1.0
 40
1.0
 40
1.0
 40
1.0
 10
-8.4274
 20
1.7274
 30
0.0
 10
-8.4274
 20
1.7274
 30
0.0
 10
-8.4218
 20
2.0617
 30
0.0
 10
-8.4218
 20
2.0617
 30
0.0
 10
-8.4218
 20
2.0617
 30
0.0
 10
-8.4218
 20
2.0617
 30
0.0
 10
-8.4085
 20
2.8727
 30
0.0
 10
-8.4085
 20
2.8727
 30
0.0
  0
SPLINE
  5
10A
330
1F
100
AcDbEntity
  8
DEFAULT_1
 62
   250
100
AcDbSpline
210
0.0
220
0.0
230
1.0
 70
     8
 71
     3
 72
     8
 73
     4
 74
     0
 42
0.0000000001
 43
0.0000000001
 40
0.0
 40
0.0
 40
0.0
 40
0.0
 40
1.0
 40
1.0
 40
1.0
 40
1.0
 10
-8.4085
 20
2.8727
 30
0.0
 10
-8.4072
 20
2.9488
 30
0.0
 10
-8.312
 20
3.2358
 30
0.0
 10
-8.4666
 20
3.2606
 30
0.0
  0
SPLINE
  5
10B
330
1F
100
AcDbEntity
  8
DEFAULT_1
 62
   250
100
AcDbSpline
210
0.0
220
0.0
230
1.0
 70
     8
 71
     3
 72
     8
 73
     4
 74
     0
 42
0.0000000001
 43
0.0000000001
 40
0.0
 40
0.0
 40
0.0
 40
0.0
 40
1.0
 40
1.0
 40
1.0
 40
1.0
 10
-8.5528
 20
1.524
 30
0.0
 10
-8.5329
 20
1.5529
 30
0.0
 10
-8.4788
 20
1.5301
 30
0.0
 10
-8.4605
 20
1.5092
 30
0.0
  0
SPLINE
  5
10C
330
1F
100
AcDbEntity
  8
DEFAULT_1
 62
   250
100
AcDbSpline
210
0.0
220
0.0
230
1.0
 70
     8
 71
     3
 72
     8
 73
     4
 74
     0
 42
0.0000000001
 43
0.0000000001
 40
0.0
 40
0.0
 40
0.0
 40
0.0
 40
1.0
 40
1.0
 40
1.0
 40
1.0
 10
12.4955
 20
1.0751
 30
0.0
 10
12.5861
 20
1.0302
 30
0.0
 10
12.6772
 20
1.0105
 30
0.0
 10
12.7775
 20
1.0055
 30
0.0
  0
SPLINE
  5
10D
330
1F
100
AcDbEntity
  8
DEFAULT_1
 62
   250
100
AcDbSpline
210
0.0
220
0.0
230
1.0
 70
    24
 71
     3
 72
    16
 73
    12
 74
     0
 42
0.0000000001
 43
0.0000000001
 40
0.0
 40
0.0
 40
0.0
 40
0.0
 40
0.25
 40
0.25
 40
0.25
 40
0.25
 40
0.5
 40
0.5
 40
0.5
 40
0.5
 40
1.0
 40
1.0
 40
1.0
 40
1.0
 10
8.0324
 20
0.7728
 30
0.0
 10
8.0324
 20
0.7728
 30
0.0
 10
7.698
 20
0.7728
 30
0.0
 10
7.698
 20
0.7728
 30
0.0
 10
7.698
 20
0.7728
 30
0.0
 10
7.698
 20
0.7728
 30
0.0
 10
-8.395
 20
0.7728
 30
0.0
 10
-8.395
 20
0.7728
 30
0.0
 10
-8.395
 20
0.7728
 30
0.0
 10
-8.395
 20
0.7728
 30
0.0
 10
-8.7294
 20
0.7728
 30
0.0
 10
-8.7294
 20
0.7728
 30
0.0
  0
SPLINE
  5
10E
330
1F
100
AcDbEntity
  8
DEFAULT_1
 62
   250
100
AcDbSpline
210
0.0
220
0.0
230
1.0
 70
     8
 71
     3
 72
     8
 73
     4
 74
     0
 42
0.0000000001
 43
0.0000000001
 40
0.0
 40
0.0
 40
0.0
 40
0.0
 40
1.0
 40
1.0
 40
1.0
 40
1.0
 10
-8.7294
 20
0.7728
 30
0.0
 10
-8.7532
 20
0.7728
 30
0.0
 10
-8.7742
 20
0.7901
 30
0.0
 10
-8.7788
 20
0.8135
 30
0.0
  0
SPLINE
  5
10F
330
1F
100
AcDbEntity
  8
DEFAULT_1
 62
   250
100
AcDbSpline
210
0.0
220
0.0
230
1.0
 70
     8
 71
     3
 72
    12
 73
     8
 74
     0
 42
0.0000000001
 43
0.0000000001
 40
0.0
 40
0.0
 40
0.0
 40
0.0
 40
0.3333333333333333
 40
0.3333333333333333
 40
0.3333333333333333
 40
0.3333333333333333
 40
1.0
 40
1.0
 40
1.0
 40
1.0
 10
-8.7788
 20
0.8135
 30
0.0
 10
-8.7788
 20
0.8135
 30
0.0
 10
-8.7796
 20
0.8221
 30
0.0
 10
-8.7796
 20
0.8221
 30
0.0
 10
-8.7796
 20
0.8221
 30
0.0
 10
-8.7796
 20
0.8221
 30
0.0
 10
-8.7831
 20
1.02
 30
0.0
 10
-8.7831
 20
1.02
 30
0.0
  0
SPLINE
  5
110
330
1F
100
AcDbEntity
  8
DEFAULT_1
 62
   250
100
AcDbSpline
210
0.0
220
0.0
230
1.0
 70
     8
 71
     3
 72
    16
 73
    12
 74
     0
 42
0.0000000001
 43
0.0000000001
 40
0.0
 40
0.0
 40
0.0
 40
0.0
 40
0.25
 40
0.25
 40
0.25
 40
0.25
 40
0.5
 40
0.5
 40
0.5
 40
0.5
 40
1.0
 40
1.0
 40
1.0
 40
1.0
 10
-8.7831
 20
1.02
 30
0.0
 10
-8.7838
 20
1.0477
 30
0.0
 10
-8.8036
 20
1.0649
 30
0.0
 10
-8.8291
 20
1.0692
 30
0.0
 10
-8.8291
 20
1.0692
 30
0.0
 10
-8.8735
 20
1.0675
 30
0.0
 10
-8.9122
 20
1.0388
 30
0.0
 10
-8.9553
 20
1.0299
 30
0.0
 10
-8.9553
 20
1.0299
 30
0.0
 10
-9.0716
 20
1.0061
 30
0.0
 10
-9.02
 20
1.0139
 30
0.0
 10
-9.1436
 20
1.0055
 30
0.0
  0
SPLINE
  5
111
330
1F
100
AcDbEntity
  8
DEFAULT_1
 62
   250
100
AcDbSpline
210
0.0
220
0.0
230
1.0
 70
    24
 71
     3
 72
    12
 73
     8
 74
     0
 42
0.0000000001
 43
0.0000000001
 40
0.0
 40
0.0
 40
0.0
 40
0.0
 40
0.3333333333333333
 40
0.3333333333333333
 40
0.3333333333333333
 40
0.3333333333333333
 40
1.0
 40
1.0
 40
1.0
 40
1.0
 10
-9.1436
 20
1.0055
 30
0.0
 10
-9.1436
 20
1.0055
 30
0.0
 10
-9.478
 20
1.0055
 30
0.0
 10
-9.478
 20
1.0055
 30
0.0
 10
-9.478
 20
1.0055
 30
0.0
 10
-9.478
 20
1.0055
 30
0.0
 10
-12.8868
 20
1.0055
 30
0.0
 10
-12.8868
 20
1.0055
 30
0.0
  0
SPLINE
  5
112
330
1F
100
AcDbEntity
  8
DEFAULT_1
 62
   250
100
AcDbSpline
210
0.0
220
0.0
230
1.0
 70
     8
 71
     3
 72
    16
 73
    12
 74
     0
 42
0.0000000001
 43
0.0000000001
 40
0.0
 40
0.0
 40
0.0
 40
0.0
 40
0.25
 40
0.25
 40
0.25
 40
0.25
 40
0.5
 40
0.5
 40
0.5
 40
0.5
 40
1.0
 40
1.0
 40
1.0
 40
1.0
 10
-12.8868
 20
1.0055
 30
0.0
 10
-13.0208
 20
1.0055
 30
0.0
 10
-13.2019
 20
0.9907
 30
0.0
 10
-13.3477
 20
1.0166
 30
0.0
 10
-13.3477
 20
1.0166
 30
0.0
 10
-13.6474
 20
1.0695
 30
0.0
 10
-13.8869
 20
1.3113
 30
0.0
 10
-13.9416
 20
1.6101
 30
0.0
 10
-13.9416
 20
1.6101
 30
0.0
 10
-13.9683
 20
1.7563
 30
0.0
 10
-13.9555
 20
1.9368
 30
0.0
 10
-13.9567
 20
2.0719
 30
0.0
  0
SPLINE
  5
113
330
1F
100
AcDbEntity
  8
DEFAULT_1
 62
   250
100
AcDbSpline
210
0.0
220
0.0
230
1.0
 70
     8
 71
     3
 72
    12
 73
     8
 74
     0
 42
0.0000000001
 43
0.0000000001
 40
0.0
 40
0.0
 40
0.0
 40
0.0
 40
0.3333333333333333
 40
0.3333333333333333
 40
0.3333333333333333
 40
0.3333333333333333
 40
1.0
 40
1.0
 40
1.0
 40
1.0
 10
-13.9567
 20
2.0719
 30
0.0
 10
-13.9567
 20
2.0719
 30
0.0
 10
-13.9643
 20
2.9512
 30
0.0
 10
-13.9643
 20
2.9512
 30
0.0
 10
-13.9643
 20
2.9512
 30
0.0
 10
-13.9643
 20
2.9512
 30
0.0
 10
-13.9672
 20
3.2855
 30
0.0
 10
-13.9672
 20
3.2855
 30
0.0
  0
SPLINE
  5
114
330
1F
100
AcDbEntity
  8
DEFAULT_1
 62
   250
100
AcDbSpline
210
0.0
220
0.0
230
1.0
 70
     8
 71
     3
 72
     8
 73
     4
 74
     0
 42
0.0000000001
 43
0.0000000001
 40
0.0
 40
0.0
 40
0.0
 40
0.0
 40
1.0
 40
1.0
 40
1.0
 40
1.0
 10
-15.7366
 20
3.9829
 30
0.0
 10
-15.7096
 20
3.9813
 30
0.0
 10
-15.6873
 20
3.9606
 30
0.0
 10
-15.6873
 20
3.9327
 30
0.0
  0
SPLINE
  5
115
330
1F
100
AcDbEntity
  8
DEFAULT_1
 62
   250
100
AcDbSpline
210
0.0
220
0.0
230
1.0
 70
    24
 71
     3
 72
    12
 73
     8
 74
     0
 42
0.0000000001
 43
0.0000000001
 40
0.0
 40
0.0
 40
0.0
 40
0.0
 40
0.3333333333333333
 40
0.3333333333333333
 40
0.3333333333333333
 40
0.3333333333333333
 40
1.0
 40
1.0
 40
1.0
 40
1.0
 10
-15.6873
 20
3.9327
 30
0.0
 10
-15.6873
 20
3.9327
 30
0.0
 10
-15.6873
 20
3.6732
 30
0.0
 10
-15.6873
 20
3.6732
 30
0.0
 10
-15.6873
 20
3.6732
 30
0.0
 10
-15.6873
 20
3.6732
 30
0.0
 10
-15.6873
 20
3.4136
 30
0.0
 10
-15.6873
 20
3.4136
 30
0.0
  0
SPLINE
  5
116
330
1F
100
AcDbEntity
  8
DEFAULT_1
 62
   250
100
AcDbSpline
210
0.0
220
0.0
230
1.0
 70
     8
 71
     3
 72
     8
 73
     4
 74
     0
 42
0.0000000001
 43
0.0000000001
 40
0.0
 40
0.0
 40
0.0
 40
0.0
 40
1.0
 40
1.0
 40
1.0
 40
1.0
 10
-15.6873
 20
3.4136
 30
0.0
 10
-15.6873
 20
3.393
 30
0.0
 10
-15.6742
 20
3.374
 30
0.0
 10
-15.6549
 20
3.3667
 30
0.0
  0
SPLINE
  5
117
330
1F
100
AcDbEntity
  8
DEFAULT_1
 62
   250
100
AcDbSpline
210
0.0
220
0.0
230
1.0
 70
     8
 71
     3
 72
    20
 73
    16
 74
     0
 42
0.0000000001
 43
0.0000000001
 40
0.0
 40
0.0
 40
0.0
 40
0.0
 40
0.2
 40
0.2
 40
0.2
 40
0.2
 40
0.4
 40
0.4
 40
0.4
 40
0.4
 40
0.6
 40
0.6
 40
0.6
 40
0.6
 40
1.0
 40
1.0
 40
1.0
 40
1.0
 10
-15.6549
 20
3.3667
 30
0.0
 10
-15.6549
 20
3.3667
 30
0.0
 10
-15.6379
 20
3.3635
 30
0.0
 10
-15.6379
 20
3.3635
 30
0.0
 10
-15.6379
 20
3.3635
 30
0.0
 10
-15.6379
 20
3.3635
 30
0.0
 10
-15.3036
 20
3.3576
 30
0.0
 10
-15.3036
 20
3.3576
 30
0.0
 10
-15.3036
 20
3.3576
 30
0.0
 10
-15.3036
 20
3.3576
 30
0.0
 10
-14.3485
 20
3.341
 30
0.0
 10
-14.3485
 20
3.341
 30
0.0
 10
-14.3485
 20
3.341
 30
0.0
 10
-14.3485
 20
3.341
 30
0.0
 10
-14.0142
 20
3.3351
 30
0.0
 10
-14.0142
 20
3.3351
 30
0.0
  0
SPLINE
  5
118
330
1F
100
AcDbEntity
  8
DEFAULT_1
 62
   250
100
AcDbSpline
210
0.0
220
0.0
230
1.0
 70
     8
 71
     3
 72
     8
 73
     4
 74
     0
 42
0.0000000001
 43
0.0000000001
 40
0.0
 40
0.0
 40
0.0
 40
0.0
 40
1.0
 40
1.0
 40
1.0
 40
1.0
 10
-14.0224
 20
3.3353
 30
0.0
 10
-13.9941
 20
3.3336
 30
0.0
 10
-13.975
 20
3.3134
 30
0.0
 10
-13.9732
 20
3.2855
 30
0.0
  0
SPLINE
  5
119
330
1F
100
AcDbEntity
  8
DEFAULT_1
 62
   250
100
AcDbSpline
210
0.0
220
0.0
230
1.0
 70
    24
 71
     3
 72
     8
 73
     4
 74
     0
 42
0.0000000001
 43
0.0000000001
 40
0.0
 40
0.0
 40
0.0
 40
0.0
 40
1.0
 40
1.0
 40
1.0
 40
1.0
 10
-10.1783
 20
1.201
 30
0.0
 10
-10.1783
 20
1.201
 30
0.0
 10
-10.14
 20
1.1681
 30
0.0
 10
-10.14
 20
1.1681
 30
0.0
  0
SPLINE
  5
11A
330
1F
100
AcDbEntity
  8
DEFAULT_1
 62
   250
100
AcDbSpline
210
0.0
220
0.0
230
1.0
 70
    24
 71
     3
 72
    16
 73
    12
 74
     0
 42
0.0000000001
 43
0.0000000001
 40
0.0
 40
0.0
 40
0.0
 40
0.0
 40
0.25
 40
0.25
 40
0.25
 40
0.25
 40
0.5
 40
0.5
 40
0.5
 40
0.5
 40
1.0
 40
1.0
 40
1.0
 40
1.0
 10
-8.4761
 20
0.7728
 30
0.0
 10
-8.4761
 20
0.7728
 30
0.0
 10
-8.1417
 20
0.7728
 30
0.0
 10
-8.1417
 20
0.7728
 30
0.0
 10
-8.1417
 20
0.7728
 30
0.0
 10
-8.1417
 20
0.7728
 30
0.0
 10
7.9514
 20
0.7728
 30
0.0
 10
7.9514
 20
0.7728
 30
0.0
 10
7.9514
 20
0.7728
 30
0.0
 10
7.9514
 20
0.7728
 30
0.0
 10
8.2857
 20
0.7728
 30
0.0
 10
8.2857
 20
0.7728
 30
0.0
  0
SPLINE
  5
11B
330
1F
100
AcDbEntity
  8
DEFAULT_1
 62
   250
100
AcDbSpline
210
0.0
220
0.0
230
1.0
 70
     8
 71
     3
 72
    12
 73
     8
 74
     0
 42
0.0000000001
 43
0.0000000001
 40
0.0
 40
0.0
 40
0.0
 40
0.0
 40
0.3333333333333333
 40
0.3333333333333333
 40
0.3333333333333333
 40
0.3333333333333333
 40
1.0
 40
1.0
 40
1.0
 40
1.0
 10
8.2857
 20
0.7728
 30
0.0
 10
8.2973
 20
0.7728
 30
0.0
 10
8.3087
 20
0.7769
 30
0.0
 10
8.3177
 20
0.7843
 30
0.0
 10
8.3177
 20
0.7843
 30
0.0
 10
8.3289
 20
0.7935
 30
0.0
 10
8.3356
 20
0.8076
 30
0.0
 10
8.3359
 20
0.8221
 30
0.0
  0
SPLINE
  5
11C
330
1F
100
AcDbEntity
  8
DEFAULT_1
 62
   250
100
AcDbSpline
210
0.0
220
0.0
230
1.0
 70
    24
 71
     3
 72
     8
 73
     4
 74
     0
 42
0.0000000001
 43
0.0000000001
 40
0.0
 40
0.0
 40
0.0
 40
0.0
 40
1.0
 40
1.0
 40
1.0
 40
1.0
 10
8.3359
 20
0.8221
 30
0.0
 10
8.3359
 20
0.8221
 30
0.0
 10
8.3393
 20
1.02
 30
0.0
 10
8.3393
 20
1.02
 30
0.0
  0
SPLINE
  5
11D
330
1F
100
AcDbEntity
  8
DEFAULT_1
 62
   250
100
AcDbSpline
210
0.0
220
0.0
230
1.0
 70
     8
 71
     3
 72
    12
 73
     8
 74
     0
 42
0.0000000001
 43
0.0000000001
 40
0.0
 40
0.0
 40
0.0
 40
0.0
 40
0.3333333333333333
 40
0.3333333333333333
 40
0.3333333333333333
 40
0.3333333333333333
 40
1.0
 40
1.0
 40
1.0
 40
1.0
 10
8.3393
 20
1.02
 30
0.0
 10
8.34
 20
1.0445
 30
0.0
 10
8.3598
 20
1.0689
 30
0.0
 10
8.3854
 20
1.07
 30
0.0
 10
8.3854
 20
1.07
 30
0.0
 10
8.393
 20
1.0703
 30
0.0
 10
8.4023
 20
1.0677
 30
0.0
 10
8.4093
 20
1.0653
 30
0.0
  0
SPLINE
  5
11E
330
1F
100
AcDbEntity
  8
DEFAULT_1
 62
   250
100
AcDbSpline
210
0.0
220
0.0
230
1.0
 70
     8
 71
     3
 72
    32
 73
    28
 74
     0
 42
0.0000000001
 43
0.0000000001
 40
0.0
 40
0.0
 40
0.0
 40
0.0
 40
0.125
 40
0.125
 40
0.125
 40
0.125
 40
0.25
 40
0.25
 40
0.25
 40
0.25
 40
0.375
 40
0.375
 40
0.375
 40
0.375
 40
0.5
 40
0.5
 40
0.5
 40
0.5
 40
0.625
 40
0.625
 40
0.625
 40
0.625
 40
0.75
 40
0.75
 40
0.75
 40
0.75
 40
1.0
 40
1.0
 40
1.0
 40
1.0
 10
8.4093
 20
1.0653
 30
0.0
 10
8.4093
 20
1.0653
 30
0.0
 10
8.5032
 20
1.0323
 30
0.0
 10
8.5032
 20
1.0323
 30
0.0
 10
8.5032
 20
1.0323
 30
0.0
 10
8.5032
 20
1.0323
 30
0.0
 10
8.6006
 20
1.0122
 30
0.0
 10
8.6006
 20
1.0122
 30
0.0
 10
8.6006
 20
1.0122
 30
0.0
 10
8.6006
 20
1.0122
 30
0.0
 10
8.6999
 20
1.0055
 30
0.0
 10
8.6999
 20
1.0055
 30
0.0
 10
8.6999
 20
1.0055
 30
0.0
 10
8.6999
 20
1.0055
 30
0.0
 10
9.0343
 20
1.0055
 30
0.0
 10
9.0343
 20
1.0055
 30
0.0
 10
9.0343
 20
1.0055
 30
0.0
 10
9.0343
 20
1.0055
 30
0.0
 10
12.4431
 20
1.0055
 30
0.0
 10
12.4431
 20
1.0055
 30
0.0
 10
12.4431
 20
1.0055
 30
0.0
 10
12.4431
 20
1.0055
 30
0.0
 10
12.7776
 20
1.0055
 30
0.0
 10
12.7776
 20
1.0055
 30
0.0
 10
12.7776
 20
1.0055
 30
0.0
 10
12.7776
 20
1.0055
 30
0.0
 10
12.841
 20
1.0082
 30
0.0
 10
12.841
 20
1.0082
 30
0.0
  0
SPLINE
  5
11F
330
1F
100
AcDbEntity
  8
DEFAULT_1
 62
   250
100
AcDbSpline
210
0.0
220
0.0
230
1.0
 70
     8
 71
     3
 72
    12
 73
     8
 74
     0
 42
0.0000000001
 43
0.0000000001
 40
0.0
 40
0.0
 40
0.0
 40
0.0
 40
0.3333333333333333
 40
0.3333333333333333
 40
0.3333333333333333
 40
0.3333333333333333
 40
1.0
 40
1.0
 40
1.0
 40
1.0
 10
12.841
 20
1.0082
 30
0.0
 10
13.1441
 20
1.0349
 30
0.0
 10
13.4037
 20
1.2548
 30
0.0
 10
13.4837
 20
1.5477
 30
0.0
 10
13.4837
 20
1.5477
 30
0.0
 10
13.5292
 20
1.7137
 30
0.0
 10
13.5116
 20
1.908
 30
0.0
 10
13.513
 20
2.0719
 30
0.0
  0
SPLINE
  5
120
330
1F
100
AcDbEntity
  8
DEFAULT_1
 62
   250
100
AcDbSpline
210
0.0
220
0.0
230
1.0
 70
     8
 71
     3
 72
    12
 73
     8
 74
     0
 42
0.0000000001
 43
0.0000000001
 40
0.0
 40
0.0
 40
0.0
 40
0.0
 40
0.3333333333333333
 40
0.3333333333333333
 40
0.3333333333333333
 40
0.3333333333333333
 40
1.0
 40
1.0
 40
1.0
 40
1.0
 10
13.513
 20
2.0719
 30
0.0
 10
13.513
 20
2.0719
 30
0.0
 10
13.5205
 20
2.9512
 30
0.0
 10
13.5205
 20
2.9512
 30
0.0
 10
13.5205
 20
2.9512
 30
0.0
 10
13.5205
 20
2.9512
 30
0.0
 10
13.5234
 20
3.2855
 30
0.0
 10
13.5234
 20
3.2855
 30
0.0
  0
SPLINE
  5
121
330
1F
100
AcDbEntity
  8
DEFAULT_1
 62
   250
100
AcDbSpline
210
0.0
220
0.0
230
1.0
 70
     8
 71
     3
 72
    20
 73
    16
 74
     0
 42
0.0000000001
 43
0.0000000001
 40
0.0
 40
0.0
 40
0.0
 40
0.0
 40
0.2
 40
0.2
 40
0.2
 40
0.2
 40
0.4
 40
0.4
 40
0.4
 40
0.4
 40
0.6
 40
0.6
 40
0.6
 40
0.6
 40
1.0
 40
1.0
 40
1.0
 40
1.0
 10
13.5704
 20
3.3351
 30
0.0
 10
13.5704
 20
3.3351
 30
0.0
 10
13.9048
 20
3.341
 30
0.0
 10
13.9048
 20
3.341
 30
0.0
 10
13.9048
 20
3.341
 30
0.0
 10
13.9048
 20
3.341
 30
0.0
 10
14.86
 20
3.3576
 30
0.0
 10
14.86
 20
3.3576
 30
0.0
 10
14.86
 20
3.3576
 30
0.0
 10
14.86
 20
3.3576
 30
0.0
 10
15.1943
 20
3.3635
 30
0.0
 10
15.1943
 20
3.3635
 30
0.0
 10
15.1943
 20
3.3635
 30
0.0
 10
15.1943
 20
3.3635
 30
0.0
 10
15.2113
 20
3.3667
 30
0.0
 10
15.2113
 20
3.3667
 30
0.0
  0
SPLINE
  5
122
330
1F
100
AcDbEntity
  8
DEFAULT_1
 62
   250
100
AcDbSpline
210
0.0
220
0.0
230
1.0
 70
     8
 71
     3
 72
     8
 73
     4
 74
     0
 42
0.0000000001
 43
0.0000000001
 40
0.0
 40
0.0
 40
0.0
 40
0.0
 40
1.0
 40
1.0
 40
1.0
 40
1.0
 10
15.2113
 20
3.3667
 30
0.0
 10
15.2306
 20
3.374
 30
0.0
 10
15.2436
 20
3.393
 30
0.0
 10
15.2436
 20
3.4136
 30
0.0
  0
SPLINE
  5
123
330
1F
100
AcDbEntity
  8
DEFAULT_1
 62
   250
100
AcDbSpline
210
0.0
220
0.0
230
1.0
 70
    24
 71
     3
 72
    12
 73
     8
 74
     0
 42
0.0000000001
 43
0.0000000001
 40
0.0
 40
0.0
 40
0.0
 40
0.0
 40
0.3333333333333333
 40
0.3333333333333333
 40
0.3333333333333333
 40
0.3333333333333333
 40
1.0
 40
1.0
 40
1.0
 40
1.0
 10
15.2436
 20
3.4136
 30
0.0
 10
15.2436
 20
3.4136
 30
0.0
 10
15.2436
 20
3.6732
 30
0.0
 10
15.2436
 20
3.6732
 30
0.0
 10
15.2436
 20
3.6732
 30
0.0
 10
15.2436
 20
3.6732
 30
0.0
 10
15.2436
 20
3.9327
 30
0.0
 10
15.2436
 20
3.9327
 30
0.0
  0
SPLINE
  5
124
330
1F
100
AcDbEntity
  8
DEFAULT_1
 62
   250
100
AcDbSpline
210
0.0
220
0.0
230
1.0
 70
     8
 71
     3
 72
     8
 73
     4
 74
     0
 42
0.0000000001
 43
0.0000000001
 40
0.0
 40
0.0
 40
0.0
 40
0.0
 40
1.0
 40
1.0
 40
1.0
 40
1.0
 10
15.2436
 20
3.9327
 30
0.0
 10
15.2436
 20
3.9606
 30
0.0
 10
15.2659
 20
3.9813
 30
0.0
 10
15.2929
 20
3.9829
 30
0.0
  0
SPLINE
  5
125
330
1F
100
AcDbEntity
  8
DEFAULT_1
 62
   250
100
AcDbSpline
210
0.0
220
0.0
230
1.0
 70
     8
 71
     3
 72
     8
 73
     4
 74
     0
 42
0.0000000001
 43
0.0000000001
 40
0.0
 40
0.0
 40
0.0
 40
0.0
 40
1.0
 40
1.0
 40
1.0
 40
1.0
 10
13.5746
 20
3.335
 30
0.0
 10
13.5486
 20
3.3229
 30
0.0
 10
13.5317
 20
3.319
 30
0.0
 10
13.5295
 20
3.2855
 30
0.0
  0
SPLINE
  5
126
330
1F
100
AcDbEntity
  8
DEFAULT_1
 62
   250
100
AcDbSpline
210
0.0
220
0.0
230
1.0
 70
    24
 71
     3
 72
     8
 73
     4
 74
     0
 42
0.0000000001
 43
0.0000000001
 40
0.0
 40
0.0
 40
0.0
 40
0.0
 40
1.0
 40
1.0
 40
1.0
 40
1.0
 10
9.6867
 20
1.1609
 30
0.0
 10
9.6867
 20
1.1609
 30
0.0
 10
9.7322
 20
1.1989
 30
0.0
 10
9.7322
 20
1.1989
 30
0.0
  0
SPLINE
  5
127
330
1F
100
AcDbEntity
  8
DEFAULT_1
 62
   250
100
AcDbSpline
210
0.0
220
0.0
230
1.0
 70
    24
 71
     3
 72
     8
 73
     4
 74
     0
 42
0.0000000001
 43
0.0000000001
 40
0.0
 40
0.0
 40
0.0
 40
0.0
 40
1.0
 40
1.0
 40
1.0
 40
1.0
 10
7.8166
 20
1.459
 30
0.0
 10
7.8166
 20
1.459
 30
0.0
 10
8.0918
 20
1.459
 30
0.0
 10
8.0918
 20
1.459
 30
0.0
  0
SPLINE
  5
128
330
1F
100
AcDbEntity
  8
DEFAULT_1
 62
   250
100
AcDbSpline
210
0.0
220
0.0
230
1.0
 70
     8
 71
     3
 72
     8
 73
     4
 74
     0
 42
0.0000000001
 43
0.0000000001
 40
0.0
 40
0.0
 40
0.0
 40
0.0
 40
1.0
 40
1.0
 40
1.0
 40
1.0
 10
8.0918
 20
1.459
 30
0.0
 10
8.1124
 20
1.4589
 30
0.0
 10
8.1273
 20
1.447
 30
0.0
 10
8.1381
 20
1.43
 30
0.0
  0
SPLINE
  5
129
330
1F
100
AcDbEntity
  8
DEFAULT_1
 62
   250
100
AcDbSpline
210
0.0
220
0.0
230
1.0
 70
     8
 71
     3
 72
     8
 73
     4
 74
     0
 42
0.0000000001
 43
0.0000000001
 40
0.0
 40
0.0
 40
0.0
 40
0.0
 40
1.0
 40
1.0
 40
1.0
 40
1.0
 10
8.0501
 20
0.7728
 30
0.0
 10
8.0246
 20
0.7717
 30
0.0
 10
8.0029
 20
0.7538
 30
0.0
 10
8.0002
 20
0.7279
 30
0.0
  0
SPLINE
  5
12A
330
1F
100
AcDbEntity
  8
DEFAULT_1
 62
   250
100
AcDbSpline
210
0.0
220
0.0
230
1.0
 70
     8
 71
     3
 72
    16
 73
    12
 74
     0
 42
0.0000000001
 43
0.0000000001
 40
0.0
 40
0.0
 40
0.0
 40
0.0
 40
0.25
 40
0.25
 40
0.25
 40
0.25
 40
0.5
 40
0.5
 40
0.5
 40
0.5
 40
1.0
 40
1.0
 40
1.0
 40
1.0
 10
8.0002
 20
0.7279
 30
0.0
 10
8.0002
 20
0.7279
 30
0.0
 10
7.9941
 20
0.3892
 30
0.0
 10
7.9941
 20
0.3892
 30
0.0
 10
7.9941
 20
0.3892
 30
0.0
 10
7.9941
 20
0.3892
 30
0.0
 10
7.9847
 20
-0.1475
 30
0.0
 10
7.9847
 20
-0.1475
 30
0.0
 10
7.9847
 20
-0.1475
 30
0.0
 10
7.9847
 20
-0.1475
 30
0.0
 10
7.9789
 20
-0.4818
 30
0.0
 10
7.9789
 20
-0.4818
 30
0.0
  0
SPLINE
  5
12B
330
1F
100
AcDbEntity
  8
DEFAULT_1
 62
   250
100
AcDbSpline
210
0.0
220
0.0
230
1.0
 70
     8
 71
     3
 72
     8
 73
     4
 74
     0
 42
0.0000000001
 43
0.0000000001
 40
0.0
 40
0.0
 40
0.0
 40
0.0
 40
1.0
 40
1.0
 40
1.0
 40
1.0
 10
19.9386
 20
-0.8698
 30
0.0
 10
19.8918
 20
-0.8564
 30
0.0
 10
19.3214
 20
-0.6861
 30
0.0
 10
19.2733
 20
-0.6789
 30
0.0
  0
SPLINE
  5
12C
330
1F
100
AcDbEntity
  8
DEFAULT_1
 62
   250
100
AcDbSpline
210
0.0
220
0.0
230
1.0
 70
     8
 71
     3
 72
    16
 73
    12
 74
     0
 42
0.0000000001
 43
0.0000000001
 40
0.0
 40
0.0
 40
0.0
 40
0.0
 40
0.25
 40
0.25
 40
0.25
 40
0.25
 40
0.5
 40
0.5
 40
0.5
 40
0.5
 40
1.0
 40
1.0
 40
1.0
 40
1.0
 10
19.2733
 20
-0.6789
 30
0.0
 10
19.2733
 20
-0.6789
 30
0.0
 10
18.9389
 20
-0.6731
 30
0.0
 10
18.9389
 20
-0.6731
 30
0.0
 10
18.9389
 20
-0.6731
 30
0.0
 10
18.9389
 20
-0.6731
 30
0.0
 10
8.3133
 20
-0.4876
 30
0.0
 10
8.3133
 20
-0.4876
 30
0.0
 10
8.3133
 20
-0.4876
 30
0.0
 10
8.3133
 20
-0.4876
 30
0.0
 10
7.9789
 20
-0.4818
 30
0.0
 10
7.9789
 20
-0.4818
 30
0.0
  0
SPLINE
  5
12D
330
1F
100
AcDbEntity
  8
DEFAULT_1
 62
   250
100
AcDbSpline
210
0.0
220
0.0
230
1.0
 70
     8
 71
     3
 72
     8
 73
     4
 74
     0
 42
0.0000000001
 43
0.0000000001
 40
0.0
 40
0.0
 40
0.0
 40
0.0
 40
1.0
 40
1.0
 40
1.0
 40
1.0
 10
19.799
 20
-8.8698
 30
0.0
 10
19.8229
 20
-6.203
 30
0.0
 10
19.8932
 20
-3.5364
 30
0.0
 10
19.9386
 20
-0.8698
 30
0.0
  0
SPLINE
  5
12E
330
1F
100
AcDbEntity
  8
DEFAULT_1
 62
   250
100
AcDbSpline
210
0.0
220
0.0
230
1.0
 70
     8
 71
     3
 72
    16
 73
    12
 74
     0
 42
0.0000000001
 43
0.0000000001
 40
0.0
 40
0.0
 40
0.0
 40
0.0
 40
0.25
 40
0.25
 40
0.25
 40
0.25
 40
0.5
 40
0.5
 40
0.5
 40
0.5
 40
1.0
 40
1.0
 40
1.0
 40
1.0
 10
3.0802
 20
-8.7573
 30
0.0
 10
3.0802
 20
-8.7573
 30
0.0
 10
3.4145
 20
-8.7632
 30
0.0
 10
3.4145
 20
-8.7632
 30
0.0
 10
3.4145
 20
-8.7632
 30
0.0
 10
3.4145
 20
-8.7632
 30
0.0
 10
18.793
 20
-9.0314
 30
0.0
 10
18.793
 20
-9.0314
 30
0.0
 10
18.793
 20
-9.0314
 30
0.0
 10
18.793
 20
-9.0314
 30
0.0
 10
19.1273
 20
-9.0373
 30
0.0
 10
19.1273
 20
-9.0373
 30
0.0
  0
SPLINE
  5
12F
330
1F
100
AcDbEntity
  8
DEFAULT_1
 62
   250
100
AcDbSpline
210
0.0
220
0.0
230
1.0
 70
     8
 71
     3
 72
     8
 73
     4
 74
     0
 42
0.0000000001
 43
0.0000000001
 40
0.0
 40
0.0
 40
0.0
 40
0.0
 40
1.0
 40
1.0
 40
1.0
 40
1.0
 10
19.1273
 20
-9.0373
 30
0.0
 10
19.1757
 20
-9.0318
 30
0.0
 10
19.7517
 20
-8.8817
 30
0.0
 10
19.799
 20
-8.8698
 30
0.0
  0
SPLINE
  5
130
330
1F
100
AcDbEntity
  8
DEFAULT_1
 62
   250
100
AcDbSpline
210
0.0
220
0.0
230
1.0
 70
    24
 71
     3
 72
    12
 73
     8
 74
     0
 42
0.0000000001
 43
0.0000000001
 40
0.0
 40
0.0
 40
0.0
 40
0.0
 40
0.3333333333333333
 40
0.3333333333333333
 40
0.3333333333333333
 40
0.3333333333333333
 40
1.0
 40
1.0
 40
1.0
 40
1.0
 10
5.3405
 20
-8.7573
 30
0.0
 10
5.3405
 20
-8.7573
 30
0.0
 10
5.0061
 20
-8.7573
 30
0.0
 10
5.0061
 20
-8.7573
 30
0.0
 10
5.0061
 20
-8.7573
 30
0.0
 10
5.0061
 20
-8.7573
 30
0.0
 10
-5.4792
 20
-8.7573
 30
0.0
 10
-5.4792
 20
-8.7573
 30
0.0
  0
SPLINE
  5
131
330
1F
100
AcDbEntity
  8
DEFAULT_1
 62
   250
100
AcDbSpline
210
0.0
220
0.0
230
1.0
 70
     8
 71
     3
 72
    20
 73
    16
 74
     0
 42
0.0000000001
 43
0.0000000001
 40
0.0
 40
0.0
 40
0.0
 40
0.0
 40
0.2
 40
0.2
 40
0.2
 40
0.2
 40
0.4
 40
0.4
 40
0.4
 40
0.4
 40
0.6
 40
0.6
 40
0.6
 40
0.6
 40
1.0
 40
1.0
 40
1.0
 40
1.0
 10
-5.4792
 20
-8.7573
 30
0.0
 10
-5.7361
 20
-8.7573
 30
0.0
 10
-5.9902
 20
-8.7643
 30
0.0
 10
-6.2444
 20
-8.7201
 30
0.0
 10
-6.2444
 20
-8.7201
 30
0.0
 10
-6.6715
 20
-8.6456
 30
0.0
 10
-7.0765
 20
-8.4591
 30
0.0
 10
-7.4107
 20
-8.183
 30
0.0
 10
-7.4107
 20
-8.183
 30
0.0
 10
-7.8574
 20
-7.814
 30
0.0
 10
-8.1669
 20
-7.2922
 30
0.0
 10
-8.2763
 20
-6.7232
 30
0.0
 10
-8.2763
 20
-6.7232
 30
0.0
 10
-8.3251
 20
-6.4699
 30
0.0
 10
-8.3225
 20
-6.2156
 30
0.0
 10
-8.327
 20
-5.9588
 30
0.0
  0
SPLINE
  5
132
330
1F
100
AcDbEntity
  8
DEFAULT_1
 62
   250
100
AcDbSpline
210
0.0
220
0.0
230
1.0
 70
     8
 71
     3
 72
    12
 73
     8
 74
     0
 42
0.0000000001
 43
0.0000000001
 40
0.0
 40
0.0
 40
0.0
 40
0.0
 40
0.3333333333333333
 40
0.3333333333333333
 40
0.3333333333333333
 40
0.3333333333333333
 40
1.0
 40
1.0
 40
1.0
 40
1.0
 10
-8.327
 20
-5.9588
 30
0.0
 10
-8.327
 20
-5.9588
 30
0.0
 10
-8.4378
 20
0.3892
 30
0.0
 10
-8.4378
 20
0.3892
 30
0.0
 10
-8.4378
 20
0.3892
 30
0.0
 10
-8.4378
 20
0.3892
 30
0.0
 10
-8.4439
 20
0.7279
 30
0.0
 10
-8.4439
 20
0.7279
 30
0.0
  0
SPLINE
  5
133
330
1F
100
AcDbEntity
  8
DEFAULT_1
 62
   250
100
AcDbSpline
210
0.0
220
0.0
230
1.0
 70
     8
 71
     3
 72
     8
 73
     4
 74
     0
 42
0.0000000001
 43
0.0000000001
 40
0.0
 40
0.0
 40
0.0
 40
0.0
 40
1.0
 40
1.0
 40
1.0
 40
1.0
 10
-8.4439
 20
0.7279
 30
0.0
 10
-8.4466
 20
0.7538
 30
0.0
 10
-8.4684
 20
0.7717
 30
0.0
 10
-8.4938
 20
0.7728
 30
0.0
  0
SPLINE
  5
134
330
1F
100
AcDbEntity
  8
DEFAULT_1
 62
   250
100
AcDbSpline
210
0.0
220
0.0
230
1.0
 70
    24
 71
     3
 72
     8
 73
     4
 74
     0
 42
0.0000000001
 43
0.0000000001
 40
0.0
 40
0.0
 40
0.0
 40
0.0
 40
1.0
 40
1.0
 40
1.0
 40
1.0
 10
-8.571
 20
1.4468
 30
0.0
 10
-8.571
 20
1.4468
 30
0.0
 10
-8.5818
 20
1.43
 30
0.0
 10
-8.5818
 20
1.43
 30
0.0
  0
SPLINE
  5
135
330
1F
100
AcDbEntity
  8
DEFAULT_1
 62
   250
100
AcDbSpline
210
0.0
220
0.0
230
1.0
 70
    24
 71
     3
 72
     8
 73
     4
 74
     0
 42
0.0000000001
 43
0.0000000001
 40
0.0
 40
0.0
 40
0.0
 40
0.0
 40
1.0
 40
1.0
 40
1.0
 40
1.0
 10
-0.3657
 20
0.9879
 30
0.0
 10
-0.3657
 20
0.9879
 30
0.0
 10
-0.3657
 20
0.994
 30
0.0
 10
-0.3657
 20
0.994
 30
0.0
  0
SPLINE
  5
136
330
1F
100
AcDbEntity
  8
DEFAULT_1
 62
   250
100
AcDbSpline
210
0.0
220
0.0
230
1.0
 70
    24
 71
     3
 72
     8
 73
     4
 74
     0
 42
0.0000000001
 43
0.0000000001
 40
0.0
 40
0.0
 40
0.0
 40
0.0
 40
1.0
 40
1.0
 40
1.0
 40
1.0
 10
-0.0781
 20
0.9879
 30
0.0
 10
-0.0781
 20
0.9879
 30
0.0
 10
-0.078
 20
0.994
 30
0.0
 10
-0.078
 20
0.994
 30
0.0
  0
SPLINE
  5
137
330
1F
100
AcDbEntity
  8
DEFAULT_1
 62
   250
100
AcDbSpline
210
0.0
220
0.0
230
1.0
 70
    24
 71
     3
 72
     8
 73
     4
 74
     0
 42
0.0000000001
 43
0.0000000001
 40
0.0
 40
0.0
 40
0.0
 40
0.0
 40
1.0
 40
1.0
 40
1.0
 40
1.0
 10
-1.0401
 20
1.4144
 30
0.0
 10
-1.0401
 20
1.4144
 30
0.0
 10
-1.0463
 20
1.4109
 30
0.0
 10
-1.0463
 20
1.4109
 30
0.0
  0
SPLINE
  5
138
330
1F
100
AcDbEntity
  8
DEFAULT_1
 62
   250
100
AcDbSpline
210
0.0
220
0.0
230
1.0
 70
    24
 71
     3
 72
     8
 73
     4
 74
     0
 42
0.0000000001
 43
0.0000000001
 40
0.0
 40
0.0
 40
0.0
 40
0.0
 40
1.0
 40
1.0
 40
1.0
 40
1.0
 10
-1.1212
 20
3.2382
 30
0.0
 10
-1.1212
 20
3.2382
 30
0.0
 10
-1.1301
 20
3.247
 30
0.0
 10
-1.1301
 20
3.247
 30
0.0
  0
SPLINE
  5
139
330
1F
100
AcDbEntity
  8
DEFAULT_1
 62
   250
100
AcDbSpline
210
0.0
220
0.0
230
1.0
 70
     8
 71
     3
 72
     8
 73
     4
 74
     0
 42
0.0000000001
 43
0.0000000001
 40
0.0
 40
0.0
 40
0.0
 40
0.0
 40
1.0
 40
1.0
 40
1.0
 40
1.0
 10
12.4955
 20
1.0751
 30
0.0
 10
12.2747
 20
1.1938
 30
0.0
 10
12.1032
 20
1.3797
 30
0.0
 10
12.0661
 20
1.6373
 30
0.0
  0
SPLINE
  5
13A
330
1F
100
AcDbEntity
  8
DEFAULT_1
 62
   250
100
AcDbSpline
210
0.0
220
0.0
230
1.0
 70
     8
 71
     3
 72
    20
 73
    16
 74
     0
 42
0.0000000001
 43
0.0000000001
 40
0.0
 40
0.0
 40
0.0
 40
0.0
 40
0.2
 40
0.2
 40
0.2
 40
0.2
 40
0.4
 40
0.4
 40
0.4
 40
0.4
 40
0.6
 40
0.6
 40
0.6
 40
0.6
 40
1.0
 40
1.0
 40
1.0
 40
1.0
 10
12.0661
 20
1.6373
 30
0.0
 10
12.0661
 20
1.6373
 30
0.0
 10
12.0582
 20
1.7375
 30
0.0
 10
12.0582
 20
1.7375
 30
0.0
 10
12.0582
 20
1.7375
 30
0.0
 10
12.0582
 20
1.7375
 30
0.0
 10
12.0552
 20
2.0719
 30
0.0
 10
12.0552
 20
2.0719
 30
0.0
 10
12.0552
 20
2.0719
 30
0.0
 10
12.0552
 20
2.0719
 30
0.0
 10
12.0475
 20
2.9236
 30
0.0
 10
12.0475
 20
2.9236
 30
0.0
 10
12.0475
 20
2.9236
 30
0.0
 10
12.0475
 20
2.9236
 30
0.0
 10
12.0445
 20
3.2579
 30
0.0
 10
12.0445
 20
3.2579
 30
0.0
  0
SPLINE
  5
13B
330
1F
100
AcDbEntity
  8
DEFAULT_1
 62
   250
100
AcDbSpline
210
0.0
220
0.0
230
1.0
 70
     8
 71
     3
 72
     8
 73
     4
 74
     0
 42
0.0000000001
 43
0.0000000001
 40
0.0
 40
0.0
 40
0.0
 40
0.0
 40
1.0
 40
1.0
 40
1.0
 40
1.0
 10
12.0445
 20
3.2579
 30
0.0
 10
12.0444
 20
3.2779
 30
0.0
 10
12.0362
 20
3.2902
 30
0.0
 10
12.0224
 20
3.3026
 30
0.0
  0
SPLINE
  5
13C
330
1F
100
AcDbEntity
  8
DEFAULT_1
 62
   250
100
AcDbSpline
210
0.0
220
0.0
230
1.0
 70
     8
 71
     3
 72
    12
 73
     8
 74
     0
 42
0.0000000001
 43
0.0000000001
 40
0.0
 40
0.0
 40
0.0
 40
0.0
 40
0.3333333333333333
 40
0.3333333333333333
 40
0.3333333333333333
 40
0.3333333333333333
 40
1.0
 40
1.0
 40
1.0
 40
1.0
 10
18.1203
 20
4.0322
 30
0.0
 10
17.1778
 20
4.0157
 30
0.0
 10
16.2354
 20
3.9993
 30
0.0
 10
15.2929
 20
3.9829
 30
0.0
 10
15.2929
 20
3.9829
 30
0.0
 10
4.0014
 20
3.9829
 30
0.0
 10
-7.2792
 20
3.8352
 30
0.0
 10
-18.564
 20
4.0322
 30
0.0
  0
SPLINE
  5
13D
330
1F
100
AcDbEntity
  8
DEFAULT_1
 62
   250
100
AcDbSpline
210
0.0
220
0.0
230
1.0
 70
     8
 71
     3
 72
     8
 73
     4
 74
     0
 42
0.0000000001
 43
0.0000000001
 40
0.0
 40
0.0
 40
0.0
 40
0.0
 40
1.0
 40
1.0
 40
1.0
 40
1.0
 10
-18.564
 20
4.0322
 30
0.0
 10
-18.6593
 20
4.038
 30
0.0
 10
-18.6131
 20
4.2567
 30
0.0
 10
-18.6131
 20
4.2667
 30
0.0
  0
SPLINE
  5
13E
330
1F
100
AcDbEntity
  8
DEFAULT_1
 62
   250
100
AcDbSpline
210
0.0
220
0.0
230
1.0
 70
    24
 71
     3
 72
     8
 73
     4
 74
     0
 42
0.0000000001
 43
0.0000000001
 40
0.0
 40
0.0
 40
0.0
 40
0.0
 40
1.0
 40
1.0
 40
1.0
 40
1.0
 10
-18.6131
 20
4.2667
 30
0.0
 10
-18.6131
 20
4.2667
 30
0.0
 10
-18.6131
 20
4.451
 30
0.0
 10
-18.6131
 20
4.451
 30
0.0
  0
SPLINE
  5
13F
330
1F
100
AcDbEntity
  8
DEFAULT_1
 62
   250
100
AcDbSpline
210
0.0
220
0.0
230
1.0
 70
     8
 71
     3
 72
     8
 73
     4
 74
     0
 42
0.0000000001
 43
0.0000000001
 40
0.0
 40
0.0
 40
0.0
 40
0.0
 40
1.0
 40
1.0
 40
1.0
 40
1.0
 10
18.1203
 20
4.0322
 30
0.0
 10
18.2157
 20
4.038
 30
0.0
 10
18.1696
 20
4.2567
 30
0.0
 10
18.1696
 20
4.2667
 30
0.0
  0
SPLINE
  5
140
330
1F
100
AcDbEntity
  8
DEFAULT_1
 62
   250
100
AcDbSpline
210
0.0
220
0.0
230
1.0
 70
    24
 71
     3
 72
     8
 73
     4
 74
     0
 42
0.0000000001
 43
0.0000000001
 40
0.0
 40
0.0
 40
0.0
 40
0.0
 40
1.0
 40
1.0
 40
1.0
 40
1.0
 10
18.1696
 20
4.2667
 30
0.0
 10
18.1696
 20
4.2667
 30
0.0
 10
18.1696
 20
4.451
 30
0.0
 10
18.1696
 20
4.451
 30
0.0
  0
SPLINE
  5
141
330
1F
100
AcDbEntity
  8
DEFAULT_1
 62
   250
100
AcDbSpline
210
0.0
220
0.0
230
1.0
 70
     8
 71
     3
 72
     8
 73
     4
 74
     0
 42
0.0000000001
 43
0.0000000001
 40
0.0
 40
0.0
 40
0.0
 40
0.0
 40
1.0
 40
1.0
 40
1.0
 40
1.0
 10
-12.9392
 20
1.075
 30
0.0
 10
-12.7174
 20
1.193
 30
0.0
 10
-12.5467
 20
1.3812
 30
0.0
 10
-12.5097
 20
1.6386
 30
0.0
  0
SPLINE
  5
142
330
1F
100
AcDbEntity
  8
DEFAULT_1
 62
   250
100
AcDbSpline
210
0.0
220
0.0
230
1.0
 70
     8
 71
     3
 72
    20
 73
    16
 74
     0
 42
0.0000000001
 43
0.0000000001
 40
0.0
 40
0.0
 40
0.0
 40
0.0
 40
0.2
 40
0.2
 40
0.2
 40
0.2
 40
0.4
 40
0.4
 40
0.4
 40
0.4
 40
0.6
 40
0.6
 40
0.6
 40
0.6
 40
1.0
 40
1.0
 40
1.0
 40
1.0
 10
-12.5097
 20
1.6386
 30
0.0
 10
-12.5097
 20
1.6386
 30
0.0
 10
-12.5019
 20
1.7375
 30
0.0
 10
-12.5019
 20
1.7375
 30
0.0
 10
-12.5019
 20
1.7375
 30
0.0
 10
-12.5019
 20
1.7375
 30
0.0
 10
-12.4989
 20
2.0719
 30
0.0
 10
-12.4989
 20
2.0719
 30
0.0
 10
-12.4989
 20
2.0719
 30
0.0
 10
-12.4989
 20
2.0719
 30
0.0
 10
-12.4913
 20
2.9236
 30
0.0
 10
-12.4913
 20
2.9236
 30
0.0
 10
-12.4913
 20
2.9236
 30
0.0
 10
-12.4913
 20
2.9236
 30
0.0
 10
-12.4883
 20
3.2579
 30
0.0
 10
-12.4883
 20
3.2579
 30
0.0
  0
SPLINE
  5
143
330
1F
100
AcDbEntity
  8
DEFAULT_1
 62
   250
100
AcDbSpline
210
0.0
220
0.0
230
1.0
 70
     8
 71
     3
 72
     8
 73
     4
 74
     0
 42
0.0000000001
 43
0.0000000001
 40
0.0
 40
0.0
 40
0.0
 40
0.0
 40
1.0
 40
1.0
 40
1.0
 40
1.0
 10
-12.4883
 20
3.2579
 30
0.0
 10
-12.4882
 20
3.2761
 30
0.0
 10
-12.4808
 20
3.2892
 30
0.0
 10
-12.4683
 20
3.301
 30
0.0
  0
SPLINE
  5
144
330
1F
100
AcDbEntity
  8
DEFAULT_1
 62
   250
100
AcDbSpline
210
0.0
220
0.0
230
1.0
 70
     8
 71
     3
 72
     8
 73
     4
 74
     0
 42
0.0000000001
 43
0.0000000001
 40
0.0
 40
0.0
 40
0.0
 40
0.0
 40
1.0
 40
1.0
 40
1.0
 40
1.0
 10
-8.4682
 20
3.2525
 30
0.0
 10
-8.4785
 20
3.2471
 30
0.0
 10
-8.4869
 20
3.2392
 30
0.0
 10
-8.4922
 20
3.2288
 30
0.0
  0
SPLINE
  5
145
330
1F
100
AcDbEntity
  8
DEFAULT_1
 62
   250
100
AcDbSpline
210
0.0
220
0.0
230
1.0
 70
    24
 71
     3
 72
     8
 73
     4
 74
     0
 42
0.0000000001
 43
0.0000000001
 40
0.0
 40
0.0
 40
0.0
 40
0.0
 40
1.0
 40
1.0
 40
1.0
 40
1.0
 10
-12.4547
 20
3.3075
 30
0.0
 10
-12.4547
 20
3.3075
 30
0.0
 10
-12.4835
 20
3.2936
 30
0.0
 10
-12.4835
 20
3.2936
 30
0.0
  0
SPLINE
  5
146
330
1F
100
AcDbEntity
  8
DEFAULT_1
 62
   250
100
AcDbSpline
210
0.0
220
0.0
230
1.0
 70
    24
 71
     3
 72
     8
 73
     4
 74
     0
 42
0.0000000001
 43
0.0000000001
 40
0.0
 40
0.0
 40
0.0
 40
0.0
 40
1.0
 40
1.0
 40
1.0
 40
1.0
 10
0.6864
 20
3.247
 30
0.0
 10
0.6864
 20
3.247
 30
0.0
 10
0.6774
 20
3.238
 30
0.0
 10
0.6774
 20
3.238
 30
0.0
  0
SPLINE
  5
147
330
1F
100
AcDbEntity
  8
DEFAULT_1
 62
   250
100
AcDbSpline
210
0.0
220
0.0
230
1.0
 70
     8
 71
     3
 72
     8
 73
     4
 74
     0
 42
0.0000000001
 43
0.0000000001
 40
0.0
 40
0.0
 40
0.0
 40
0.0
 40
1.0
 40
1.0
 40
1.0
 40
1.0
 10
8.0364
 20
3.2444
 30
0.0
 10
8.0326
 20
3.2475
 30
0.0
 10
8.0289
 20
3.2503
 30
0.0
 10
8.0245
 20
3.2525
 30
0.0
  0
SPLINE
  5
148
330
1F
100
AcDbEntity
  8
DEFAULT_1
 62
   250
100
AcDbSpline
210
0.0
220
0.0
230
1.0
 70
    24
 71
     3
 72
     8
 73
     4
 74
     0
 42
0.0000000001
 43
0.0000000001
 40
0.0
 40
0.0
 40
0.0
 40
0.0
 40
1.0
 40
1.0
 40
1.0
 40
1.0
 10
0.6026
 20
1.4109
 30
0.0
 10
0.6026
 20
1.4109
 30
0.0
 10
0.5963
 20
1.4143
 30
0.0
 10
0.5963
 20
1.4143
 30
0.0
  0
SPLINE
  5
149
330
1F
100
AcDbEntity
  8
DEFAULT_1
 62
   250
100
AcDbSpline
210
0.0
220
0.0
230
1.0
 70
     8
 71
     3
 72
    12
 73
     8
 74
     0
 42
0.0000000001
 43
0.0000000001
 40
0.0
 40
0.0
 40
0.0
 40
0.0
 40
0.3333333333333333
 40
0.3333333333333333
 40
0.3333333333333333
 40
0.3333333333333333
 40
1.0
 40
1.0
 40
1.0
 40
1.0
 10
6.8541
 20
-3.5628
 30
0.0
 10
6.7924
 20
-3.9679
 30
0.0
 10
6.7479
 20
-4.3704
 30
0.0
 10
6.7477
 20
-4.781
 30
0.0
 10
6.7477
 20
-4.781
 30
0.0
 10
6.7477
 20
-5.0877
 30
0.0
 10
6.7741
 20
-5.3897
 30
0.0
 10
6.807
 20
-5.6943
 30
0.0
  0
SPLINE
  5
14A
330
1F
100
AcDbEntity
  8
DEFAULT_1
 62
   250
100
AcDbSpline
210
0.0
220
0.0
230
1.0
 70
     8
 71
     3
 72
    16
 73
    12
 74
     0
 42
0.0000000001
 43
0.0000000001
 40
0.0
 40
0.0
 40
0.0
 40
0.0
 40
0.25
 40
0.25
 40
0.25
 40
0.25
 40
0.5
 40
0.5
 40
0.5
 40
0.5
 40
1.0
 40
1.0
 40
1.0
 40
1.0
 10
6.6637
 20
-8.1153
 30
0.0
 10
6.7371
 20
-7.9906
 30
0.0
 10
6.8087
 20
-7.8712
 30
0.0
 10
6.853
 20
-7.7317
 30
0.0
 10
6.853
 20
-7.7317
 30
0.0
 10
6.9561
 20
-7.4066
 30
0.0
 10
6.9901
 20
-7.0718
 30
0.0
 10
6.9706
 20
-6.7314
 30
0.0
 10
6.9706
 20
-6.7314
 30
0.0
 10
6.9565
 20
-6.4834
 30
0.0
 10
6.8941
 20
-6.2424
 30
0.0
 10
6.8525
 20
-5.9985
 30
0.0
  0
SPLINE
  5
14B
330
1F
100
AcDbEntity
  8
DEFAULT_1
 62
   250
100
AcDbSpline
210
0.0
220
0.0
230
1.0
 70
    24
 71
     3
 72
     8
 73
     4
 74
     0
 42
0.0000000001
 43
0.0000000001
 40
0.0
 40
0.0
 40
0.0
 40
0.0
 40
1.0
 40
1.0
 40
1.0
 40
1.0
 10
6.8525
 20
-5.9985
 30
0.0
 10
6.8525
 20
-5.9985
 30
0.0
 10
6.807
 20
-5.6943
 30
0.0
 10
6.807
 20
-5.6943
 30
0.0
  0
SPLINE
  5
14C
330
1F
100
AcDbEntity
  8
DEFAULT_1
 62
   250
100
AcDbSpline
210
0.0
220
0.0
230
1.0
 70
    24
 71
     3
 72
     8
 73
     4
 74
     0
 42
0.0000000001
 43
0.0000000001
 40
0.0
 40
0.0
 40
0.0
 40
0.0
 40
1.0
 40
1.0
 40
1.0
 40
1.0
 10
7.0275
 20
-2.7967
 30
0.0
 10
7.0275
 20
-2.7967
 30
0.0
 10
6.9049
 20
-3.2998
 30
0.0
 10
6.9049
 20
-3.2998
 30
0.0
  0
SPLINE
  5
14D
330
1F
100
AcDbEntity
  8
DEFAULT_1
 62
   250
100
AcDbSpline
210
0.0
220
0.0
230
1.0
 70
     8
 71
     3
 72
     8
 73
     4
 74
     0
 42
0.0000000001
 43
0.0000000001
 40
0.0
 40
0.0
 40
0.0
 40
0.0
 40
1.0
 40
1.0
 40
1.0
 40
1.0
 10
7.9789
 20
-0.4818
 30
0.0
 10
7.5569
 20
-1.2721
 30
0.0
 10
7.2189
 20
-2.0971
 30
0.0
 10
6.9825
 20
-2.9622
 30
0.0
  0
SPLINE
  5
14E
330
1F
100
AcDbEntity
  8
DEFAULT_1
 62
   250
100
AcDbSpline
210
0.0
220
0.0
230
1.0
 70
     8
 71
     3
 72
     8
 73
     4
 74
     0
 42
0.0000000001
 43
0.0000000001
 40
0.0
 40
0.0
 40
0.0
 40
0.0
 40
1.0
 40
1.0
 40
1.0
 40
1.0
 10
6.6637
 20
-8.1153
 30
0.0
 10
6.3763
 20
-8.578
 30
0.0
 10
5.8563
 20
-8.747
 30
0.0
 10
5.3405
 20
-8.7573
 30
0.0
  0
SPLINE
  5
14F
330
1F
100
AcDbEntity
  8
DEFAULT_1
 62
   250
100
AcDbSpline
210
0.0
220
0.0
230
1.0
 70
     8
 71
     3
 72
    24
 73
    20
 74
     0
 42
0.0000000001
 43
0.0000000001
 40
0.0
 40
0.0
 40
0.0
 40
0.0
 40
0.1666666666666667
 40
0.1666666666666667
 40
0.1666666666666667
 40
0.1666666666666667
 40
0.3333333333333333
 40
0.3333333333333333
 40
0.3333333333333333
 40
0.3333333333333333
 40
0.5
 40
0.5
 40
0.5
 40
0.5
 40
0.6666666666666666
 40
0.6666666666666666
 40
0.6666666666666666
 40
0.6666666666666666
 40
1.0
 40
1.0
 40
1.0
 40
1.0
 10
19.2728
 20
-0.6789
 30
0.0
 10
19.2728
 20
-0.6789
 30
0.0
 10
19.2727
 20
-0.688
 30
0.0
 10
19.2727
 20
-0.688
 30
0.0
 10
19.2727
 20
-0.688
 30
0.0
 10
19.2727
 20
-0.688
 30
0.0
 10
19.2669
 20
-1.0223
 30
0.0
 10
19.2669
 20
-1.0223
 30
0.0
 10
19.2669
 20
-1.0223
 30
0.0
 10
19.2669
 20
-1.0223
 30
0.0
 10
19.1332
 20
-8.6941
 30
0.0
 10
19.1332
 20
-8.6941
 30
0.0
 10
19.1332
 20
-8.6941
 30
0.0
 10
19.1332
 20
-8.6941
 30
0.0
 10
19.1275
 20
-9.0285
 30
0.0
 10
19.1275
 20
-9.0285
 30
0.0
 10
19.1275
 20
-9.0285
 30
0.0
 10
19.1275
 20
-9.0285
 30
0.0
 10
19.127
 20
-9.0374
 30
0.0
 10
19.127
 20
-9.0374
 30
0.0
  0
ENDSEC
  0
SECTION
  2
OBJECTS
  0
DICTIONARY
  5
C
330
0
100
AcDbDictionary
  3
ACAD_GROUP
350
D
  3
ACAD_LAYOUT
350
1A
  3
ACAD_MATERIAL
350
3B
  3
ACAD_MLEADERSTYLE
350
172
  3
ACAD_MLINESTYLE
350
17
  3
ACAD_PLOTSETTINGS
350
19
  3
ACAD_VISUALSTYLE
350
2A
  3
ACDBHEADERROUNDTRIPXREC
350
150
  3
ACDBVARIABLEDICTIONARY
350
170
  0
DICTIONARY
  5
D
102
{ACAD_REACTORS
330
C
102
}
330
C
100
AcDbDictionary
  0
DICTIONARY
  5
1A
102
{ACAD_REACTORS
330
C
102
}
330
C
100
AcDbDictionary
  0
DICTIONARY
  5
3B
102
{ACAD_REACTORS
330
C
102
}
330
C
100
AcDbDictionary
  3
BYBLOCK
350
3D
  3
BYLAYER
350
3C
  3
GLOBAL
350
3E
  0
DICTIONARY
  5
172
102
{ACAD_REACTORS
330
C
102
}
330
C
100
AcDbDictionary
  0
DICTIONARY
  5
17
102
{ACAD_REACTORS
330
C
102
}
330
C
100
AcDbDictionary
  3
STANDARD
350
18
  0
DICTIONARY
  5
19
102
{ACAD_REACTORS
330
C
102
}
330
C
100
AcDbDictionary
  0
DICTIONARY
  5
2A
102
{ACAD_REACTORS
330
C
102
}
330
C
100
AcDbDictionary
  3
2DWIREFRAME
350
2F
  3
3D_HIDDEN
350
31
  3
3DWIREFRAME
350
30
  3
BASIC
350
32
  3
BRIGHTEN
350
36
  3
COLORCHANGE
350
3A
  3
CONCEPTUAL
350
34
  3
DIM
350
35
  3
FACEPATTERN
350
39
  3
FLAT
350
2B
  3
FLATWITHEDGES
350
2C
  3
GOURAUD
350
2D
  3
GOURAUDWITHEDGES
350
2E
  3
LINEPATTERN
350
38
  3
REALISTIC
350
33
  3
THICKEN
350
37
  0
DICTIONARY
  5
150
102
{ACAD_REACTORS
330
C
102
}
330
C
100
AcDbDictionary
  3
CEPSNTYPE
350
159
  3
DIMSTYLEDATA
350
16F
  3
FINGERPRINTGUID
350
15A
  3
HYPERLINKBASE
350
153
  3
INSUNITS
350
158
  3
LAYOUTDICT
350
155
  3
LWETCUNION
350
157
  3
PLOTSETDICT
350
156
  3
PSVPSCALE
350
15C
  3
PUCSBASE
350
15F
  3
PUCSORGBACK
350
165
  3
PUCSORGBOTTOM
350
161
  3
PUCSORGFRONT
350
164
  3
PUCSORGLEFT
350
162
  3
PUCSORGRIGHT
350
163
  3
PUCSORGTOP
350
160
  3
PUCSORTHOREF
350
15D
  3
PUCSORTHOVIEW
350
15E
  3
STYLESHEET
350
154
  3
TSTACKALIGN
350
151
  3
TSTACKSIZE
350
152
  3
UCSBASE
350
168
  3
UCSORGBACK
350
16E
  3
UCSORGBOTTOM
350
16A
  3
UCSORGFRONT
350
16D
  3
UCSORGLEFT
350
16B
  3
UCSORGRIGHT
350
16C
  3
UCSORGTOP
350
169
  3
UCSORTHOREF
350
166
  3
UCSORTHOVIEW
350
167
  3
VERSIONGUID
350
15B
  0
DICTIONARY
  5
170
102
{ACAD_REACTORS
330
C
102
}
330
C
100
AcDbDictionary
  3
DIMASSOC
350
173
  3
HIDETEXT
350
174
  0
MATERIAL
  5
3D
102
{ACAD_REACTORS
330
3B
102
}
102
{ACAD_XDICTIONARY
360
177
102
}
330
3B
100
AcDbMaterial
  1
ByBlock
  0
MATERIAL
  5
3C
102
{ACAD_REACTORS
330
3B
102
}
102
{ACAD_XDICTIONARY
360
175
102
}
330
3B
100
AcDbMaterial
  1
ByLayer
  0
MATERIAL
  5
3E
102
{ACAD_REACTORS
330
3B
102
}
102
{ACAD_XDICTIONARY
360
179
102
}
330
3B
100
AcDbMaterial
  1
Global
  0
MLINESTYLE
  5
18
102
{ACAD_REACTORS
330
17
102
}
330
17
100
AcDbMlineStyle
  2
Standard
 70
     0
  3

 62
   256
 51
90.0
 52
90.0
 71
     2
 49
0.5
 62
   256
  6
BYLAYER
 49
-0.5
 62
   256
  6
BYLAYER
  0
ACAD_PROXY_OBJECT
  5
2F
102
{ACAD_REACTORS
330
2A
102
}
330
2A
100
AcDbProxyObject
 90
      499
 91
      501
 93
      436
310
42CC9915DA5C99599C985B595049028333333333333E3BF0000000000000FB0107901411070040501600405405064090741402480A0340
1001
ACAD
1000
AcDbSavedByObjectVersion
1070
     0
  0
ACAD_PROXY_OBJECT
  5
31
102
{ACAD_REACTORS
330
2A
102
}
330
2A
100
AcDbProxyObject
 90
      499
 91
      501
 93
      500
310
424CD108121A5919195B90640502408333333333333E3BF0000000000000FB01079024090700405020000000000001110200405405064090740C02480A0340
1001
ACAD
1000
AcDbSavedByObjectVersion
1070
     0
  0
ACAD_PROXY_OBJECT
  5
30
102
{ACAD_REACTORS
330
2A
102
}
330
2A
100
AcDbProxyObject
 90
      499
 91
      501
 93
      436
310
42CCD915DA5C99599C985B595059028333333333333E3BF0000000000000FB0107901411070040501600405405064090741402480A0340
1001
ACAD
1000
AcDbSavedByObjectVersion
1070
     0
  0
ACAD_PROXY_OBJECT
  5
32
102
{ACAD_REACTORS
330
2A
102
}
330
2A
100
AcDbProxyObject
 90
      499
 91
      501
 93
      388
310
4150985CDA58D07406404333333333333E3BF0000000000000FB0107A41107004050150841D405064090741402480A0350
1001
ACAD
1000
AcDbSavedByObjectVersion
1070
     0
  0
ACAD_PROXY_OBJECT
  5
36
102
{ACAD_REACTORS
330
2A
102
}
330
2A
100
AcDbProxyObject
 90
      499
 91
      501
 93
      428
310
42109C9A59DA1D195B90C409028333333333333E3BF0000000000000FB010790141107004050150841D405064090741402480A029950
1001
ACAD
1000
AcDbSavedByObjectVersion
1070
     0
  0
ACAD_PROXY_OBJECT
  5
3A
102
{ACAD_REACTORS
330
2A
102
}
330
2A
100
AcDbProxyObject
 90
      499
 91
      501
 93
      452
310
42D0DBDB1BDC90DA185B99D95104090240C333333333333E3BF0000000000000FB0108901411070040501508421405064090741402480A0350
1001
ACAD
1000
AcDbSavedByObjectVersion
1070
     0
  0
ACAD_PROXY_OBJECT
  5
34
102
{ACAD_REACTORS
330
2A
102
}
330
2A
100
AcDbProxyObject
 90
      499
 91
      501
 93
      500
310
4290DBDB98D95C1D1D585B10940D028333333333333E3BF0000000000000FB0107902409070040501000000000000111010841D405064090740C02480A0340
1001
ACAD
1000
AcDbSavedByObjectVersion
1070
     0
  0
ACAD_PROXY_OBJECT
  5
35
102
{ACAD_REACTORS
330
2A
102
}
330
2A
100
AcDbProxyObject
 90
      499
 91
      501
 93
      412
310
40D11A5B50B409028333333333333E3BF0000000000000FB010790141107004050150841D405064090741402480A02677FFFFFD0
1001
ACAD
1000
AcDbSavedByObjectVersion
1070
     0
  0
ACAD_PROXY_OBJECT
  5
39
102
{ACAD_REACTORS
330
2A
102
}
330
2A
100
AcDbProxyObject
 90
      499
 91
      501
 93
      444
310
42D19858D95C185D1D195C9B90F409028333333333333E3BF0000000000000FB010790141107004050150841D405064090741402480A0350
1001
ACAD
1000
AcDbSavedByObjectVersion
1070
     0
  0
ACAD_PROXY_OBJECT
  5
2B
102
{ACAD_REACTORS
330
2A
102
}
330
2A
100
AcDbProxyObject
 90
      499
 91
      501
 93
      388
310
41119B185D240901404333333333333E3BF0000000000000F9010740A41107004050150841D405064090741402480A1B50
1001
ACAD
1000
AcDbSavedByObjectVersion
1070
     0
  0
ACAD_PROXY_OBJECT
  5
2C
102
{ACAD_REACTORS
330
2A
102
}
330
2A
100
AcDbProxyObject
 90
      499
 91
      501
 93
      476
310
43519B185D15DA5D1A115919D95CD0140901404333333333333E3BF0000000000000F9010740901411070040501600405405064090741402480A1B50
1001
ACAD
1000
AcDbSavedByObjectVersion
1070
     0
  0
ACAD_PROXY_OBJECT
  5
2D
102
{ACAD_REACTORS
330
2A
102
}
330
2A
100
AcDbProxyObject
 90
      499
 91
      501
 93
      412
310
41D1DBDD5C985D5910240902404333333333333E3BF0000000000000F9010740A411070040501641D405064090741402480A1B50
1001
ACAD
1000
AcDbSavedByObjectVersion
1070
     0
  0
ACAD_PROXY_OBJECT
  5
2E
102
{ACAD_REACTORS
330
2A
102
}
330
2A
100
AcDbProxyObject
 90
      499
 91
      501
 93
      500
310
4411DBDD5C985D5915DA5D1A115919D95CD0340902404333333333333E3BF0000000000000F9010740901411070040501600405405064090741402480A1B50
1001
ACAD
1000
AcDbSavedByObjectVersion
1070
     0
  0
ACAD_PROXY_OBJECT
  5
38
102
{ACAD_REACTORS
330
2A
102
}
330
2A
100
AcDbProxyObject
 90
      499
 91
      501
 93
      444
310
42D31A5B995C185D1D195C9B90E409028333333333333E3BF0000000000000FB010790141107004050750841D405064090741402483A0350
1001
ACAD
1000
AcDbSavedByObjectVersion
1070
     0
  0
ACAD_PROXY_OBJECT
  5
33
102
{ACAD_REACTORS
330
2A
102
}
330
2A
100
AcDbProxyObject
 90
      499
 91
      501
 93
      420
310
425499585B1A5CDD1A58D08409028333333333333E3BF0000000000000FB01079019070040501508421405064090741402480A1B40
1001
ACAD
1000
AcDbSavedByObjectVersion
1070
     0
  0
ACAD_PROXY_OBJECT
  5
37
102
{ACAD_REACTORS
330
2A
102
}
330
2A
100
AcDbProxyObject
 90
      499
 91
      501
 93
      412
310
41D51A1A58DAD95B90D409028333333333333E3BF0000000000000FB010790141107004050150C41D405064090741402480A0350
1001
ACAD
1000
AcDbSavedByObjectVersion
1070
     0
  0
XRECORD
  5
159
102
{ACAD_REACTORS
330
150
102
}
330
150
100
AcDbXrecord
 90
        0
  0
XRECORD
  5
16F
102
{ACAD_REACTORS
330
150
102
}
330
150
100
AcDbXrecord
1000
DSTYLE
1002
{
1070
   340
340
11
1002
}
  0
XRECORD
  5
15A
102
{ACAD_REACTORS
330
150
102
}
330
150
100
AcDbXrecord
  1
{C0930AAB-FB7F-437A-9B67-DCBDADAA86C0}
  0
XRECORD
  5
153
102
{ACAD_REACTORS
330
150
102
}
330
150
100
AcDbXrecord
  1

  0
XRECORD
  5
158
102
{ACAD_REACTORS
330
150
102
}
330
150
100
AcDbXrecord
 90
        4
  0
XRECORD
  5
155
102
{ACAD_REACTORS
330
150
102
}
330
150
100
AcDbXrecord
340
1A
  0
XRECORD
  5
157
102
{ACAD_REACTORS
330
150
102
}
330
150
100
AcDbXrecord
 90
    10781
  0
XRECORD
  5
156
102
{ACAD_REACTORS
330
150
102
}
330
150
100
AcDbXrecord
340
19
  0
XRECORD
  5
15C
102
{ACAD_REACTORS
330
150
102
}
330
150
100
AcDbXrecord
 40
0.0
  0
XRECORD
  5
15F
102
{ACAD_REACTORS
330
150
102
}
330
150
100
AcDbXrecord
340
0
  0
XRECORD
  5
165
102
{ACAD_REACTORS
330
150
102
}
330
150
100
AcDbXrecord
 10
0.0
 20
0.0
 30
0.0
  0
XRECORD
  5
161
102
{ACAD_REACTORS
330
150
102
}
330
150
100
AcDbXrecord
 10
0.0
 20
0.0
 30
0.0
  0
XRECORD
  5
164
102
{ACAD_REACTORS
330
150
102
}
330
150
100
AcDbXrecord
 10
0.0
 20
0.0
 30
0.0
  0
XRECORD
  5
162
102
{ACAD_REACTORS
330
150
102
}
330
150
100
AcDbXrecord
 10
0.0
 20
0.0
 30
0.0
  0
XRECORD
  5
163
102
{ACAD_REACTORS
330
150
102
}
330
150
100
AcDbXrecord
 10
0.0
 20
0.0
 30
0.0
  0
XRECORD
  5
160
102
{ACAD_REACTORS
330
150
102
}
330
150
100
AcDbXrecord
 10
0.0
 20
0.0
 30
0.0
  0
XRECORD
  5
15D
102
{ACAD_REACTORS
330
150
102
}
330
150
100
AcDbXrecord
340
0
  0
XRECORD
  5
15E
102
{ACAD_REACTORS
330
150
102
}
330
150
100
AcDbXrecord
 70
     0
  0
XRECORD
  5
154
102
{ACAD_REACTORS
330
150
102
}
330
150
100
AcDbXrecord
  1

  0
XRECORD
  5
151
102
{ACAD_REACTORS
330
150
102
}
330
150
100
AcDbXrecord
 90
        1
  0
XRECORD
  5
152
102
{ACAD_REACTORS
330
150
102
}
330
150
100
AcDbXrecord
 90
       70
  0
XRECORD
  5
168
102
{ACAD_REACTORS
330
150
102
}
330
150
100
AcDbXrecord
340
0
  0
XRECORD
  5
16E
102
{ACAD_REACTORS
330
150
102
}
330
150
100
AcDbXrecord
 10
0.0
 20
0.0
 30
0.0
  0
XRECORD
  5
16A
102
{ACAD_REACTORS
330
150
102
}
330
150
100
AcDbXrecord
 10
0.0
 20
0.0
 30
0.0
  0
XRECORD
  5
16D
102
{ACAD_REACTORS
330
150
102
}
330
150
100
AcDbXrecord
 10
0.0
 20
0.0
 30
0.0
  0
XRECORD
  5
16B
102
{ACAD_REACTORS
330
150
102
}
330
150
100
AcDbXrecord
 10
0.0
 20
0.0
 30
0.0
  0
XRECORD
  5
16C
102
{ACAD_REACTORS
330
150
102
}
330
150
100
AcDbXrecord
 10
0.0
 20
0.0
 30
0.0
  0
XRECORD
  5
169
102
{ACAD_REACTORS
330
150
102
}
330
150
100
AcDbXrecord
 10
0.0
 20
0.0
 30
0.0
  0
XRECORD
  5
166
102
{ACAD_REACTORS
330
150
102
}
330
150
100
AcDbXrecord
340
0
  0
XRECORD
  5
167
102
{ACAD_REACTORS
330
150
102
}
330
150
100
AcDbXrecord
 70
     0
  0
XRECORD
  5
15B
102
{ACAD_REACTORS
330
150
102
}
330
150
100
AcDbXrecord
  1
{FAEB1C32-E019-11D5-929B-00C0DF256EC4}
  0
DICTIONARYVAR
  5
173
102
{ACAD_REACTORS
330
170
102
}
330
170
100
DictionaryVariables
280
     0
  1
2
  0
DICTIONARYVAR
  5
174
102
{ACAD_REACTORS
330
170
102
}
330
170
100
DictionaryVariables
280
     0
  1
1
  0
DICTIONARY
  5
177
330
3D
100
AcDbDictionary
280
     1
  3
ACAD_XREC_ROUNDTRIP
360
178
  0
DICTIONARY
  5
175
330
3C
100
AcDbDictionary
280
     1
  3
ACAD_XREC_ROUNDTRIP
360
176
  0
DICTIONARY
  5
179
330
3E
100
AcDbDictionary
280
     1
  3
ACAD_XREC_ROUNDTRIP
360
17A
  0
XRECORD
  5
178
102
{ACAD_REACTORS
330
177
102
}
330
177
100
AcDbXrecord
102
MATERIAL
148
0.0
149
0.0
149
0.0
 93
        0
 94
      127
282
     0
 72
     1
 77
     1
171
     1
175
     1
179
     1
273
     0
  0
XRECORD
  5
176
102
{ACAD_REACTORS
330
175
102
}
330
175
100
AcDbXrecord
102
MATERIAL
148
0.0
149
0.0
149
0.0
 93
        0
 94
      127
282
     0
 72
     1
 77
     1
171
     1
175
     1
179
     1
273
     0
  0
XRECORD
  5
17A
102
{ACAD_REACTORS
330
179
102
}
330
179
100
AcDbXrecord
102
MATERIAL
148
0.0
149
0.0
149
0.0
 93
        0
 94
      127
282
     0
 72
     1
 77
     1
171
     1
175
     1
179
     1
273
     0
  0
ENDSEC
  0
EOF
