  0
SECTION
  2
HEADER
  9
$ACADVER
  1
AC1014
  9
$ACADMAINTVER
 70
     9
  9
$DWGCODEPAGE
  3
ANSI_1250
  9
$INSBASE
 10
0.0
 20
0.0
 30
0.0
  9
$EXTMIN
 10
-24.4532
 20
-11.5267
 30
0.0
  9
$EXTMAX
 10
24.4561
 20
11.5243
 30
0.0
  9
$LIMMIN
 10
0.0
 20
0.0
  9
$LIMMAX
 10
12.0
 20
9.0
  9
$ORTHOMODE
 70
     0
  9
$REGENMODE
 70
     1
  9
$FILLMODE
 70
     1
  9
$QTEXTMODE
 70
     0
  9
$MIRRTEXT
 70
     1
  9
$DRAGMODE
 70
     2
  9
$LTSCALE
 40
1.0
  9
$OSMODE
 70
    37
  9
$ATTMODE
 70
     1
  9
$TEXTSIZE
 40
0.2
  9
$TRACEWID
 40
0.05
  9
$TEXTSTYLE
  7
STANDARD
  9
$CLAYER
  8
0
  9
$CELTYPE
  6
BYLAYER
  9
$CECOLOR
 62
   256
  9
$CELTSCALE
 40
1.0
  9
$DELOBJ
 70
     1
  9
$DISPSILH
 70
     0
  9
$DIMSCALE
 40
1.0
  9
$DIMASZ
 40
0.18
  9
$DIMEXO
 40
0.0625
  9
$DIMDLI
 40
0.38
  9
$DIMRND
 40
0.0
  9
$DIMDLE
 40
0.0
  9
$DIMEXE
 40
0.18
  9
$DIMTP
 40
0.0
  9
$DIMTM
 40
0.0
  9
$DIMTXT
 40
0.18
  9
$DIMCEN
 40
0.09
  9
$DIMTSZ
 40
0.0
  9
$DIMTOL
 70
     0
  9
$DIMLIM
 70
     0
  9
$DIMTIH
 70
     1
  9
$DIMTOH
 70
     1
  9
$DIMSE1
 70
     0
  9
$DIMSE2
 70
     0
  9
$DIMTAD
 70
     0
  9
$DIMZIN
 70
     0
  9
$DIMBLK
  1

  9
$DIMASO
 70
     1
  9
$DIMSHO
 70
     1
  9
$DIMPOST
  1

  9
$DIMAPOST
  1

  9
$DIMALT
 70
     0
  9
$DIMALTD
 70
     2
  9
$DIMALTF
 40
25.4
  9
$DIMLFAC
 40
1.0
  9
$DIMTOFL
 70
     0
  9
$DIMTVP
 40
0.0
  9
$DIMTIX
 70
     0
  9
$DIMSOXD
 70
     0
  9
$DIMSAH
 70
     0
  9
$DIMBLK1
  1

  9
$DIMBLK2
  1

  9
$DIMSTYLE
  2
STANDARD
  9
$DIMCLRD
 70
     0
  9
$DIMCLRE
 70
     0
  9
$DIMCLRT
 70
     0
  9
$DIMTFAC
 40
1.0
  9
$DIMGAP
 40
0.09
  9
$DIMJUST
 70
     0
  9
$DIMSD1
 70
     0
  9
$DIMSD2
 70
     0
  9
$DIMTOLJ
 70
     1
  9
$DIMTZIN
 70
     0
  9
$DIMALTZ
 70
     0
  9
$DIMALTTZ
 70
     0
  9
$DIMFIT
 70
     3
  9
$DIMUPT
 70
     0
  9
$DIMUNIT
 70
     2
  9
$DIMDEC
 70
     4
  9
$DIMTDEC
 70
     4
  9
$DIMALTU
 70
     2
  9
$DIMALTTD
 70
     2
  9
$DIMTXSTY
  7
STANDARD
  9
$DIMAUNIT
 70
     0
  9
$LUNITS
 70
     2
  9
$LUPREC
 70
     4
  9
$SKETCHINC
 40
0.1
  9
$FILLETRAD
 40
0.5
  9
$AUNITS
 70
     0
  9
$AUPREC
 70
     0
  9
$MENU
  1
.
  9
$ELEVATION
 40
0.0
  9
$PELEVATION
 40
0.0
  9
$THICKNESS
 40
0.0
  9
$LIMCHECK
 70
     0
  9
$CHAMFERA
 40
0.5
  9
$CHAMFERB
 40
0.5
  9
$CHAMFERC
 40
1.0
  9
$CHAMFERD
 40
0.0
  9
$SKPOLY
 70
     0
  9
$TDCREATE
 40
2456268.580206389
  9
$TDUPDATE
 40
2456268.5802064
  9
$TDINDWG
 40
0.0000000116
  9
$TDUSRTIMER
 40
0.0000000116
  9
$USRTIMER
 70
     1
  9
$ANGBASE
 50
0.0
  9
$ANGDIR
 70
     0
  9
$PDMODE
 70
     0
  9
$PDSIZE
 40
0.0
  9
$PLINEWID
 40
0.0
  9
$COORDS
 70
     1
  9
$SPLFRAME
 70
     0
  9
$SPLINETYPE
 70
     6
  9
$SPLINESEGS
 70
     8
  9
$ATTDIA
 70
     0
  9
$ATTREQ
 70
     1
  9
$HANDLING
 70
     1
  9
$HANDSEED
  5
97
  9
$SURFTAB1
 70
     6
  9
$SURFTAB2
 70
     6
  9
$SURFTYPE
 70
     6
  9
$SURFU
 70
     6
  9
$SURFV
 70
     6
  9
$UCSNAME
  2

  9
$UCSORG
 10
0.0
 20
0.0
 30
0.0
  9
$UCSXDIR
 10
1.0
 20
0.0
 30
0.0
  9
$UCSYDIR
 10
0.0
 20
1.0
 30
0.0
  9
$PUCSNAME
  2

  9
$PUCSORG
 10
0.0
 20
0.0
 30
0.0
  9
$PUCSXDIR
 10
1.0
 20
0.0
 30
0.0
  9
$PUCSYDIR
 10
0.0
 20
1.0
 30
0.0
  9
$USERI1
 70
     0
  9
$USERI2
 70
     0
  9
$USERI3
 70
     0
  9
$USERI4
 70
     0
  9
$USERI5
 70
     0
  9
$USERR1
 40
0.0
  9
$USERR2
 40
0.0
  9
$USERR3
 40
0.0
  9
$USERR4
 40
0.0
  9
$USERR5
 40
0.0
  9
$WORLDVIEW
 70
     1
  9
$SHADEDGE
 70
     3
  9
$SHADEDIF
 70
    70
  9
$TILEMODE
 70
     1
  9
$MAXACTVP
 70
    64
  9
$PINSBASE
 10
0.0
 20
0.0
 30
0.0
  9
$PLIMCHECK
 70
     0
  9
$PEXTMIN
 10
1.000000000000000E+20
 20
1.000000000000000E+20
 30
1.000000000000000E+20
  9
$PEXTMAX
 10
-1.000000000000000E+20
 20
-1.000000000000000E+20
 30
-1.000000000000000E+20
  9
$PLIMMIN
 10
0.0
 20
0.0
  9
$PLIMMAX
 10
12.0
 20
9.0
  9
$UNITMODE
 70
     0
  9
$VISRETAIN
 70
     1
  9
$PLINEGEN
 70
     0
  9
$PSLTSCALE
 70
     1
  9
$TREEDEPTH
 70
  3020
  9
$PICKSTYLE
 70
     1
  9
$CMLSTYLE
  2
STANDARD
  9
$CMLJUST
 70
     0
  9
$CMLSCALE
 40
1.0
  9
$PROXYGRAPHICS
 70
     1
  9
$MEASUREMENT
 70
     0
  0
ENDSEC
  0
SECTION
  2
CLASSES
  0
CLASS
  1
ACDBDICTIONARYWDFLT
  2
AcDbDictionaryWithDefault
  3
ObjectDBX Classes
 90
        0
280
     0
281
     0
  0
CLASS
  1
VISUALSTYLE
  2
AcDbVisualStyle
  3
ObjectDBX Classes
 90
     4095
280
     0
281
     0
  0
CLASS
  1
MATERIAL
  2
AcDbMaterial
  3
ObjectDBX Classes
 90
     1153
280
     0
281
     0
  0
CLASS
  1
DICTIONARYVAR
  2
AcDbDictionaryVar
  3
ObjectDBX Classes
 90
        0
280
     0
281
     0
  0
CLASS
  1
XRECORD
  2
AcDbXrecord
  3
AutoCAD 2000
 90
        0
280
     0
281
     0
  0
CLASS
  1
LWPOLYLINE
  2
AcDbPolyline
  3
AutoCAD 2000
 90
        0
280
     0
281
     1
  0
CLASS
  1
HATCH
  2
AcDbHatch
  3
AutoCAD 2000
 90
        0
280
     0
281
     1
  0
CLASS
  1
ACDBPLACEHOLDER
  2
AcDbPlaceHolder
  3
ObjectDBX Classes
 90
        0
280
     0
281
     0
  0
CLASS
  1
LAYOUT
  2
AcDbLayout
  3
ObjectDBX Classes
 90
        0
280
     0
281
     0
  0
ENDSEC
  0
SECTION
  2
TABLES
  0
TABLE
  2
VPORT
  5
8
330
0
100
AcDbSymbolTable
 70
     1
  0
VPORT
  5
29
330
8
100
AcDbSymbolTableRecord
100
AcDbViewportTableRecord
  2
*ACTIVE
 70
     0
 10
0.0
 20
0.0
 11
1.0
 21
1.0
 12
10.42990654205607
 22
4.5
 13
0.0
 23
0.0
 14
0.5
 24
0.5
 15
0.5
 25
0.5
 16
0.0
 26
0.0
 36
1.0
 17
0.0
 27
0.0
 37
0.0
 40
9.0
 41
1.972972972850329
 42
50.0
 43
0.0
 44
0.0
 50
0.0
 51
0.0
 71
     0
 72
   100
 73
     1
 74
     3
 75
     0
 76
     0
 77
     0
 78
     0
  0
ENDTAB
  0
TABLE
  2
LTYPE
  5
5
330
0
100
AcDbSymbolTable
 70
     3
  0
LTYPE
  5
14
330
5
100
AcDbSymbolTableRecord
100
AcDbLinetypeTableRecord
  2
BYBLOCK
 70
     0
  3

 72
    65
 73
     0
 40
0.0
  0
LTYPE
  5
15
330
5
100
AcDbSymbolTableRecord
100
AcDbLinetypeTableRecord
  2
BYLAYER
 70
     0
  3

 72
    65
 73
     0
 40
0.0
  0
LTYPE
  5
16
330
5
100
AcDbSymbolTableRecord
100
AcDbLinetypeTableRecord
  2
CONTINUOUS
 70
     0
  3
Solid line
 72
    65
 73
     0
 40
0.0
  0
LTYPE
  5
69
330
5
100
AcDbSymbolTableRecord
100
AcDbLinetypeTableRecord
  2
NEW_LINE1
 70
     0
  3

 72
    65
 73
     4
 40
1.2
 49
0.5
 74
     4
 75
     0
340
0
 46
1.0
 50
0.0
 44
0.0
 45
0.0
 49
-0.3
 74
     4
 75
     0
340
0
 46
1.0
 50
0.0
 44
0.0
 45
0.0
 49
0.1
 74
     4
 75
     0
340
0
 46
1.0
 50
0.0
 44
0.0
 45
0.0
 49
-0.3
 74
     4
 75
     0
340
0
 46
1.0
 50
0.0
 44
0.0
 45
0.0
  0
LTYPE
  5
6B
330
5
100
AcDbSymbolTableRecord
100
AcDbLinetypeTableRecord
  2
NEW_LINE2
 70
     0
  3

 72
    65
 73
     4
 40
1.2
 49
0.5
 74
     4
 75
     0
340
0
 46
1.0
 50
0.0
 44
0.0
 45
0.0
 49
-0.3
 74
     4
 75
     0
340
0
 46
1.0
 50
0.0
 44
0.0
 45
0.0
 49
0.1
 74
     4
 75
     0
340
0
 46
1.0
 50
0.0
 44
0.0
 45
0.0
 49
-0.3
 74
     4
 75
     0
340
0
 46
1.0
 50
0.0
 44
0.0
 45
0.0
  0
ENDTAB
  0
TABLE
  2
LAYER
  5
2
330
0
100
AcDbSymbolTable
 70
     2
  0
LAYER
  5
10
330
2
100
AcDbSymbolTableRecord
100
AcDbLayerTableRecord
  2
0
 70
     0
 62
     7
  6
CONTINUOUS
  0
LAYER
  5
40
330
2
100
AcDbSymbolTableRecord
100
AcDbLayerTableRecord
  2
AXIS
 70
     0
 62
     7
  6
CONTINUOUS
  0
ENDTAB
  0
TABLE
  2
STYLE
  5
3
330
0
100
AcDbSymbolTable
 70
     1
  0
STYLE
  5
11
330
3
100
AcDbSymbolTableRecord
100
AcDbTextStyleTableRecord
  2
STANDARD
 70
     0
 40
0.0
 41
1.0
 50
0.0
 71
     0
 42
0.2
  3
txt
  4

  0
ENDTAB
  0
TABLE
  2
VIEW
  5
6
330
0
100
AcDbSymbolTable
 70
     0
  0
ENDTAB
  0
TABLE
  2
UCS
  5
7
330
0
100
AcDbSymbolTable
 70
     0
  0
ENDTAB
  0
TABLE
  2
APPID
  5
9
330
0
100
AcDbSymbolTable
 70
     2
  0
APPID
  5
12
330
9
100
AcDbSymbolTableRecord
100
AcDbRegAppTableRecord
  2
ACAD
 70
     0
  0
APPID
  5
3F
330
9
100
AcDbSymbolTableRecord
100
AcDbRegAppTableRecord
  2
ODA
 70
     0
  0
ENDTAB
  0
TABLE
  2
DIMSTYLE
  5
A
330
0
100
AcDbSymbolTable
 70
     1
  0
DIMSTYLE
105
27
330
A
100
AcDbSymbolTableRecord
100
AcDbDimStyleTableRecord
  2
STANDARD
 70
     0
  3

  4

  5

  6

  7

 40
1.0
 41
0.18
 42
0.0625
 43
0.38
 44
0.18
 45
0.0
 46
0.0
 47
0.0
 48
0.0
140
0.18
141
0.09
142
0.0
143
25.4
144
1.0
145
0.0
146
1.0
147
0.09
 71
     0
 72
     0
 73
     1
 74
     1
 75
     0
 76
     0
 77
     0
 78
     0
170
     0
171
     2
172
     0
173
     0
174
     0
175
     0
176
     0
177
     0
178
     0
270
     2
271
     4
272
     4
273
     2
274
     2
340
11
275
     0
280
     0
281
     0
282
     0
283
     1
284
     0
285
     0
286
     0
287
     3
288
     0
  0
ENDTAB
  0
TABLE
  2
BLOCK_RECORD
  5
1
330
0
100
AcDbSymbolTable
 70
     1
  0
BLOCK_RECORD
  5
1F
330
1
100
AcDbSymbolTableRecord
100
AcDbBlockTableRecord
  2
*MODEL_SPACE
  0
BLOCK_RECORD
  5
1B
330
1
100
AcDbSymbolTableRecord
100
AcDbBlockTableRecord
  2
*PAPER_SPACE
  0
ENDTAB
  0
ENDSEC
  0
SECTION
  2
BLOCKS
  0
BLOCK
  5
20
330
1F
100
AcDbEntity
  8
0
100
AcDbBlockBegin
  2
*MODEL_SPACE
 70
     0
 10
0.0
 20
0.0
 30
0.0
  3
*MODEL_SPACE
  1

  0
ENDBLK
  5
21
330
1F
100
AcDbEntity
  8
0
100
AcDbBlockEnd
  0
BLOCK
  5
1C
330
1B
100
AcDbEntity
 67
     1
  8
0
100
AcDbBlockBegin
  2
*PAPER_SPACE
 70
     0
 10
0.0
 20
0.0
 30
0.0
  3
*PAPER_SPACE
  1

  0
ENDBLK
  5
1D
330
1B
100
AcDbEntity
 67
     1
  8
0
100
AcDbBlockEnd
  0
ENDSEC
  0
SECTION
  2
ENTITIES
  0
SPLINE
  5
41
330
1F
100
AcDbEntity
  8
AXIS
 62
   250
100
AcDbSpline
210
0.0
220
0.0
230
1.0
 70
    24
 71
     3
 72
     8
 73
     4
 74
     0
 42
0.0000000001
 43
0.0000000001
 40
0.0
 40
0.0
 40
0.0
 40
0.0
 40
1.0
 40
1.0
 40
1.0
 40
1.0
 10
18.6657
 20
-7.6259
 30
0.0
 10
18.6657
 20
-7.6259
 30
0.0
 10
18.9624
 20
0.8696
 30
0.0
 10
18.9624
 20
0.8696
 30
0.0
  0
SPLINE
  5
42
330
1F
100
AcDbEntity
  8
AXIS
 62
   250
100
AcDbSpline
210
0.0
220
0.0
230
1.0
 70
     8
 71
     3
 72
     8
 73
     4
 74
     0
 42
0.0000000001
 43
0.0000000001
 40
0.0
 40
0.0
 40
0.0
 40
0.0
 40
1.0
 40
1.0
 40
1.0
 40
1.0
 10
5.2689
 20
-7.1605
 30
0.0
 10
5.2869
 20
-7.1605
 30
0.0
 10
5.3049
 20
-7.1603
 30
0.0
 10
5.3229
 20
-7.1599
 30
0.0
  0
SPLINE
  5
43
330
1F
100
AcDbEntity
  8
AXIS
 62
   250
100
AcDbSpline
210
0.0
220
0.0
230
1.0
 70
    24
 71
     3
 72
     8
 73
     4
 74
     0
 42
0.0000000001
 43
0.0000000001
 40
0.0
 40
0.0
 40
0.0
 40
0.0
 40
1.0
 40
1.0
 40
1.0
 40
1.0
 10
5.2689
 20
-7.1605
 30
0.0
 10
5.2689
 20
-7.1605
 30
0.0
 10
5.3229
 20
-7.1599
 30
0.0
 10
5.3229
 20
-7.1599
 30
0.0
  0
SPLINE
  5
44
330
1F
100
AcDbEntity
  8
AXIS
 62
   250
100
AcDbSpline
210
0.0
220
0.0
230
1.0
 70
     8
 71
     3
 72
    40
 73
    36
 74
     0
 42
0.0000000001
 43
0.0000000001
 40
0.0
 40
0.0
 40
0.0
 40
0.0
 40
0.1
 40
0.1
 40
0.1
 40
0.1
 40
0.2
 40
0.2
 40
0.2
 40
0.2
 40
0.3
 40
0.3
 40
0.3
 40
0.3
 40
0.4
 40
0.4
 40
0.4
 40
0.4
 40
0.5
 40
0.5
 40
0.5
 40
0.5
 40
0.6
 40
0.6
 40
0.6
 40
0.6
 40
0.7
 40
0.7
 40
0.7
 40
0.7
 40
0.8
 40
0.8
 40
0.8
 40
0.8
 40
1.0
 40
1.0
 40
1.0
 40
1.0
 10
-9.6456
 20
2.0162
 30
0.0
 10
-9.6456
 20
2.0162
 30
0.0
 10
-9.5659
 20
-3.2639
 30
0.0
 10
-9.5416
 20
-4.6548
 30
0.0
 10
-9.5416
 20
-4.6548
 30
0.0
 10
-9.5173
 20
-6.0457
 30
0.0
 10
-8.3829
 20
-7.1605
 30
0.0
 10
-6.9918
 20
-7.1605
 30
0.0
 10
-6.9918
 20
-7.1605
 30
0.0
 10
-5.6007
 20
-7.1605
 30
0.0
 10
6.2071
 20
-7.2172
 30
0.0
 10
6.2071
 20
-7.2172
 30
0.0
 10
6.2071
 20
-7.2172
 30
0.0
 10
6.2071
 20
-7.2172
 30
0.0
 10
18.6587
 20
-7.6677
 30
0.0
 10
18.6587
 20
-7.6677
 30
0.0
 10
18.6587
 20
-7.6677
 30
0.0
 10
18.6587
 20
-7.6677
 30
0.0
 10
19.3333
 20
-7.4425
 30
0.0
 10
19.3333
 20
-7.4425
 30
0.0
 10
19.3333
 20
-7.4425
 30
0.0
 10
19.3333
 20
-7.4425
 30
0.0
 10
19.6706
 20
0.5523
 30
0.0
 10
19.6706
 20
0.5523
 30
0.0
 10
19.6706
 20
0.5523
 30
0.0
 10
19.6706
 20
0.5523
 30
0.0
 10
18.9398
 20
0.8338
 30
0.0
 10
18.9398
 20
0.8338
 30
0.0
 10
18.9398
 20
0.8338
 30
0.0
 10
18.9398
 20
0.8338
 30
0.0
 10
7.9497
 20
1.1998
 30
0.0
 10
7.9497
 20
1.1998
 30
0.0
 10
7.9497
 20
1.1998
 30
0.0
 10
7.9497
 20
1.1998
 30
0.0
 10
7.9778
 20
2.0162
 30
0.0
 10
7.9778
 20
2.0162
 30
0.0
  0
SPLINE
  5
45
330
1F
100
AcDbEntity
  8
AXIS
 62
   250
100
AcDbSpline
210
0.0
220
0.0
230
1.0
 70
    11
 71
     3
 72
    60
 73
    56
 74
     0
 42
0.0000000001
 43
0.0000000001
 40
0.0
 40
0.0
 40
0.0
 40
0.0
 40
0.0666666666666667
 40
0.0666666666666667
 40
0.0666666666666667
 40
0.0666666666666667
 40
0.1333333333333333
 40
0.1333333333333333
 40
0.1333333333333333
 40
0.1333333333333333
 40
0.2
 40
0.2
 40
0.2
 40
0.2
 40
0.2666666666666667
 40
0.2666666666666667
 40
0.2666666666666667
 40
0.2666666666666667
 40
0.3333333333333333
 40
0.3333333333333333
 40
0.3333333333333333
 40
0.3333333333333333
 40
0.4
 40
0.4
 40
0.4
 40
0.4
 40
0.4666666666666667
 40
0.4666666666666667
 40
0.4666666666666667
 40
0.4666666666666667
 40
0.5333333333333333
 40
0.5333333333333333
 40
0.5333333333333333
 40
0.5333333333333333
 40
0.6
 40
0.6
 40
0.6
 40
0.6
 40
0.6666666666666666
 40
0.6666666666666666
 40
0.6666666666666666
 40
0.6666666666666666
 40
0.7333333333333333
 40
0.7333333333333333
 40
0.7333333333333333
 40
0.7333333333333333
 40
0.8
 40
0.8
 40
0.8
 40
0.8
 40
0.8666666666666667
 40
0.8666666666666667
 40
0.8666666666666667
 40
0.8666666666666667
 40
1.0
 40
1.0
 40
1.0
 40
1.0
 10
7.9558
 20
2.0696
 30
0.0
 10
7.9558
 20
2.0696
 30
0.0
 10
11.7118
 20
2.1665
 30
0.0
 10
11.7118
 20
2.1665
 30
0.0
 10
11.7118
 20
2.1665
 30
0.0
 10
11.7118
 20
2.1665
 30
0.0
 10
11.8569
 20
2.2311
 30
0.0
 10
11.8569
 20
2.2311
 30
0.0
 10
11.8569
 20
2.2311
 30
0.0
 10
11.8569
 20
2.2311
 30
0.0
 10
11.8838
 20
2.4033
 30
0.0
 10
11.8838
 20
2.4033
 30
0.0
 10
11.8838
 20
2.4033
 30
0.0
 10
11.8838
 20
2.4033
 30
0.0
 10
11.7172
 20
2.5432
 30
0.0
 10
11.7172
 20
2.5432
 30
0.0
 10
11.7172
 20
2.5432
 30
0.0
 10
11.7172
 20
2.5432
 30
0.0
 10
8.4892
 20
2.5989
 30
0.0
 10
8.4892
 20
2.5989
 30
0.0
 10
8.4892
 20
2.5989
 30
0.0
 10
8.4892
 20
2.5989
 30
0.0
 10
-10.2121
 20
2.5989
 30
0.0
 10
-10.2121
 20
2.5989
 30
0.0
 10
-10.2121
 20
2.5989
 30
0.0
 10
-10.2121
 20
2.5989
 30
0.0
 10
-13.4351
 20
2.5199
 30
0.0
 10
-13.4351
 20
2.5199
 30
0.0
 10
-13.4351
 20
2.5199
 30
0.0
 10
-13.4351
 20
2.5199
 30
0.0
 10
-13.5431
 20
2.5032
 30
0.0
 10
-13.5431
 20
2.5032
 30
0.0
 10
-13.5431
 20
2.5032
 30
0.0
 10
-13.5431
 20
2.5032
 30
0.0
 10
-13.5929
 20
2.4284
 30
0.0
 10
-13.5929
 20
2.4284
 30
0.0
 10
-13.5929
 20
2.4284
 30
0.0
 10
-13.5929
 20
2.4284
 30
0.0
 10
-13.6178
 20
2.3202
 30
0.0
 10
-13.6178
 20
2.3202
 30
0.0
 10
-13.6178
 20
2.3202
 30
0.0
 10
-13.6178
 20
2.3202
 30
0.0
 10
-13.5846
 20
2.2371
 30
0.0
 10
-13.5846
 20
2.2371
 30
0.0
 10
-13.5846
 20
2.2371
 30
0.0
 10
-13.5846
 20
2.2371
 30
0.0
 10
-13.4684
 20
2.1622
 30
0.0
 10
-13.4684
 20
2.1622
 30
0.0
 10
-13.4684
 20
2.1622
 30
0.0
 10
-13.4684
 20
2.1622
 30
0.0
 10
-9.6863
 20
2.1105
 30
0.0
 10
-9.6863
 20
2.1105
 30
0.0
 10
-9.6863
 20
2.1105
 30
0.0
 10
-9.6863
 20
2.1105
 30
0.0
 10
7.9558
 20
2.0696
 30
0.0
 10
7.9558
 20
2.0696
 30
0.0
  0
SPLINE
  5
46
330
1F
100
AcDbEntity
  8
AXIS
 62
   250
100
AcDbSpline
210
0.0
220
0.0
230
1.0
 70
     8
 71
     3
 72
    16
 73
    12
 74
     0
 42
0.0000000001
 43
0.0000000001
 40
0.0
 40
0.0
 40
0.0
 40
0.0
 40
0.25
 40
0.25
 40
0.25
 40
0.25
 40
0.5
 40
0.5
 40
0.5
 40
0.5
 40
1.0
 40
1.0
 40
1.0
 40
1.0
 10
-10.2296
 20
2.603
 30
0.0
 10
-10.2296
 20
2.603
 30
0.0
 10
-10.2121
 20
4.0603
 30
0.0
 10
-10.2121
 20
4.0603
 30
0.0
 10
-10.2121
 20
4.0603
 30
0.0
 10
-10.2121
 20
4.0603
 30
0.0
 10
8.4892
 20
4.0603
 30
0.0
 10
8.4892
 20
4.0603
 30
0.0
 10
8.4892
 20
4.0603
 30
0.0
 10
8.4892
 20
4.0603
 30
0.0
 10
8.476
 20
2.5966
 30
0.0
 10
8.476
 20
2.5966
 30
0.0
  0
SPLINE
  5
47
330
1F
100
AcDbEntity
  8
AXIS
 62
   250
100
AcDbSpline
210
0.0
220
0.0
230
1.0
 70
    24
 71
     3
 72
     8
 73
     4
 74
     0
 42
0.0000000001
 43
0.0000000001
 40
0.0
 40
0.0
 40
0.0
 40
0.0
 40
1.0
 40
1.0
 40
1.0
 40
1.0
 10
19.5847
 20
-7.7198
 30
0.0
 10
19.5847
 20
-7.7198
 30
0.0
 10
24.0129
 20
-7.9254
 30
0.0
 10
24.0129
 20
-7.9254
 30
0.0
  0
SPLINE
  5
48
330
1F
100
AcDbEntity
  8
AXIS
 62
   250
100
AcDbSpline
210
0.0
220
0.0
230
1.0
 70
    24
 71
     3
 72
     8
 73
     4
 74
     0
 42
0.0000000001
 43
0.0000000001
 40
0.0
 40
0.0
 40
0.0
 40
0.0
 40
1.0
 40
1.0
 40
1.0
 40
1.0
 10
23.7969
 20
4.231
 30
0.0
 10
23.7969
 20
4.231
 30
0.0
 10
23.2468
 20
-11.5242
 30
0.0
 10
23.2468
 20
-11.5242
 30
0.0
  0
SPLINE
  5
49
330
1F
100
AcDbEntity
  8
AXIS
 62
   250
100
AcDbSpline
210
0.0
220
0.0
230
1.0
 70
    24
 71
     3
 72
     8
 73
     4
 74
     0
 42
0.0000000001
 43
0.0000000001
 40
0.0
 40
0.0
 40
0.0
 40
0.0
 40
1.0
 40
1.0
 40
1.0
 40
1.0
 10
-8.4887
 20
-7.2403
 30
0.0
 10
-8.4887
 20
-7.2403
 30
0.0
 10
-22.7736
 20
-7.2403
 30
0.0
 10
-22.7736
 20
-7.2403
 30
0.0
  0
SPLINE
  5
4A
330
1F
100
AcDbEntity
  8
AXIS
 62
   250
100
AcDbSpline
210
0.0
220
0.0
230
1.0
 70
    24
 71
     3
 72
     8
 73
     4
 74
     0
 42
0.0000000001
 43
0.0000000001
 40
0.0
 40
0.0
 40
0.0
 40
0.0
 40
1.0
 40
1.0
 40
1.0
 40
1.0
 10
-22.039
 20
3.3547
 30
0.0
 10
-22.039
 20
3.3547
 30
0.0
 10
-22.039
 20
-6.9267
 30
0.0
 10
-22.039
 20
-6.9267
 30
0.0
  0
SPLINE
  5
4B
330
1F
100
AcDbEntity
  8
AXIS
 62
   250
100
AcDbSpline
210
0.0
220
0.0
230
1.0
 70
    24
 71
     3
 72
     8
 73
     4
 74
     0
 42
0.0000000001
 43
0.0000000001
 40
0.0
 40
0.0
 40
0.0
 40
0.0
 40
1.0
 40
1.0
 40
1.0
 40
1.0
 10
-13.6479
 20
3.1759
 30
0.0
 10
-13.6479
 20
3.1759
 30
0.0
 10
-13.6479
 20
9.7154
 30
0.0
 10
-13.6479
 20
9.7154
 30
0.0
  0
SPLINE
  5
4C
330
1F
100
AcDbEntity
  8
AXIS
 62
   250
100
AcDbSpline
210
0.0
220
0.0
230
1.0
 70
    24
 71
     3
 72
     8
 73
     4
 74
     0
 42
0.0000000001
 43
0.0000000001
 40
0.0
 40
0.0
 40
0.0
 40
0.0
 40
1.0
 40
1.0
 40
1.0
 40
1.0
 10
11.862
 20
2.8836
 30
0.0
 10
11.862
 20
2.8836
 30
0.0
 10
11.862
 20
9.8036
 30
0.0
 10
11.862
 20
9.8036
 30
0.0
  0
SPLINE
  5
4D
330
1F
100
AcDbEntity
  8
AXIS
 62
   250
100
AcDbSpline
210
0.0
220
0.0
230
1.0
 70
    24
 71
     3
 72
     8
 73
     4
 74
     0
 42
0.0000000001
 43
0.0000000001
 40
0.0
 40
0.0
 40
0.0
 40
0.0
 40
1.0
 40
1.0
 40
1.0
 40
1.0
 10
10.8502
 20
8.8107
 30
0.0
 10
10.8502
 20
8.8107
 30
0.0
 10
-12.7215
 20
8.8107
 30
0.0
 10
-12.7215
 20
8.8107
 30
0.0
  0
SPLINE
  5
4E
330
1F
100
AcDbEntity
  8
AXIS
 62
   250
100
AcDbSpline
210
0.0
220
0.0
230
1.0
 70
    24
 71
     3
 72
     8
 73
     4
 74
     0
 42
0.0000000001
 43
0.0000000001
 40
0.0
 40
0.0
 40
0.0
 40
0.0
 40
1.0
 40
1.0
 40
1.0
 40
1.0
 10
-10.2345
 20
4.1484
 30
0.0
 10
-10.2345
 20
4.1484
 30
0.0
 10
-22.7736
 20
4.1484
 30
0.0
 10
-22.7736
 20
4.1484
 30
0.0
  0
SPLINE
  5
4F
330
1F
100
AcDbEntity
  8
AXIS
 62
   250
100
AcDbSpline
210
0.0
220
0.0
230
1.0
 70
    24
 71
     3
 72
     8
 73
     4
 74
     0
 42
0.0000000001
 43
0.0000000001
 40
0.0
 40
0.0
 40
0.0
 40
0.0
 40
1.0
 40
1.0
 40
1.0
 40
1.0
 10
19.987
 20
0.8012
 30
0.0
 10
19.987
 20
0.8012
 30
0.0
 10
24.4533
 20
0.623
 30
0.0
 10
24.4533
 20
0.623
 30
0.0
  0
SPLINE
  5
50
330
1F
100
AcDbEntity
  8
AXIS
 62
   250
100
AcDbSpline
210
0.0
220
0.0
230
1.0
 70
    11
 71
     3
 72
    80
 73
    76
 74
     0
 42
0.0000000001
 43
0.0000000001
 40
0.0
 40
0.0
 40
0.0
 40
0.0
 40
0.05
 40
0.05
 40
0.05
 40
0.05
 40
0.1
 40
0.1
 40
0.1
 40
0.1
 40
0.15
 40
0.15
 40
0.15
 40
0.15
 40
0.2
 40
0.2
 40
0.2
 40
0.2
 40
0.25
 40
0.25
 40
0.25
 40
0.25
 40
0.3
 40
0.3
 40
0.3
 40
0.3
 40
0.35
 40
0.35
 40
0.35
 40
0.35
 40
0.4
 40
0.4
 40
0.4
 40
0.4
 40
0.45
 40
0.45
 40
0.45
 40
0.45
 40
0.5
 40
0.5
 40
0.5
 40
0.5
 40
0.55
 40
0.55
 40
0.55
 40
0.55
 40
0.6
 40
0.6
 40
0.6
 40
0.6
 40
0.65
 40
0.65
 40
0.65
 40
0.65
 40
0.7
 40
0.7
 40
0.7
 40
0.7
 40
0.75
 40
0.75
 40
0.75
 40
0.75
 40
0.8
 40
0.8
 40
0.8
 40
0.8
 40
0.85
 40
0.85
 40
0.85
 40
0.85
 40
0.9
 40
0.9
 40
0.9
 40
0.9
 40
1.0
 40
1.0
 40
1.0
 40
1.0
 10
-23.9499
 20
-1.3036
 30
0.0
 10
-23.9499
 20
-1.3036
 30
0.0
 10
-23.9306
 20
-1.55
 30
0.0
 10
-23.9306
 20
-1.55
 30
0.0
 10
-23.9306
 20
-1.55
 30
0.0
 10
-24.028
 20
-1.5721
 30
0.0
 10
-24.099
 20
-1.6032
 30
0.0
 10
-24.1427
 20
-1.6436
 30
0.0
 10
-24.1427
 20
-1.6436
 30
0.0
 10
-24.2138
 20
-1.7109
 30
0.0
 10
-24.2491
 20
-1.7937
 30
0.0
 10
-24.2491
 20
-1.892
 30
0.0
 10
-24.2491
 20
-1.892
 30
0.0
 10
-24.2491
 20
-1.971
 30
0.0
 10
-24.2269
 20
-2.0401
 30
0.0
 10
-24.1827
 20
-2.0999
 30
0.0
 10
-24.1827
 20
-2.0999
 30
0.0
 10
-24.1258
 20
-2.178
 30
0.0
 10
-24.0426
 20
-2.2396
 30
0.0
 10
-23.9334
 20
-2.2847
 30
0.0
 10
-23.9334
 20
-2.2847
 30
0.0
 10
-23.8243
 20
-2.3294
 30
0.0
 10
-23.6686
 20
-2.3529
 30
0.0
 10
-23.4664
 20
-2.3548
 30
0.0
 10
-23.4664
 20
-2.3548
 30
0.0
 10
-23.5571
 20
-2.2951
 30
0.0
 10
-23.6249
 20
-2.2222
 30
0.0
 10
-23.6691
 20
-2.1356
 30
0.0
 10
-23.6691
 20
-2.1356
 30
0.0
 10
-23.7128
 20
-2.0496
 30
0.0
 10
-23.7349
 20
-1.9588
 30
0.0
 10
-23.7349
 20
-1.8642
 30
0.0
 10
-23.7349
 20
-1.8642
 30
0.0
 10
-23.7349
 20
-1.6987
 30
0.0
 10
-23.6743
 20
-1.558
 30
0.0
 10
-23.5524
 20
-1.4418
 30
0.0
 10
-23.5524
 20
-1.4418
 30
0.0
 10
-23.4306
 20
-1.3257
 30
0.0
 10
-23.2735
 20
-1.2673
 30
0.0
 10
-23.0807
 20
-1.2673
 30
0.0
 10
-23.0807
 20
-1.2673
 30
0.0
 10
-22.9537
 20
-1.2673
 30
0.0
 10
-22.8361
 20
-1.2951
 30
0.0
 10
-22.7269
 20
-1.3497
 30
0.0
 10
-22.7269
 20
-1.3497
 30
0.0
 10
-22.6183
 20
-1.4042
 30
0.0
 10
-22.5346
 20
-1.4795
 30
0.0
 10
-22.4767
 20
-1.575
 30
0.0
 10
-22.4767
 20
-1.575
 30
0.0
 10
-22.4189
 20
-1.6704
 30
0.0
 10
-22.3902
 20
-1.7786
 30
0.0
 10
-22.3902
 20
-1.9
 30
0.0
 10
-22.3902
 20
-1.9
 30
0.0
 10
-22.3902
 20
-2.1069
 30
0.0
 10
-22.4659
 20
-2.2753
 30
0.0
 10
-22.6183
 20
-2.4056
 30
0.0
 10
-22.6183
 20
-2.4056
 30
0.0
 10
-22.7702
 20
-2.5364
 30
0.0
 10
-23.0209
 20
-2.6013
 30
0.0
 10
-23.3699
 20
-2.6013
 30
0.0
 10
-23.3699
 20
-2.6013
 30
0.0
 10
-23.7603
 20
-2.6013
 30
0.0
 10
-24.044
 20
-2.5293
 30
0.0
 10
-24.2213
 20
-2.3849
 30
0.0
 10
-24.2213
 20
-2.3849
 30
0.0
 10
-24.3756
 20
-2.2593
 30
0.0
 10
-24.4532
 20
-2.09
 30
0.0
 10
-24.4532
 20
-1.8765
 30
0.0
 10
-24.4532
 20
-1.8765
 30
0.0
 10
-24.4532
 20
-1.7179
 30
0.0
 10
-24.4085
 20
-1.5877
 30
0.0
 10
-24.3191
 20
-1.4861
 30
0.0
 10
-24.3191
 20
-1.4861
 30
0.0
 10
-24.2302
 20
-1.3845
 30
0.0
 10
-24.107
 20
-1.3238
 30
0.0
 10
-23.9499
 20
-1.3036
 30
0.0
  0
SPLINE
  5
51
330
1F
100
AcDbEntity
  8
AXIS
 62
   250
100
AcDbSpline
210
0.0
220
0.0
230
1.0
 70
    11
 71
     3
 72
    40
 73
    36
 74
     0
 42
0.0000000001
 43
0.0000000001
 40
0.0
 40
0.0
 40
0.0
 40
0.0
 40
0.1
 40
0.1
 40
0.1
 40
0.1
 40
0.2
 40
0.2
 40
0.2
 40
0.2
 40
0.3
 40
0.3
 40
0.3
 40
0.3
 40
0.4
 40
0.4
 40
0.4
 40
0.4
 40
0.5
 40
0.5
 40
0.5
 40
0.5
 40
0.6
 40
0.6
 40
0.6
 40
0.6
 40
0.7
 40
0.7
 40
0.7
 40
0.7
 40
0.8
 40
0.8
 40
0.8
 40
0.8
 40
1.0
 40
1.0
 40
1.0
 40
1.0
 10
-23.0793
 20
-2.3163
 30
0.0
 10
-22.9936
 20
-2.3163
 30
0.0
 10
-22.9118
 20
-2.2979
 30
0.0
 10
-22.8337
 20
-2.2617
 30
0.0
 10
-22.8337
 20
-2.2617
 30
0.0
 10
-22.7556
 20
-2.2255
 30
0.0
 10
-22.6964
 20
-2.1747
 30
0.0
 10
-22.6555
 20
-2.1098
 30
0.0
 10
-22.6555
 20
-2.1098
 30
0.0
 10
-22.6145
 20
-2.0444
 30
0.0
 10
-22.5938
 20
-1.9757
 30
0.0
 10
-22.5938
 20
-1.9042
 30
0.0
 10
-22.5938
 20
-1.9042
 30
0.0
 10
-22.5938
 20
-1.7993
 30
0.0
 10
-22.6362
 20
-1.7095
 30
0.0
 10
-22.7208
 20
-1.6342
 30
0.0
 10
-22.7208
 20
-1.6342
 30
0.0
 10
-22.8055
 20
-1.559
 30
0.0
 10
-22.9203
 20
-1.5213
 30
0.0
 10
-23.0651
 20
-1.5213
 30
0.0
 10
-23.0651
 20
-1.5213
 30
0.0
 10
-23.2048
 20
-1.5213
 30
0.0
 10
-23.3149
 20
-1.5585
 30
0.0
 10
-23.3953
 20
-1.6328
 30
0.0
 10
-23.3953
 20
-1.6328
 30
0.0
 10
-23.4758
 20
-1.7071
 30
0.0
 10
-23.5158
 20
-1.8007
 30
0.0
 10
-23.5158
 20
-1.9136
 30
0.0
 10
-23.5158
 20
-1.9136
 30
0.0
 10
-23.5158
 20
-2.026
 30
0.0
 10
-23.4758
 20
-2.1211
 30
0.0
 10
-23.3953
 20
-2.1991
 30
0.0
 10
-23.3953
 20
-2.1991
 30
0.0
 10
-23.3149
 20
-2.2772
 30
0.0
 10
-23.2095
 20
-2.3163
 30
0.0
 10
-23.0793
 20
-2.3163
 30
0.0
  0
SPLINE
  5
52
330
1F
100
AcDbEntity
  8
AXIS
 62
   250
100
AcDbSpline
210
0.0
220
0.0
230
1.0
 70
    11
 71
     3
 72
    80
 73
    76
 74
     0
 42
0.0000000001
 43
0.0000000001
 40
0.0
 40
0.0
 40
0.0
 40
0.0
 40
0.05
 40
0.05
 40
0.05
 40
0.05
 40
0.1
 40
0.1
 40
0.1
 40
0.1
 40
0.15
 40
0.15
 40
0.15
 40
0.15
 40
0.2
 40
0.2
 40
0.2
 40
0.2
 40
0.25
 40
0.25
 40
0.25
 40
0.25
 40
0.3
 40
0.3
 40
0.3
 40
0.3
 40
0.35
 40
0.35
 40
0.35
 40
0.35
 40
0.4
 40
0.4
 40
0.4
 40
0.4
 40
0.45
 40
0.45
 40
0.45
 40
0.45
 40
0.5
 40
0.5
 40
0.5
 40
0.5
 40
0.55
 40
0.55
 40
0.55
 40
0.55
 40
0.6
 40
0.6
 40
0.6
 40
0.6
 40
0.65
 40
0.65
 40
0.65
 40
0.65
 40
0.7
 40
0.7
 40
0.7
 40
0.7
 40
0.75
 40
0.75
 40
0.75
 40
0.75
 40
0.8
 40
0.8
 40
0.8
 40
0.8
 40
0.85
 40
0.85
 40
0.85
 40
0.85
 40
0.9
 40
0.9
 40
0.9
 40
0.9
 40
1.0
 40
1.0
 40
1.0
 40
1.0
 10
-23.9499
 20
0.266
 30
0.0
 10
-23.9499
 20
0.266
 30
0.0
 10
-23.9306
 20
0.0196
 30
0.0
 10
-23.9306
 20
0.0196
 30
0.0
 10
-23.9306
 20
0.0196
 30
0.0
 10
-24.028
 20
-0.0025
 30
0.0
 10
-24.099
 20
-0.0336
 30
0.0
 10
-24.1427
 20
-0.074
 30
0.0
 10
-24.1427
 20
-0.074
 30
0.0
 10
-24.2138
 20
-0.1413
 30
0.0
 10
-24.2491
 20
-0.2241
 30
0.0
 10
-24.2491
 20
-0.3224
 30
0.0
 10
-24.2491
 20
-0.3224
 30
0.0
 10
-24.2491
 20
-0.4014
 30
0.0
 10
-24.2269
 20
-0.4705
 30
0.0
 10
-24.1827
 20
-0.5303
 30
0.0
 10
-24.1827
 20
-0.5303
 30
0.0
 10
-24.1258
 20
-0.6084
 30
0.0
 10
-24.0426
 20
-0.67
 30
0.0
 10
-23.9334
 20
-0.7151
 30
0.0
 10
-23.9334
 20
-0.7151
 30
0.0
 10
-23.8243
 20
-0.7598
 30
0.0
 10
-23.6686
 20
-0.7833
 30
0.0
 10
-23.4664
 20
-0.7852
 30
0.0
 10
-23.4664
 20
-0.7852
 30
0.0
 10
-23.5571
 20
-0.7255
 30
0.0
 10
-23.6249
 20
-0.6526
 30
0.0
 10
-23.6691
 20
-0.566
 30
0.0
 10
-23.6691
 20
-0.566
 30
0.0
 10
-23.7128
 20
-0.48
 30
0.0
 10
-23.7349
 20
-0.3892
 30
0.0
 10
-23.7349
 20
-0.2946
 30
0.0
 10
-23.7349
 20
-0.2946
 30
0.0
 10
-23.7349
 20
-0.1291
 30
0.0
 10
-23.6743
 20
0.0116
 30
0.0
 10
-23.5524
 20
0.1278
 30
0.0
 10
-23.5524
 20
0.1278
 30
0.0
 10
-23.4306
 20
0.2439
 30
0.0
 10
-23.2735
 20
0.3023
 30
0.0
 10
-23.0807
 20
0.3023
 30
0.0
 10
-23.0807
 20
0.3023
 30
0.0
 10
-22.9537
 20
0.3023
 30
0.0
 10
-22.8361
 20
0.2745
 30
0.0
 10
-22.7269
 20
0.2199
 30
0.0
 10
-22.7269
 20
0.2199
 30
0.0
 10
-22.6183
 20
0.1654
 30
0.0
 10
-22.5346
 20
0.0901
 30
0.0
 10
-22.4767
 20
-0.0054
 30
0.0
 10
-22.4767
 20
-0.0054
 30
0.0
 10
-22.4189
 20
-0.1008
 30
0.0
 10
-22.3902
 20
-0.209
 30
0.0
 10
-22.3902
 20
-0.3304
 30
0.0
 10
-22.3902
 20
-0.3304
 30
0.0
 10
-22.3902
 20
-0.5373
 30
0.0
 10
-22.4659
 20
-0.7057
 30
0.0
 10
-22.6183
 20
-0.836
 30
0.0
 10
-22.6183
 20
-0.836
 30
0.0
 10
-22.7702
 20
-0.9668
 30
0.0
 10
-23.0209
 20
-1.0317
 30
0.0
 10
-23.3699
 20
-1.0317
 30
0.0
 10
-23.3699
 20
-1.0317
 30
0.0
 10
-23.7603
 20
-1.0317
 30
0.0
 10
-24.044
 20
-0.9597
 30
0.0
 10
-24.2213
 20
-0.8153
 30
0.0
 10
-24.2213
 20
-0.8153
 30
0.0
 10
-24.3756
 20
-0.6897
 30
0.0
 10
-24.4532
 20
-0.5204
 30
0.0
 10
-24.4532
 20
-0.3069
 30
0.0
 10
-24.4532
 20
-0.3069
 30
0.0
 10
-24.4532
 20
-0.1483
 30
0.0
 10
-24.4085
 20
-0.0181
 30
0.0
 10
-24.3191
 20
0.0835
 30
0.0
 10
-24.3191
 20
0.0835
 30
0.0
 10
-24.2302
 20
0.1851
 30
0.0
 10
-24.107
 20
0.2458
 30
0.0
 10
-23.9499
 20
0.266
 30
0.0
  0
SPLINE
  5
53
330
1F
100
AcDbEntity
  8
AXIS
 62
   250
100
AcDbSpline
210
0.0
220
0.0
230
1.0
 70
    11
 71
     3
 72
    40
 73
    36
 74
     0
 42
0.0000000001
 43
0.0000000001
 40
0.0
 40
0.0
 40
0.0
 40
0.0
 40
0.1
 40
0.1
 40
0.1
 40
0.1
 40
0.2
 40
0.2
 40
0.2
 40
0.2
 40
0.3
 40
0.3
 40
0.3
 40
0.3
 40
0.4
 40
0.4
 40
0.4
 40
0.4
 40
0.5
 40
0.5
 40
0.5
 40
0.5
 40
0.6
 40
0.6
 40
0.6
 40
0.6
 40
0.7
 40
0.7
 40
0.7
 40
0.7
 40
0.8
 40
0.8
 40
0.8
 40
0.8
 40
1.0
 40
1.0
 40
1.0
 40
1.0
 10
-23.0793
 20
-0.7467
 30
0.0
 10
-22.9936
 20
-0.7467
 30
0.0
 10
-22.9118
 20
-0.7283
 30
0.0
 10
-22.8337
 20
-0.6921
 30
0.0
 10
-22.8337
 20
-0.6921
 30
0.0
 10
-22.7556
 20
-0.6559
 30
0.0
 10
-22.6964
 20
-0.6051
 30
0.0
 10
-22.6555
 20
-0.5402
 30
0.0
 10
-22.6555
 20
-0.5402
 30
0.0
 10
-22.6145
 20
-0.4748
 30
0.0
 10
-22.5938
 20
-0.4061
 30
0.0
 10
-22.5938
 20
-0.3346
 30
0.0
 10
-22.5938
 20
-0.3346
 30
0.0
 10
-22.5938
 20
-0.2297
 30
0.0
 10
-22.6362
 20
-0.1399
 30
0.0
 10
-22.7208
 20
-0.0646
 30
0.0
 10
-22.7208
 20
-0.0646
 30
0.0
 10
-22.8055
 20
0.0106
 30
0.0
 10
-22.9203
 20
0.0483
 30
0.0
 10
-23.0651
 20
0.0483
 30
0.0
 10
-23.0651
 20
0.0483
 30
0.0
 10
-23.2048
 20
0.0483
 30
0.0
 10
-23.3149
 20
0.0111
 30
0.0
 10
-23.3953
 20
-0.0632
 30
0.0
 10
-23.3953
 20
-0.0632
 30
0.0
 10
-23.4758
 20
-0.1375
 30
0.0
 10
-23.5158
 20
-0.2311
 30
0.0
 10
-23.5158
 20
-0.344
 30
0.0
 10
-23.5158
 20
-0.344
 30
0.0
 10
-23.5158
 20
-0.4564
 30
0.0
 10
-23.4758
 20
-0.5515
 30
0.0
 10
-23.3953
 20
-0.6295
 30
0.0
 10
-23.3953
 20
-0.6295
 30
0.0
 10
-23.3149
 20
-0.7076
 30
0.0
 10
-23.2095
 20
-0.7467
 30
0.0
 10
-23.0793
 20
-0.7467
 30
0.0
  0
SPLINE
  5
54
330
1F
100
AcDbEntity
  8
AXIS
 62
   250
100
AcDbSpline
210
0.0
220
0.0
230
1.0
 70
    11
 71
     3
 72
    20
 73
    16
 74
     0
 42
0.0000000001
 43
0.0000000001
 40
0.0
 40
0.0
 40
0.0
 40
0.0
 40
0.2
 40
0.2
 40
0.2
 40
0.2
 40
0.4
 40
0.4
 40
0.4
 40
0.4
 40
0.6
 40
0.6
 40
0.6
 40
0.6
 40
1.0
 40
1.0
 40
1.0
 40
1.0
 10
-22.4136
 20
1.5723
 30
0.0
 10
-22.4136
 20
1.5723
 30
0.0
 10
-22.0607
 20
4.0723
 30
0.0
 10
-22.0607
 20
4.0723
 30
0.0
 10
-22.0607
 20
4.0723
 30
0.0
 10
-22.0607
 20
4.0723
 30
0.0
 10
-21.9824
 20
4.0723
 30
0.0
 10
-21.9824
 20
4.0723
 30
0.0
 10
-21.9824
 20
4.0723
 30
0.0
 10
-21.9824
 20
4.0723
 30
0.0
 10
-21.6061
 20
1.5723
 30
0.0
 10
-21.6061
 20
1.5723
 30
0.0
 10
-21.6061
 20
1.5723
 30
0.0
 10
-21.6061
 20
1.5723
 30
0.0
 10
-22.4136
 20
1.5723
 30
0.0
 10
-22.4136
 20
1.5723
 30
0.0
  0
SPLINE
  5
55
330
1F
100
AcDbEntity
  8
AXIS
 62
   250
100
AcDbSpline
210
0.0
220
0.0
230
1.0
 70
    11
 71
     3
 72
    20
 73
    16
 74
     0
 42
0.0000000001
 43
0.0000000001
 40
0.0
 40
0.0
 40
0.0
 40
0.0
 40
0.2
 40
0.2
 40
0.2
 40
0.2
 40
0.4
 40
0.4
 40
0.4
 40
0.4
 40
0.6
 40
0.6
 40
0.6
 40
0.6
 40
1.0
 40
1.0
 40
1.0
 40
1.0
 10
-21.6489
 20
-4.6559
 30
0.0
 10
-21.6489
 20
-4.6559
 30
0.0
 10
-22.0018
 20
-7.1559
 30
0.0
 10
-22.0018
 20
-7.1559
 30
0.0
 10
-22.0018
 20
-7.1559
 30
0.0
 10
-22.0018
 20
-7.1559
 30
0.0
 10
-22.0801
 20
-7.1559
 30
0.0
 10
-22.0801
 20
-7.1559
 30
0.0
 10
-22.0801
 20
-7.1559
 30
0.0
 10
-22.0801
 20
-7.1559
 30
0.0
 10
-22.4564
 20
-4.6559
 30
0.0
 10
-22.4564
 20
-4.6559
 30
0.0
 10
-22.4564
 20
-4.6559
 30
0.0
 10
-22.4564
 20
-4.6559
 30
0.0
 10
-21.6489
 20
-4.6559
 30
0.0
 10
-21.6489
 20
-4.6559
 30
0.0
  0
SPLINE
  5
56
330
1F
100
AcDbEntity
  8
AXIS
 62
   250
100
AcDbSpline
210
0.0
220
0.0
230
1.0
 70
    11
 71
     3
 72
    84
 73
    80
 74
     0
 42
0.0000000001
 43
0.0000000001
 40
0.0
 40
0.0
 40
0.0
 40
0.0
 40
0.0476190476190476
 40
0.0476190476190476
 40
0.0476190476190476
 40
0.0476190476190476
 40
0.0952380952380952
 40
0.0952380952380952
 40
0.0952380952380952
 40
0.0952380952380952
 40
0.1428571428571428
 40
0.1428571428571428
 40
0.1428571428571428
 40
0.1428571428571428
 40
0.1904761904761905
 40
0.1904761904761905
 40
0.1904761904761905
 40
0.1904761904761905
 40
0.2380952380952381
 40
0.2380952380952381
 40
0.2380952380952381
 40
0.2380952380952381
 40
0.2857142857142857
 40
0.2857142857142857
 40
0.2857142857142857
 40
0.2857142857142857
 40
0.3333333333333333
 40
0.3333333333333333
 40
0.3333333333333333
 40
0.3333333333333333
 40
0.3809523809523809
 40
0.3809523809523809
 40
0.3809523809523809
 40
0.3809523809523809
 40
0.4285714285714285
 40
0.4285714285714285
 40
0.4285714285714285
 40
0.4285714285714285
 40
0.4761904761904762
 40
0.4761904761904762
 40
0.4761904761904762
 40
0.4761904761904762
 40
0.5238095238095238
 40
0.5238095238095238
 40
0.5238095238095238
 40
0.5238095238095238
 40
0.5714285714285714
 40
0.5714285714285714
 40
0.5714285714285714
 40
0.5714285714285714
 40
0.6190476190476191
 40
0.6190476190476191
 40
0.6190476190476191
 40
0.6190476190476191
 40
0.6666666666666666
 40
0.6666666666666666
 40
0.6666666666666666
 40
0.6666666666666666
 40
0.7142857142857143
 40
0.7142857142857143
 40
0.7142857142857143
 40
0.7142857142857143
 40
0.7619047619047619
 40
0.7619047619047619
 40
0.7619047619047619
 40
0.7619047619047619
 40
0.8095238095238095
 40
0.8095238095238095
 40
0.8095238095238095
 40
0.8095238095238095
 40
0.8571428571428571
 40
0.8571428571428571
 40
0.8571428571428571
 40
0.8571428571428571
 40
0.9047619047619048
 40
0.9047619047619048
 40
0.9047619047619048
 40
0.9047619047619048
 40
1.0
 40
1.0
 40
1.0
 40
1.0
 10
-2.6509
 20
11.2652
 30
0.0
 10
-2.6509
 20
11.2652
 30
0.0
 10
-2.4195
 20
11.5243
 30
0.0
 10
-2.4195
 20
11.5243
 30
0.0
 10
-2.4195
 20
11.5243
 30
0.0
 10
-2.4195
 20
11.5243
 30
0.0
 10
-2.2831
 20
11.4086
 30
0.0
 10
-2.2831
 20
11.4086
 30
0.0
 10
-2.2831
 20
11.4086
 30
0.0
 10
-2.2831
 20
11.4086
 30
0.0
 10
-2.5253
 20
11.1358
 30
0.0
 10
-2.5253
 20
11.1358
 30
0.0
 10
-2.5253
 20
11.1358
 30
0.0
 10
-2.4463
 20
11.0182
 30
0.0
 10
-2.3932
 20
10.9152
 30
0.0
 10
-2.3654
 20
10.8273
 30
0.0
 10
-2.3654
 20
10.8273
 30
0.0
 10
-2.3287
 20
10.7115
 30
0.0
 10
-2.3104
 20
10.5817
 30
0.0
 10
-2.3104
 20
10.4387
 30
0.0
 10
-2.3104
 20
10.4387
 30
0.0
 10
-2.3104
 20
10.2318
 30
0.0
 10
-2.3522
 20
10.0474
 30
0.0
 10
-2.436
 20
9.8861
 30
0.0
 10
-2.436
 20
9.8861
 30
0.0
 10
-2.5197
 20
9.7242
 30
0.0
 10
-2.6368
 20
9.602
 30
0.0
 10
-2.7878
 20
9.5192
 30
0.0
 10
-2.7878
 20
9.5192
 30
0.0
 10
-2.9393
 20
9.4369
 30
0.0
 10
-3.0996
 20
9.3955
 30
0.0
 10
-3.2694
 20
9.3955
 30
0.0
 10
-3.2694
 20
9.3955
 30
0.0
 10
-3.3964
 20
9.3955
 30
0.0
 10
-3.5112
 20
9.4133
 30
0.0
 10
-3.6142
 20
9.4491
 30
0.0
 10
-3.6142
 20
9.4491
 30
0.0
 10
-3.6932
 20
9.4768
 30
0.0
 10
-3.7854
 20
9.5295
 30
0.0
 10
-3.8913
 20
9.6076
 30
0.0
 10
-3.8913
 20
9.6076
 30
0.0
 10
-3.8913
 20
9.6076
 30
0.0
 10
-4.1227
 20
9.3484
 30
0.0
 10
-4.1227
 20
9.3484
 30
0.0
 10
-4.1227
 20
9.3484
 30
0.0
 10
-4.1227
 20
9.3484
 30
0.0
 10
-4.2591
 20
9.4641
 30
0.0
 10
-4.2591
 20
9.4641
 30
0.0
 10
-4.2591
 20
9.4641
 30
0.0
 10
-4.2591
 20
9.4641
 30
0.0
 10
-4.0164
 20
9.7355
 30
0.0
 10
-4.0164
 20
9.7355
 30
0.0
 10
-4.0164
 20
9.7355
 30
0.0
 10
-4.1067
 20
9.8724
 30
0.0
 10
-4.1669
 20
9.9895
 30
0.0
 10
-4.197
 20
10.0864
 30
0.0
 10
-4.197
 20
10.0864
 30
0.0
 10
-4.2271
 20
10.1833
 30
0.0
 10
-4.2426
 20
10.3
 30
0.0
 10
-4.2426
 20
10.4359
 30
0.0
 10
-4.2426
 20
10.4359
 30
0.0
 10
-4.2426
 20
10.6433
 30
0.0
 10
-4.2012
 20
10.8282
 30
0.0
 10
-4.1185
 20
10.9905
 30
0.0
 10
-4.1185
 20
10.9905
 30
0.0
 10
-4.0357
 20
11.1528
 30
0.0
 10
-3.92
 20
11.2755
 30
0.0
 10
-3.7704
 20
11.3592
 30
0.0
 10
-3.7704
 20
11.3592
 30
0.0
 10
-3.6213
 20
11.4425
 30
0.0
 10
-3.4552
 20
11.4844
 30
0.0
 10
-3.2723
 20
11.4844
 30
0.0
 10
-3.2723
 20
11.4844
 30
0.0
 10
-3.149
 20
11.4844
 30
0.0
 10
-3.0413
 20
11.4684
 30
0.0
 10
-2.9491
 20
11.4354
 30
0.0
 10
-2.9491
 20
11.4354
 30
0.0
 10
-2.8569
 20
11.403
 30
0.0
 10
-2.7572
 20
11.3461
 30
0.0
 10
-2.6509
 20
11.2652
 30
0.0
  0
SPLINE
  5
57
330
1F
100
AcDbEntity
  8
AXIS
 62
   250
100
AcDbSpline
210
0.0
220
0.0
230
1.0
 70
    11
 71
     3
 72
    32
 73
    28
 74
     0
 42
0.0000000001
 43
0.0000000001
 40
0.0
 40
0.0
 40
0.0
 40
0.0
 40
0.125
 40
0.125
 40
0.125
 40
0.125
 40
0.25
 40
0.25
 40
0.25
 40
0.25
 40
0.375
 40
0.375
 40
0.375
 40
0.375
 40
0.5
 40
0.5
 40
0.5
 40
0.5
 40
0.625
 40
0.625
 40
0.625
 40
0.625
 40
0.75
 40
0.75
 40
0.75
 40
0.75
 40
1.0
 40
1.0
 40
1.0
 40
1.0
 10
-2.816
 20
11.0794
 30
0.0
 10
-2.9026
 20
11.1471
 30
0.0
 10
-2.9783
 20
11.1937
 30
0.0
 10
-3.0427
 20
11.2186
 30
0.0
 10
-3.0427
 20
11.2186
 30
0.0
 10
-3.1076
 20
11.2431
 30
0.0
 10
-3.1838
 20
11.2558
 30
0.0
 10
-3.2709
 20
11.2558
 30
0.0
 10
-3.2709
 20
11.2558
 30
0.0
 10
-3.4722
 20
11.2558
 30
0.0
 10
-3.6382
 20
11.1876
 30
0.0
 10
-3.7699
 20
11.0512
 30
0.0
 10
-3.7699
 20
11.0512
 30
0.0
 10
-3.9012
 20
10.9147
 30
0.0
 10
-3.967
 20
10.7111
 30
0.0
 10
-3.967
 20
10.4397
 30
0.0
 10
-3.967
 20
10.4397
 30
0.0
 10
-3.967
 20
10.3334
 30
0.0
 10
-3.9567
 20
10.2388
 30
0.0
 10
-3.9364
 20
10.156
 30
0.0
 10
-3.9364
 20
10.156
 30
0.0
 10
-3.9218
 20
10.0944
 30
0.0
 10
-3.8913
 20
10.0187
 30
0.0
 10
-3.8442
 20
9.9289
 30
0.0
 10
-3.8442
 20
9.9289
 30
0.0
 10
-3.8442
 20
9.9289
 30
0.0
 10
-2.816
 20
11.0794
 30
0.0
 10
-2.816
 20
11.0794
 30
0.0
  0
SPLINE
  5
58
330
1F
100
AcDbEntity
  8
AXIS
 62
   250
100
AcDbSpline
210
0.0
220
0.0
230
1.0
 70
    11
 71
     3
 72
    28
 73
    24
 74
     0
 42
0.0000000001
 43
0.0000000001
 40
0.0
 40
0.0
 40
0.0
 40
0.0
 40
0.1428571428571428
 40
0.1428571428571428
 40
0.1428571428571428
 40
0.1428571428571428
 40
0.2857142857142857
 40
0.2857142857142857
 40
0.2857142857142857
 40
0.2857142857142857
 40
0.4285714285714285
 40
0.4285714285714285
 40
0.4285714285714285
 40
0.4285714285714285
 40
0.5714285714285714
 40
0.5714285714285714
 40
0.5714285714285714
 40
0.5714285714285714
 40
0.7142857142857143
 40
0.7142857142857143
 40
0.7142857142857143
 40
0.7142857142857143
 40
1.0
 40
1.0
 40
1.0
 40
1.0
 10
-2.7031
 20
10.9373
 30
0.0
 10
-2.7031
 20
10.9373
 30
0.0
 10
-3.7271
 20
9.791
 30
0.0
 10
-3.7271
 20
9.791
 30
0.0
 10
-3.7271
 20
9.791
 30
0.0
 10
-3.6566
 20
9.7332
 30
0.0
 10
-3.5912
 20
9.6927
 30
0.0
 10
-3.5314
 20
9.6697
 30
0.0
 10
-3.5314
 20
9.6697
 30
0.0
 10
-3.4534
 20
9.6391
 30
0.0
 10
-3.3687
 20
9.6241
 30
0.0
 10
-3.2779
 20
9.6241
 30
0.0
 10
-3.2779
 20
9.6241
 30
0.0
 10
-3.0775
 20
9.6241
 30
0.0
 10
-2.9124
 20
9.6946
 30
0.0
 10
-2.7817
 20
9.8362
 30
0.0
 10
-2.7817
 20
9.8362
 30
0.0
 10
-2.6514
 20
9.9778
 30
0.0
 10
-2.586
 20
10.1763
 30
0.0
 10
-2.586
 20
10.4317
 30
0.0
 10
-2.586
 20
10.4317
 30
0.0
 10
-2.586
 20
10.6226
 30
0.0
 10
-2.625
 20
10.7915
 30
0.0
 10
-2.7031
 20
10.9373
 30
0.0
  0
SPLINE
  5
59
330
1F
100
AcDbEntity
  8
AXIS
 62
   250
100
AcDbSpline
210
0.0
220
0.0
230
1.0
 70
    11
 71
     3
 72
    40
 73
    36
 74
     0
 42
0.0000000001
 43
0.0000000001
 40
0.0
 40
0.0
 40
0.0
 40
0.0
 40
0.1
 40
0.1
 40
0.1
 40
0.1
 40
0.2
 40
0.2
 40
0.2
 40
0.2
 40
0.3
 40
0.3
 40
0.3
 40
0.3
 40
0.4
 40
0.4
 40
0.4
 40
0.4
 40
0.5
 40
0.5
 40
0.5
 40
0.5
 40
0.6
 40
0.6
 40
0.6
 40
0.6
 40
0.7
 40
0.7
 40
0.7
 40
0.7
 40
0.8
 40
0.8
 40
0.8
 40
0.8
 40
1.0
 40
1.0
 40
1.0
 40
1.0
 10
-1.1269
 20
9.4298
 30
0.0
 10
-1.1269
 20
9.4298
 30
0.0
 10
-1.3748
 20
9.4298
 30
0.0
 10
-1.3748
 20
9.4298
 30
0.0
 10
-1.3748
 20
9.4298
 30
0.0
 10
-1.3748
 20
9.4298
 30
0.0
 10
-1.3748
 20
11.0102
 30
0.0
 10
-1.3748
 20
11.0102
 30
0.0
 10
-1.3748
 20
11.0102
 30
0.0
 10
-1.4346
 20
10.9533
 30
0.0
 10
-1.5126
 20
10.8964
 30
0.0
 10
-1.6095
 20
10.8395
 30
0.0
 10
-1.6095
 20
10.8395
 30
0.0
 10
-1.7069
 20
10.7826
 30
0.0
 10
-1.7939
 20
10.7398
 30
0.0
 10
-1.8711
 20
10.7115
 30
0.0
 10
-1.8711
 20
10.7115
 30
0.0
 10
-1.8711
 20
10.7115
 30
0.0
 10
-1.8711
 20
10.951
 30
0.0
 10
-1.8711
 20
10.951
 30
0.0
 10
-1.8711
 20
10.951
 30
0.0
 10
-1.7323
 20
11.0163
 30
0.0
 10
-1.6109
 20
11.0954
 30
0.0
 10
-1.507
 20
11.188
 30
0.0
 10
-1.507
 20
11.188
 30
0.0
 10
-1.4035
 20
11.2812
 30
0.0
 10
-1.3297
 20
11.371
 30
0.0
 10
-1.2864
 20
11.4585
 30
0.0
 10
-1.2864
 20
11.4585
 30
0.0
 10
-1.2864
 20
11.4585
 30
0.0
 10
-1.1269
 20
11.4585
 30
0.0
 10
-1.1269
 20
11.4585
 30
0.0
 10
-1.1269
 20
11.4585
 30
0.0
 10
-1.1269
 20
11.4585
 30
0.0
 10
-1.1269
 20
9.4298
 30
0.0
 10
-1.1269
 20
9.4298
 30
0.0
  0
SPLINE
  5
5A
330
1F
100
AcDbEntity
  8
AXIS
 62
   250
100
AcDbSpline
210
0.0
220
0.0
230
1.0
 70
    11
 71
     3
 72
    92
 73
    88
 74
     0
 42
0.0000000001
 43
0.0000000001
 40
0.0
 40
0.0
 40
0.0
 40
0.0
 40
0.0434782608695652
 40
0.0434782608695652
 40
0.0434782608695652
 40
0.0434782608695652
 40
0.0869565217391304
 40
0.0869565217391304
 40
0.0869565217391304
 40
0.0869565217391304
 40
0.1304347826086956
 40
0.1304347826086956
 40
0.1304347826086956
 40
0.1304347826086956
 40
0.1739130434782609
 40
0.1739130434782609
 40
0.1739130434782609
 40
0.1739130434782609
 40
0.2173913043478261
 40
0.2173913043478261
 40
0.2173913043478261
 40
0.2173913043478261
 40
0.2608695652173913
 40
0.2608695652173913
 40
0.2608695652173913
 40
0.2608695652173913
 40
0.3043478260869565
 40
0.3043478260869565
 40
0.3043478260869565
 40
0.3043478260869565
 40
0.3478260869565217
 40
0.3478260869565217
 40
0.3478260869565217
 40
0.3478260869565217
 40
0.391304347826087
 40
0.391304347826087
 40
0.391304347826087
 40
0.391304347826087
 40
0.4347826086956522
 40
0.4347826086956522
 40
0.4347826086956522
 40
0.4347826086956522
 40
0.4782608695652174
 40
0.4782608695652174
 40
0.4782608695652174
 40
0.4782608695652174
 40
0.5217391304347826
 40
0.5217391304347826
 40
0.5217391304347826
 40
0.5217391304347826
 40
0.5652173913043478
 40
0.5652173913043478
 40
0.5652173913043478
 40
0.5652173913043478
 40
0.6086956521739131
 40
0.6086956521739131
 40
0.6086956521739131
 40
0.6086956521739131
 40
0.6521739130434783
 40
0.6521739130434783
 40
0.6521739130434783
 40
0.6521739130434783
 40
0.6956521739130435
 40
0.6956521739130435
 40
0.6956521739130435
 40
0.6956521739130435
 40
0.7391304347826086
 40
0.7391304347826086
 40
0.7391304347826086
 40
0.7391304347826086
 40
0.782608695652174
 40
0.782608695652174
 40
0.782608695652174
 40
0.782608695652174
 40
0.8260869565217391
 40
0.8260869565217391
 40
0.8260869565217391
 40
0.8260869565217391
 40
0.8695652173913043
 40
0.8695652173913043
 40
0.8695652173913043
 40
0.8695652173913043
 40
0.9130434782608695
 40
0.9130434782608695
 40
0.9130434782608695
 40
0.9130434782608695
 40
1.0
 40
1.0
 40
1.0
 40
1.0
 10
-0.4915
 20
9.959
 30
0.0
 10
-0.4915
 20
9.959
 30
0.0
 10
-0.2309
 20
9.9811
 30
0.0
 10
-0.2309
 20
9.9811
 30
0.0
 10
-0.2309
 20
9.9811
 30
0.0
 10
-0.2116
 20
9.8541
 30
0.0
 10
-0.1669
 20
9.7591
 30
0.0
 10
-0.0968
 20
9.6951
 30
0.0
 10
-0.0968
 20
9.6951
 30
0.0
 10
-0.0263
 20
9.6311
 30
0.0
 10
0.0584
 20
9.5991
 30
0.0
 10
0.1576
 20
9.5991
 30
0.0
 10
0.1576
 20
9.5991
 30
0.0
 10
0.2771
 20
9.5991
 30
0.0
 10
0.3782
 20
9.6443
 30
0.0
 10
0.4605
 20
9.7341
 30
0.0
 10
0.4605
 20
9.7341
 30
0.0
 10
0.5433
 20
9.8244
 30
0.0
 10
0.5847
 20
9.9439
 30
0.0
 10
0.5847
 20
10.0925
 30
0.0
 10
0.5847
 20
10.0925
 30
0.0
 10
0.5847
 20
10.2341
 30
0.0
 10
0.5452
 20
10.3456
 30
0.0
 10
0.4657
 20
10.4274
 30
0.0
 10
0.4657
 20
10.4274
 30
0.0
 10
0.3862
 20
10.5093
 30
0.0
 10
0.2823
 20
10.5502
 30
0.0
 10
0.1534
 20
10.5502
 30
0.0
 10
0.1534
 20
10.5502
 30
0.0
 10
0.0734
 20
10.5502
 30
0.0
 10
0.0015
 20
10.5319
 30
0.0
 10
-0.063
 20
10.4957
 30
0.0
 10
-0.063
 20
10.4957
 30
0.0
 10
-0.1274
 20
10.4594
 30
0.0
 10
-0.1777
 20
10.4124
 30
0.0
 10
-0.2144
 20
10.3545
 30
0.0
 10
-0.2144
 20
10.3545
 30
0.0
 10
-0.2144
 20
10.3545
 30
0.0
 10
-0.4473
 20
10.3846
 30
0.0
 10
-0.4473
 20
10.3846
 30
0.0
 10
-0.4473
 20
10.3846
 30
0.0
 10
-0.4473
 20
10.3846
 30
0.0
 10
-0.2516
 20
11.4223
 30
0.0
 10
-0.2516
 20
11.4223
 30
0.0
 10
-0.2516
 20
11.4223
 30
0.0
 10
-0.2516
 20
11.4223
 30
0.0
 10
0.7531
 20
11.4223
 30
0.0
 10
0.7531
 20
11.4223
 30
0.0
 10
0.7531
 20
11.4223
 30
0.0
 10
0.7531
 20
11.4223
 30
0.0
 10
0.7531
 20
11.1852
 30
0.0
 10
0.7531
 20
11.1852
 30
0.0
 10
0.7531
 20
11.1852
 30
0.0
 10
0.7531
 20
11.1852
 30
0.0
 10
-0.0531
 20
11.1852
 30
0.0
 10
-0.0531
 20
11.1852
 30
0.0
 10
-0.0531
 20
11.1852
 30
0.0
 10
-0.0531
 20
11.1852
 30
0.0
 10
-0.1622
 20
10.6424
 30
0.0
 10
-0.1622
 20
10.6424
 30
0.0
 10
-0.1622
 20
10.6424
 30
0.0
 10
-0.0409
 20
10.7271
 30
0.0
 10
0.0866
 20
10.7694
 30
0.0
 10
0.2197
 20
10.7694
 30
0.0
 10
0.2197
 20
10.7694
 30
0.0
 10
0.3961
 20
10.7694
 30
0.0
 10
0.5447
 20
10.7083
 30
0.0
 10
0.6661
 20
10.586
 30
0.0
 10
0.6661
 20
10.586
 30
0.0
 10
0.7874
 20
10.4637
 30
0.0
 10
0.8481
 20
10.3066
 30
0.0
 10
0.8481
 20
10.1147
 30
0.0
 10
0.8481
 20
10.1147
 30
0.0
 10
0.8481
 20
9.9317
 30
0.0
 10
0.7945
 20
9.7736
 30
0.0
 10
0.6882
 20
9.6405
 30
0.0
 10
0.6882
 20
9.6405
 30
0.0
 10
0.5584
 20
9.4773
 30
0.0
 10
0.3815
 20
9.3955
 30
0.0
 10
0.1576
 20
9.3955
 30
0.0
 10
0.1576
 20
9.3955
 30
0.0
 10
-0.0263
 20
9.3955
 30
0.0
 10
-0.1763
 20
9.4467
 30
0.0
 10
-0.2925
 20
9.5497
 30
0.0
 10
-0.2925
 20
9.5497
 30
0.0
 10
-0.4087
 20
9.6528
 30
0.0
 10
-0.475
 20
9.7892
 30
0.0
 10
-0.4915
 20
9.959
 30
0.0
  0
SPLINE
  5
5B
330
1F
100
AcDbEntity
  8
AXIS
 62
   250
100
AcDbSpline
210
0.0
220
0.0
230
1.0
 70
    11
 71
     3
 72
    52
 73
    48
 74
     0
 42
0.0000000001
 43
0.0000000001
 40
0.0
 40
0.0
 40
0.0
 40
0.0
 40
0.0769230769230769
 40
0.0769230769230769
 40
0.0769230769230769
 40
0.0769230769230769
 40
0.1538461538461539
 40
0.1538461538461539
 40
0.1538461538461539
 40
0.1538461538461539
 40
0.2307692307692308
 40
0.2307692307692308
 40
0.2307692307692308
 40
0.2307692307692308
 40
0.3076923076923077
 40
0.3076923076923077
 40
0.3076923076923077
 40
0.3076923076923077
 40
0.3846153846153846
 40
0.3846153846153846
 40
0.3846153846153846
 40
0.3846153846153846
 40
0.4615384615384616
 40
0.4615384615384616
 40
0.4615384615384616
 40
0.4615384615384616
 40
0.5384615384615384
 40
0.5384615384615384
 40
0.5384615384615384
 40
0.5384615384615384
 40
0.6153846153846154
 40
0.6153846153846154
 40
0.6153846153846154
 40
0.6153846153846154
 40
0.6923076923076923
 40
0.6923076923076923
 40
0.6923076923076923
 40
0.6923076923076923
 40
0.7692307692307693
 40
0.7692307692307693
 40
0.7692307692307693
 40
0.7692307692307693
 40
0.8461538461538461
 40
0.8461538461538461
 40
0.8461538461538461
 40
0.8461538461538461
 40
1.0
 40
1.0
 40
1.0
 40
1.0
 10
1.0781
 20
10.426
 30
0.0
 10
1.0781
 20
10.665
 30
0.0
 10
1.1026
 20
10.8574
 30
0.0
 10
1.152
 20
11.0027
 30
0.0
 10
1.152
 20
11.0027
 30
0.0
 10
1.2009
 20
11.1485
 30
0.0
 10
1.2743
 20
11.2609
 30
0.0
 10
1.3712
 20
11.34
 30
0.0
 10
1.3712
 20
11.34
 30
0.0
 10
1.4681
 20
11.419
 30
0.0
 10
1.5899
 20
11.4585
 30
0.0
 10
1.7366
 20
11.4585
 30
0.0
 10
1.7366
 20
11.4585
 30
0.0
 10
1.8453
 20
11.4585
 30
0.0
 10
1.9403
 20
11.4364
 30
0.0
 10
2.0221
 20
11.3926
 30
0.0
 10
2.0221
 20
11.3926
 30
0.0
 10
2.104
 20
11.3494
 30
0.0
 10
2.1713
 20
11.2863
 30
0.0
 10
2.2249
 20
11.204
 30
0.0
 10
2.2249
 20
11.204
 30
0.0
 10
2.278
 20
11.1217
 30
0.0
 10
2.3199
 20
11.0215
 30
0.0
 10
2.35
 20
10.9035
 30
0.0
 10
2.35
 20
10.9035
 30
0.0
 10
2.3806
 20
10.7854
 30
0.0
 10
2.3956
 20
10.6264
 30
0.0
 10
2.3956
 20
10.426
 30
0.0
 10
2.3956
 20
10.426
 30
0.0
 10
2.3956
 20
10.189
 30
0.0
 10
2.3712
 20
9.998
 30
0.0
 10
2.3227
 20
9.8522
 30
0.0
 10
2.3227
 20
9.8522
 30
0.0
 10
2.2738
 20
9.7064
 30
0.0
 10
2.2009
 20
9.594
 30
0.0
 10
2.104
 20
9.5145
 30
0.0
 10
2.104
 20
9.5145
 30
0.0
 10
2.0071
 20
9.435
 30
0.0
 10
1.8848
 20
9.3955
 30
0.0
 10
1.7366
 20
9.3955
 30
0.0
 10
1.7366
 20
9.3955
 30
0.0
 10
1.5419
 20
9.3955
 30
0.0
 10
1.389
 20
9.4651
 30
0.0
 10
1.278
 20
9.6048
 30
0.0
 10
1.278
 20
9.6048
 30
0.0
 10
1.1449
 20
9.7727
 30
0.0
 10
1.0781
 20
10.0469
 30
0.0
 10
1.0781
 20
10.426
 30
0.0
  0
SPLINE
  5
5C
330
1F
100
AcDbEntity
  8
AXIS
 62
   250
100
AcDbSpline
210
0.0
220
0.0
230
1.0
 70
    11
 71
     3
 72
    36
 73
    32
 74
     0
 42
0.0000000001
 43
0.0000000001
 40
0.0
 40
0.0
 40
0.0
 40
0.0
 40
0.1111111111111111
 40
0.1111111111111111
 40
0.1111111111111111
 40
0.1111111111111111
 40
0.2222222222222222
 40
0.2222222222222222
 40
0.2222222222222222
 40
0.2222222222222222
 40
0.3333333333333333
 40
0.3333333333333333
 40
0.3333333333333333
 40
0.3333333333333333
 40
0.4444444444444444
 40
0.4444444444444444
 40
0.4444444444444444
 40
0.4444444444444444
 40
0.5555555555555556
 40
0.5555555555555556
 40
0.5555555555555556
 40
0.5555555555555556
 40
0.6666666666666666
 40
0.6666666666666666
 40
0.6666666666666666
 40
0.6666666666666666
 40
0.7777777777777778
 40
0.7777777777777778
 40
0.7777777777777778
 40
0.7777777777777778
 40
1.0
 40
1.0
 40
1.0
 40
1.0
 10
1.3331
 20
10.426
 30
0.0
 10
1.3331
 20
10.0944
 30
0.0
 10
1.3721
 20
9.8738
 30
0.0
 10
1.4497
 20
9.7638
 30
0.0
 10
1.4497
 20
9.7638
 30
0.0
 10
1.5273
 20
9.6542
 30
0.0
 10
1.6228
 20
9.5991
 30
0.0
 10
1.7366
 20
9.5991
 30
0.0
 10
1.7366
 20
9.5991
 30
0.0
 10
1.8509
 20
9.5991
 30
0.0
 10
1.9464
 20
9.6546
 30
0.0
 10
2.024
 20
9.7647
 30
0.0
 10
2.024
 20
9.7647
 30
0.0
 10
2.1016
 20
9.8748
 30
0.0
 10
2.1407
 20
10.0954
 30
0.0
 10
2.1407
 20
10.426
 30
0.0
 10
2.1407
 20
10.426
 30
0.0
 10
2.1407
 20
10.7586
 30
0.0
 10
2.1016
 20
10.9797
 30
0.0
 10
2.024
 20
11.0888
 30
0.0
 10
2.024
 20
11.0888
 30
0.0
 10
1.9464
 20
11.1984
 30
0.0
 10
1.85
 20
11.2529
 30
0.0
 10
1.7343
 20
11.2529
 30
0.0
 10
1.7343
 20
11.2529
 30
0.0
 10
1.62
 20
11.2529
 30
0.0
 10
1.5292
 20
11.2045
 30
0.0
 10
1.461
 20
11.1081
 30
0.0
 10
1.461
 20
11.1081
 30
0.0
 10
1.3759
 20
10.9853
 30
0.0
 10
1.3331
 20
10.7576
 30
0.0
 10
1.3331
 20
10.426
 30
0.0
  0
SPLINE
  5
5D
330
1F
100
AcDbEntity
  8
AXIS
 62
   250
100
AcDbSpline
210
0.0
220
0.0
230
1.0
 70
    11
 71
     3
 72
    20
 73
    16
 74
     0
 42
0.0000000001
 43
0.0000000001
 40
0.0
 40
0.0
 40
0.0
 40
0.0
 40
0.2
 40
0.2
 40
0.2
 40
0.2
 40
0.4
 40
0.4
 40
0.4
 40
0.4
 40
0.6
 40
0.6
 40
0.6
 40
0.6
 40
1.0
 40
1.0
 40
1.0
 40
1.0
 10
9.3003
 20
9.2067
 30
0.0
 10
9.3003
 20
9.2067
 30
0.0
 10
11.8003
 20
8.8538
 30
0.0
 10
11.8003
 20
8.8538
 30
0.0
 10
11.8003
 20
8.8538
 30
0.0
 10
11.8003
 20
8.8538
 30
0.0
 10
11.8003
 20
8.7755
 30
0.0
 10
11.8003
 20
8.7755
 30
0.0
 10
11.8003
 20
8.7755
 30
0.0
 10
11.8003
 20
8.7755
 30
0.0
 10
9.3003
 20
8.3992
 30
0.0
 10
9.3003
 20
8.3992
 30
0.0
 10
9.3003
 20
8.3992
 30
0.0
 10
9.3003
 20
8.3992
 30
0.0
 10
9.3003
 20
9.2067
 30
0.0
 10
9.3003
 20
9.2067
 30
0.0
  0
SPLINE
  5
5E
330
1F
100
AcDbEntity
  8
AXIS
 62
   250
100
AcDbSpline
210
0.0
220
0.0
230
1.0
 70
    11
 71
     3
 72
    20
 73
    16
 74
     0
 42
0.0000000001
 43
0.0000000001
 40
0.0
 40
0.0
 40
0.0
 40
0.0
 40
0.2
 40
0.2
 40
0.2
 40
0.2
 40
0.4
 40
0.4
 40
0.4
 40
0.4
 40
0.6
 40
0.6
 40
0.6
 40
0.6
 40
1.0
 40
1.0
 40
1.0
 40
1.0
 10
-11.0834
 20
8.4314
 30
0.0
 10
-11.0834
 20
8.4314
 30
0.0
 10
-13.5834
 20
8.7843
 30
0.0
 10
-13.5834
 20
8.7843
 30
0.0
 10
-13.5834
 20
8.7843
 30
0.0
 10
-13.5834
 20
8.7843
 30
0.0
 10
-13.5834
 20
8.8626
 30
0.0
 10
-13.5834
 20
8.8626
 30
0.0
 10
-13.5834
 20
8.8626
 30
0.0
 10
-13.5834
 20
8.8626
 30
0.0
 10
-11.0834
 20
9.2389
 30
0.0
 10
-11.0834
 20
9.2389
 30
0.0
 10
-11.0834
 20
9.2389
 30
0.0
 10
-11.0834
 20
9.2389
 30
0.0
 10
-11.0834
 20
8.4314
 30
0.0
 10
-11.0834
 20
8.4314
 30
0.0
  0
SPLINE
  5
5F
330
1F
100
AcDbEntity
  8
AXIS
 62
   250
100
AcDbSpline
210
0.0
220
0.0
230
1.0
 70
    11
 71
     3
 72
    84
 73
    80
 74
     0
 42
0.0000000001
 43
0.0000000001
 40
0.0
 40
0.0
 40
0.0
 40
0.0
 40
0.0476190476190476
 40
0.0476190476190476
 40
0.0476190476190476
 40
0.0476190476190476
 40
0.0952380952380952
 40
0.0952380952380952
 40
0.0952380952380952
 40
0.0952380952380952
 40
0.1428571428571428
 40
0.1428571428571428
 40
0.1428571428571428
 40
0.1428571428571428
 40
0.1904761904761905
 40
0.1904761904761905
 40
0.1904761904761905
 40
0.1904761904761905
 40
0.2380952380952381
 40
0.2380952380952381
 40
0.2380952380952381
 40
0.2380952380952381
 40
0.2857142857142857
 40
0.2857142857142857
 40
0.2857142857142857
 40
0.2857142857142857
 40
0.3333333333333333
 40
0.3333333333333333
 40
0.3333333333333333
 40
0.3333333333333333
 40
0.3809523809523809
 40
0.3809523809523809
 40
0.3809523809523809
 40
0.3809523809523809
 40
0.4285714285714285
 40
0.4285714285714285
 40
0.4285714285714285
 40
0.4285714285714285
 40
0.4761904761904762
 40
0.4761904761904762
 40
0.4761904761904762
 40
0.4761904761904762
 40
0.5238095238095238
 40
0.5238095238095238
 40
0.5238095238095238
 40
0.5238095238095238
 40
0.5714285714285714
 40
0.5714285714285714
 40
0.5714285714285714
 40
0.5714285714285714
 40
0.6190476190476191
 40
0.6190476190476191
 40
0.6190476190476191
 40
0.6190476190476191
 40
0.6666666666666666
 40
0.6666666666666666
 40
0.6666666666666666
 40
0.6666666666666666
 40
0.7142857142857143
 40
0.7142857142857143
 40
0.7142857142857143
 40
0.7142857142857143
 40
0.7619047619047619
 40
0.7619047619047619
 40
0.7619047619047619
 40
0.7619047619047619
 40
0.8095238095238095
 40
0.8095238095238095
 40
0.8095238095238095
 40
0.8095238095238095
 40
0.8571428571428571
 40
0.8571428571428571
 40
0.8571428571428571
 40
0.8571428571428571
 40
0.9047619047619048
 40
0.9047619047619048
 40
0.9047619047619048
 40
0.9047619047619048
 40
1.0
 40
1.0
 40
1.0
 40
1.0
 10
21.0544
 20
-4.1784
 30
0.0
 10
21.0544
 20
-4.1784
 30
0.0
 10
20.8035
 20
-3.9381
 30
0.0
 10
20.8035
 20
-3.9381
 30
0.0
 10
20.8035
 20
-3.9381
 30
0.0
 10
20.8035
 20
-3.9381
 30
0.0
 10
20.9239
 20
-3.8059
 30
0.0
 10
20.9239
 20
-3.8059
 30
0.0
 10
20.9239
 20
-3.8059
 30
0.0
 10
20.9239
 20
-3.8059
 30
0.0
 10
21.1881
 20
-4.0574
 30
0.0
 10
21.1881
 20
-4.0574
 30
0.0
 10
21.1881
 20
-4.0574
 30
0.0
 10
21.3084
 20
-3.9826
 30
0.0
 10
21.4132
 20
-3.9331
 30
0.0
 10
21.502
 20
-3.9084
 30
0.0
 10
21.502
 20
-3.9084
 30
0.0
 10
21.619
 20
-3.8758
 30
0.0
 10
21.7494
 20
-3.862
 30
0.0
 10
21.8923
 20
-3.867
 30
0.0
 10
21.8923
 20
-3.867
 30
0.0
 10
22.0991
 20
-3.8742
 30
0.0
 10
22.2819
 20
-3.9224
 30
0.0
 10
22.4402
 20
-4.0118
 30
0.0
 10
22.4402
 20
-4.0118
 30
0.0
 10
22.599
 20
-4.1011
 30
0.0
 10
22.7171
 20
-4.2224
 30
0.0
 10
22.7946
 20
-4.3762
 30
0.0
 10
22.7946
 20
-4.3762
 30
0.0
 10
22.8715
 20
-4.5305
 30
0.0
 10
22.9073
 20
-4.6921
 30
0.0
 10
22.9014
 20
-4.8618
 30
0.0
 10
22.9014
 20
-4.8618
 30
0.0
 10
22.8969
 20
-4.9887
 30
0.0
 10
22.8752
 20
-5.1028
 30
0.0
 10
22.8358
 20
-5.2045
 30
0.0
 10
22.8358
 20
-5.2045
 30
0.0
 10
22.8053
 20
-5.2825
 30
0.0
 10
22.7495
 20
-5.3728
 30
0.0
 10
22.6677
 20
-5.4759
 30
0.0
 10
22.6677
 20
-5.4759
 30
0.0
 10
22.6677
 20
-5.4759
 30
0.0
 10
22.9187
 20
-5.7162
 30
0.0
 10
22.9187
 20
-5.7162
 30
0.0
 10
22.9187
 20
-5.7162
 30
0.0
 10
22.9187
 20
-5.7162
 30
0.0
 10
22.7983
 20
-5.8485
 30
0.0
 10
22.7983
 20
-5.8485
 30
0.0
 10
22.7983
 20
-5.8485
 30
0.0
 10
22.7983
 20
-5.8485
 30
0.0
 10
22.5355
 20
-5.5965
 30
0.0
 10
22.5355
 20
-5.5965
 30
0.0
 10
22.5355
 20
-5.5965
 30
0.0
 10
22.3955
 20
-5.682
 30
0.0
 10
22.2764
 20
-5.738
 30
0.0
 10
22.1785
 20
-5.7647
 30
0.0
 10
22.1785
 20
-5.7647
 30
0.0
 10
22.0806
 20
-5.7914
 30
0.0
 10
21.9635
 20
-5.8029
 30
0.0
 10
21.8276
 20
-5.7981
 30
0.0
 10
21.8276
 20
-5.7981
 30
0.0
 10
21.6204
 20
-5.7909
 30
0.0
 10
21.437
 20
-5.7431
 30
0.0
 10
21.2777
 20
-5.6547
 30
0.0
 10
21.2777
 20
-5.6547
 30
0.0
 10
21.1184
 20
-5.5663
 30
0.0
 10
20.9998
 20
-5.4464
 30
0.0
 10
20.9214
 20
-5.294
 30
0.0
 10
20.9214
 20
-5.294
 30
0.0
 10
20.8433
 20
-5.1421
 30
0.0
 10
20.8073
 20
-4.9746
 30
0.0
 10
20.8137
 20
-4.7918
 30
0.0
 10
20.8137
 20
-4.7918
 30
0.0
 10
20.818
 20
-4.6686
 30
0.0
 10
20.8377
 20
-4.5615
 30
0.0
 10
20.8739
 20
-4.4705
 30
0.0
 10
20.8739
 20
-4.4705
 30
0.0
 10
20.9095
 20
-4.3795
 30
0.0
 10
20.9698
 20
-4.2819
 30
0.0
 10
21.0544
 20
-4.1784
 30
0.0
  0
SPLINE
  5
60
330
1F
100
AcDbEntity
  8
AXIS
 62
   250
100
AcDbSpline
210
0.0
220
0.0
230
1.0
 70
    11
 71
     3
 72
    32
 73
    28
 74
     0
 42
0.0000000001
 43
0.0000000001
 40
0.0
 40
0.0
 40
0.0
 40
0.0
 40
0.125
 40
0.125
 40
0.125
 40
0.125
 40
0.25
 40
0.25
 40
0.25
 40
0.25
 40
0.375
 40
0.375
 40
0.375
 40
0.375
 40
0.5
 40
0.5
 40
0.5
 40
0.5
 40
0.625
 40
0.625
 40
0.625
 40
0.625
 40
0.75
 40
0.75
 40
0.75
 40
0.75
 40
1.0
 40
1.0
 40
1.0
 40
1.0
 10
21.2343
 20
-4.3499
 30
0.0
 10
21.1636
 20
-4.4341
 30
0.0
 10
21.1144
 20
-4.5081
 30
0.0
 10
21.0873
 20
-4.5716
 30
0.0
 10
21.0873
 20
-4.5716
 30
0.0
 10
21.0606
 20
-4.6356
 30
0.0
 10
21.0452
 20
-4.7113
 30
0.0
 10
21.0422
 20
-4.7984
 30
0.0
 10
21.0422
 20
-4.7984
 30
0.0
 10
21.0351
 20
-4.9996
 30
0.0
 10
21.0975
 20
-5.1679
 30
0.0
 10
21.2292
 20
-5.3042
 30
0.0
 10
21.2292
 20
-5.3042
 30
0.0
 10
21.3611
 20
-5.4402
 30
0.0
 10
21.5622
 20
-5.5131
 30
0.0
 10
21.8335
 20
-5.5226
 30
0.0
 10
21.8335
 20
-5.5226
 30
0.0
 10
21.9397
 20
-5.5263
 30
0.0
 10
22.0346
 20
-5.5193
 30
0.0
 10
22.1181
 20
-5.5019
 30
0.0
 10
22.1181
 20
-5.5019
 30
0.0
 10
22.1801
 20
-5.4894
 30
0.0
 10
22.2569
 20
-5.4616
 30
0.0
 10
22.3482
 20
-5.4177
 30
0.0
 10
22.3482
 20
-5.4177
 30
0.0
 10
22.3482
 20
-5.4177
 30
0.0
 10
21.2343
 20
-4.3499
 30
0.0
 10
21.2343
 20
-4.3499
 30
0.0
  0
SPLINE
  5
61
330
1F
100
AcDbEntity
  8
AXIS
 62
   250
100
AcDbSpline
210
0.0
220
0.0
230
1.0
 70
    11
 71
     3
 72
    28
 73
    24
 74
     0
 42
0.0000000001
 43
0.0000000001
 40
0.0
 40
0.0
 40
0.0
 40
0.0
 40
0.1428571428571428
 40
0.1428571428571428
 40
0.1428571428571428
 40
0.1428571428571428
 40
0.2857142857142857
 40
0.2857142857142857
 40
0.2857142857142857
 40
0.2857142857142857
 40
0.4285714285714285
 40
0.4285714285714285
 40
0.4285714285714285
 40
0.4285714285714285
 40
0.5714285714285714
 40
0.5714285714285714
 40
0.5714285714285714
 40
0.5714285714285714
 40
0.7142857142857143
 40
0.7142857142857143
 40
0.7142857142857143
 40
0.7142857142857143
 40
1.0
 40
1.0
 40
1.0
 40
1.0
 10
21.3803
 20
-4.2421
 30
0.0
 10
21.3803
 20
-4.2421
 30
0.0
 10
22.4901
 20
-5.3054
 30
0.0
 10
22.4901
 20
-5.3054
 30
0.0
 10
22.4901
 20
-5.3054
 30
0.0
 10
22.5504
 20
-5.237
 30
0.0
 10
22.5931
 20
-5.1731
 30
0.0
 10
22.6182
 20
-5.1141
 30
0.0
 10
22.6182
 20
-5.1141
 30
0.0
 10
22.6515
 20
-5.0372
 30
0.0
 10
22.6695
 20
-4.9531
 30
0.0
 10
22.6726
 20
-4.8623
 30
0.0
 10
22.6726
 20
-4.8623
 30
0.0
 10
22.6796
 20
-4.6621
 30
0.0
 10
22.6149
 20
-4.4946
 30
0.0
 10
22.478
 20
-4.359
 30
0.0
 10
22.478
 20
-4.359
 30
0.0
 10
22.341
 20
-4.2239
 30
0.0
 10
22.1449
 20
-4.1516
 30
0.0
 10
21.8897
 20
-4.1427
 30
0.0
 10
21.8897
 20
-4.1427
 30
0.0
 10
21.6989
 20
-4.136
 30
0.0
 10
21.5287
 20
-4.1691
 30
0.0
 10
21.3803
 20
-4.2421
 30
0.0
  0
SPLINE
  5
62
330
1F
100
AcDbEntity
  8
AXIS
 62
   250
100
AcDbSpline
210
0.0
220
0.0
230
1.0
 70
    11
 71
     3
 72
    92
 73
    88
 74
     0
 42
0.0000000001
 43
0.0000000001
 40
0.0
 40
0.0
 40
0.0
 40
0.0
 40
0.0434782608695652
 40
0.0434782608695652
 40
0.0434782608695652
 40
0.0434782608695652
 40
0.0869565217391304
 40
0.0869565217391304
 40
0.0869565217391304
 40
0.0869565217391304
 40
0.1304347826086956
 40
0.1304347826086956
 40
0.1304347826086956
 40
0.1304347826086956
 40
0.1739130434782609
 40
0.1739130434782609
 40
0.1739130434782609
 40
0.1739130434782609
 40
0.2173913043478261
 40
0.2173913043478261
 40
0.2173913043478261
 40
0.2173913043478261
 40
0.2608695652173913
 40
0.2608695652173913
 40
0.2608695652173913
 40
0.2608695652173913
 40
0.3043478260869565
 40
0.3043478260869565
 40
0.3043478260869565
 40
0.3043478260869565
 40
0.3478260869565217
 40
0.3478260869565217
 40
0.3478260869565217
 40
0.3478260869565217
 40
0.391304347826087
 40
0.391304347826087
 40
0.391304347826087
 40
0.391304347826087
 40
0.4347826086956522
 40
0.4347826086956522
 40
0.4347826086956522
 40
0.4347826086956522
 40
0.4782608695652174
 40
0.4782608695652174
 40
0.4782608695652174
 40
0.4782608695652174
 40
0.5217391304347826
 40
0.5217391304347826
 40
0.5217391304347826
 40
0.5217391304347826
 40
0.5652173913043478
 40
0.5652173913043478
 40
0.5652173913043478
 40
0.5652173913043478
 40
0.6086956521739131
 40
0.6086956521739131
 40
0.6086956521739131
 40
0.6086956521739131
 40
0.6521739130434783
 40
0.6521739130434783
 40
0.6521739130434783
 40
0.6521739130434783
 40
0.6956521739130435
 40
0.6956521739130435
 40
0.6956521739130435
 40
0.6956521739130435
 40
0.7391304347826086
 40
0.7391304347826086
 40
0.7391304347826086
 40
0.7391304347826086
 40
0.782608695652174
 40
0.782608695652174
 40
0.782608695652174
 40
0.782608695652174
 40
0.8260869565217391
 40
0.8260869565217391
 40
0.8260869565217391
 40
0.8260869565217391
 40
0.8695652173913043
 40
0.8695652173913043
 40
0.8695652173913043
 40
0.8695652173913043
 40
0.9130434782608695
 40
0.9130434782608695
 40
0.9130434782608695
 40
0.9130434782608695
 40
1.0
 40
1.0
 40
1.0
 40
1.0
 10
22.3804
 20
-3.6346
 30
0.0
 10
22.3804
 20
-3.6346
 30
0.0
 10
22.3674
 20
-3.3734
 30
0.0
 10
22.3674
 20
-3.3734
 30
0.0
 10
22.3674
 20
-3.3734
 30
0.0
 10
22.495
 20
-3.3585
 30
0.0
 10
22.5915
 20
-3.3172
 30
0.0
 10
22.6579
 20
-3.2493
 30
0.0
 10
22.6579
 20
-3.2493
 30
0.0
 10
22.7243
 20
-3.1811
 30
0.0
 10
22.7593
 20
-3.0976
 30
0.0
 10
22.7627
 20
-2.9984
 30
0.0
 10
22.7627
 20
-2.9984
 30
0.0
 10
22.7669
 20
-2.879
 30
0.0
 10
22.7253
 20
-2.7764
 30
0.0
 10
22.6384
 20
-2.691
 30
0.0
 10
22.6384
 20
-2.691
 30
0.0
 10
22.551
 20
-2.6051
 30
0.0
 10
22.433
 20
-2.5596
 30
0.0
 10
22.2845
 20
-2.5544
 30
0.0
 10
22.2845
 20
-2.5544
 30
0.0
 10
22.143
 20
-2.5494
 30
0.0
 10
22.0302
 20
-2.585
 30
0.0
 10
21.9457
 20
-2.6616
 30
0.0
 10
21.9457
 20
-2.6616
 30
0.0
 10
21.8611
 20
-2.7382
 30
0.0
 10
21.8166
 20
-2.8406
 30
0.0
 10
21.8121
 20
-2.9694
 30
0.0
 10
21.8121
 20
-2.9694
 30
0.0
 10
21.8093
 20
-3.0494
 30
0.0
 10
21.825
 20
-3.1219
 30
0.0
 10
21.859
 20
-3.1876
 30
0.0
 10
21.859
 20
-3.1876
 30
0.0
 10
21.893
 20
-3.2532
 30
0.0
 10
21.9382
 20
-3.3052
 30
0.0
 10
21.9948
 20
-3.3439
 30
0.0
 10
21.9948
 20
-3.3439
 30
0.0
 10
21.9948
 20
-3.3439
 30
0.0
 10
21.9566
 20
-3.5756
 30
0.0
 10
21.9566
 20
-3.5756
 30
0.0
 10
21.9566
 20
-3.5756
 30
0.0
 10
21.9566
 20
-3.5756
 30
0.0
 10
20.9264
 20
-3.3438
 30
0.0
 10
20.9264
 20
-3.3438
 30
0.0
 10
20.9264
 20
-3.3438
 30
0.0
 10
20.9264
 20
-3.3438
 30
0.0
 10
20.9614
 20
-2.3397
 30
0.0
 10
20.9614
 20
-2.3397
 30
0.0
 10
20.9614
 20
-2.3397
 30
0.0
 10
20.9614
 20
-2.3397
 30
0.0
 10
21.1984
 20
-2.348
 30
0.0
 10
21.1984
 20
-2.348
 30
0.0
 10
21.1984
 20
-2.348
 30
0.0
 10
21.1984
 20
-2.348
 30
0.0
 10
21.1702
 20
-3.1537
 30
0.0
 10
21.1702
 20
-3.1537
 30
0.0
 10
21.1702
 20
-3.1537
 30
0.0
 10
21.1702
 20
-3.1537
 30
0.0
 10
21.7089
 20
-3.2816
 30
0.0
 10
21.7089
 20
-3.2816
 30
0.0
 10
21.7089
 20
-3.2816
 30
0.0
 10
21.6285
 20
-3.1575
 30
0.0
 10
21.5907
 20
-3.0286
 30
0.0
 10
21.5953
 20
-2.8955
 30
0.0
 10
21.5953
 20
-2.8955
 30
0.0
 10
21.6015
 20
-2.7192
 30
0.0
 10
21.6677
 20
-2.5729
 30
0.0
 10
21.7942
 20
-2.4558
 30
0.0
 10
21.7942
 20
-2.4558
 30
0.0
 10
21.9206
 20
-2.3389
 30
0.0
 10
22.0798
 20
-2.2837
 30
0.0
 10
22.2715
 20
-2.2904
 30
0.0
 10
22.2715
 20
-2.2904
 30
0.0
 10
22.4544
 20
-2.2968
 30
0.0
 10
22.6106
 20
-2.3558
 30
0.0
 10
22.7399
 20
-2.4667
 30
0.0
 10
22.7399
 20
-2.4667
 30
0.0
 10
22.8984
 20
-2.6021
 30
0.0
 10
22.974
 20
-2.7818
 30
0.0
 10
22.9662
 20
-3.0055
 30
0.0
 10
22.9662
 20
-3.0055
 30
0.0
 10
22.9598
 20
-3.1893
 30
0.0
 10
22.9034
 20
-3.3375
 30
0.0
 10
22.7964
 20
-3.45
 30
0.0
 10
22.7964
 20
-3.45
 30
0.0
 10
22.6893
 20
-3.5625
 30
0.0
 10
22.5507
 20
-3.624
 30
0.0
 10
22.3804
 20
-3.6346
 30
0.0
  0
SPLINE
  5
63
330
1F
100
AcDbEntity
  8
AXIS
 62
   250
100
AcDbSpline
210
0.0
220
0.0
230
1.0
 70
    11
 71
     3
 72
    52
 73
    48
 74
     0
 42
0.0000000001
 43
0.0000000001
 40
0.0
 40
0.0
 40
0.0
 40
0.0
 40
0.0769230769230769
 40
0.0769230769230769
 40
0.0769230769230769
 40
0.0769230769230769
 40
0.1538461538461539
 40
0.1538461538461539
 40
0.1538461538461539
 40
0.1538461538461539
 40
0.2307692307692308
 40
0.2307692307692308
 40
0.2307692307692308
 40
0.2307692307692308
 40
0.3076923076923077
 40
0.3076923076923077
 40
0.3076923076923077
 40
0.3076923076923077
 40
0.3846153846153846
 40
0.3846153846153846
 40
0.3846153846153846
 40
0.3846153846153846
 40
0.4615384615384616
 40
0.4615384615384616
 40
0.4615384615384616
 40
0.4615384615384616
 40
0.5384615384615384
 40
0.5384615384615384
 40
0.5384615384615384
 40
0.5384615384615384
 40
0.6153846153846154
 40
0.6153846153846154
 40
0.6153846153846154
 40
0.6153846153846154
 40
0.6923076923076923
 40
0.6923076923076923
 40
0.6923076923076923
 40
0.6923076923076923
 40
0.7692307692307693
 40
0.7692307692307693
 40
0.7692307692307693
 40
0.7692307692307693
 40
0.8461538461538461
 40
0.8461538461538461
 40
0.8461538461538461
 40
0.8461538461538461
 40
1.0
 40
1.0
 40
1.0
 40
1.0
 10
21.9685
 20
-2.0496
 30
0.0
 10
21.7296
 20
-2.0413
 30
0.0
 10
21.5382
 20
-2.0101
 30
0.0
 10
21.3947
 20
-1.9557
 30
0.0
 10
21.3947
 20
-1.9557
 30
0.0
 10
21.2507
 20
-1.9017
 30
0.0
 10
21.1409
 20
-1.8244
 30
0.0
 10
21.0652
 20
-1.7248
 30
0.0
 10
21.0652
 20
-1.7248
 30
0.0
 10
20.9897
 20
-1.6252
 30
0.0
 10
20.9544
 20
-1.5021
 30
0.0
 10
20.9596
 20
-1.3555
 30
0.0
 10
20.9596
 20
-1.3555
 30
0.0
 10
20.9634
 20
-1.2469
 30
0.0
 10
20.9888
 20
-1.1527
 30
0.0
 10
21.0354
 20
-1.0725
 30
0.0
 10
21.0354
 20
-1.0725
 30
0.0
 10
21.0814
 20
-0.9921
 30
0.0
 10
21.1468
 20
-0.9271
 30
0.0
 10
21.231
 20
-0.8764
 30
0.0
 10
21.231
 20
-0.8764
 30
0.0
 10
21.3151
 20
-0.8262
 30
0.0
 10
21.4167
 20
-0.7878
 30
0.0
 10
21.5356
 20
-0.7619
 30
0.0
 10
21.5356
 20
-0.7619
 30
0.0
 10
21.6547
 20
-0.7354
 30
0.0
 10
21.8142
 20
-0.726
 30
0.0
 10
22.0144
 20
-0.7329
 30
0.0
 10
22.0144
 20
-0.7329
 30
0.0
 10
22.2513
 20
-0.7412
 30
0.0
 10
22.4413
 20
-0.7723
 30
0.0
 10
22.5853
 20
-0.8258
 30
0.0
 10
22.5853
 20
-0.8258
 30
0.0
 10
22.7293
 20
-0.8798
 30
0.0
 10
22.8391
 20
-0.9566
 30
0.0
 10
22.9152
 20
-1.0562
 30
0.0
 10
22.9152
 20
-1.0562
 30
0.0
 10
22.9913
 20
-1.1558
 30
0.0
 10
23.0265
 20
-1.2794
 30
0.0
 10
23.0213
 20
-1.4275
 30
0.0
 10
23.0213
 20
-1.4275
 30
0.0
 10
23.0145
 20
-1.6221
 30
0.0
 10
22.9396
 20
-1.7725
 30
0.0
 10
22.7961
 20
-1.8785
 30
0.0
 10
22.7961
 20
-1.8785
 30
0.0
 10
22.6237
 20
-2.0057
 30
0.0
 10
22.3473
 20
-2.0629
 30
0.0
 10
21.9685
 20
-2.0496
 30
0.0
  0
SPLINE
  5
64
330
1F
100
AcDbEntity
  8
AXIS
 62
   250
100
AcDbSpline
210
0.0
220
0.0
230
1.0
 70
    11
 71
     3
 72
    36
 73
    32
 74
     0
 42
0.0000000001
 43
0.0000000001
 40
0.0
 40
0.0
 40
0.0
 40
0.0
 40
0.1111111111111111
 40
0.1111111111111111
 40
0.1111111111111111
 40
0.1111111111111111
 40
0.2222222222222222
 40
0.2222222222222222
 40
0.2222222222222222
 40
0.2222222222222222
 40
0.3333333333333333
 40
0.3333333333333333
 40
0.3333333333333333
 40
0.3333333333333333
 40
0.4444444444444444
 40
0.4444444444444444
 40
0.4444444444444444
 40
0.4444444444444444
 40
0.5555555555555556
 40
0.5555555555555556
 40
0.5555555555555556
 40
0.5555555555555556
 40
0.6666666666666666
 40
0.6666666666666666
 40
0.6666666666666666
 40
0.6666666666666666
 40
0.7777777777777778
 40
0.7777777777777778
 40
0.7777777777777778
 40
0.7777777777777778
 40
1.0
 40
1.0
 40
1.0
 40
1.0
 10
21.9774
 20
-1.7948
 30
0.0
 10
22.3088
 20
-1.8064
 30
0.0
 10
22.5306
 20
-1.7751
 30
0.0
 10
22.6432
 20
-1.7014
 30
0.0
 10
22.6432
 20
-1.7014
 30
0.0
 10
22.7555
 20
-1.6277
 30
0.0
 10
22.8139
 20
-1.5341
 30
0.0
 10
22.8178
 20
-1.4204
 30
0.0
 10
22.8178
 20
-1.4204
 30
0.0
 10
22.8218
 20
-1.3062
 30
0.0
 10
22.7697
 20
-1.2088
 30
0.0
 10
22.6624
 20
-1.1274
 30
0.0
 10
22.6624
 20
-1.1274
 30
0.0
 10
22.555
 20
-1.046
 30
0.0
 10
22.3359
 20
-0.9992
 30
0.0
 10
22.0055
 20
-0.9877
 30
0.0
 10
22.0055
 20
-0.9877
 30
0.0
 10
21.6731
 20
-0.9761
 30
0.0
 10
21.4508
 20
-1.0074
 30
0.0
 10
21.3391
 20
-1.0812
 30
0.0
 10
21.3391
 20
-1.0812
 30
0.0
 10
21.2268
 20
-1.1549
 30
0.0
 10
21.169
 20
-1.2494
 30
0.0
 10
21.165
 20
-1.365
 30
0.0
 10
21.165
 20
-1.365
 30
0.0
 10
21.161
 20
-1.4792
 30
0.0
 10
21.2062
 20
-1.5717
 30
0.0
 10
21.3001
 20
-1.6432
 30
0.0
 10
21.3001
 20
-1.6432
 30
0.0
 10
21.4199
 20
-1.7325
 30
0.0
 10
21.646
 20
-1.7832
 30
0.0
 10
21.9774
 20
-1.7948
 30
0.0
  0
SPLINE
  5
65
330
1F
100
AcDbEntity
  8
AXIS
 62
   250
100
AcDbSpline
210
0.0
220
0.0
230
1.0
 70
    11
 71
     3
 72
    20
 73
    16
 74
     0
 42
0.0000000001
 43
0.0000000001
 40
0.0
 40
0.0
 40
0.0
 40
0.0
 40
0.2
 40
0.2
 40
0.2
 40
0.2
 40
0.4
 40
0.4
 40
0.4
 40
0.4
 40
0.6
 40
0.6
 40
0.6
 40
0.6
 40
1.0
 40
1.0
 40
1.0
 40
1.0
 10
22.8842
 20
-10.4698
 30
0.0
 10
22.8842
 20
-10.4698
 30
0.0
 10
23.324
 20
-7.9836
 30
0.0
 10
23.324
 20
-7.9836
 30
0.0
 10
23.324
 20
-7.9836
 30
0.0
 10
23.324
 20
-7.9836
 30
0.0
 10
23.4023
 20
-7.9863
 30
0.0
 10
23.4023
 20
-7.9863
 30
0.0
 10
23.4023
 20
-7.9863
 30
0.0
 10
23.4023
 20
-7.9863
 30
0.0
 10
23.6911
 20
-10.4979
 30
0.0
 10
23.6911
 20
-10.4979
 30
0.0
 10
23.6911
 20
-10.4979
 30
0.0
 10
23.6911
 20
-10.4979
 30
0.0
 10
22.8842
 20
-10.4698
 30
0.0
 10
22.8842
 20
-10.4698
 30
0.0
  0
SPLINE
  5
66
330
1F
100
AcDbEntity
  8
AXIS
 62
   250
100
AcDbSpline
210
0.0
220
0.0
230
1.0
 70
    11
 71
     3
 72
    20
 73
    16
 74
     0
 42
0.0000000001
 43
0.0000000001
 40
0.0
 40
0.0
 40
0.0
 40
0.0
 40
0.2
 40
0.2
 40
0.2
 40
0.2
 40
0.4
 40
0.4
 40
0.4
 40
0.4
 40
0.6
 40
0.6
 40
0.6
 40
0.6
 40
1.0
 40
1.0
 40
1.0
 40
1.0
 10
24.155
 20
3.2925
 30
0.0
 10
24.155
 20
3.2925
 30
0.0
 10
23.7152
 20
0.8063
 30
0.0
 10
23.7152
 20
0.8063
 30
0.0
 10
23.7152
 20
0.8063
 30
0.0
 10
23.7152
 20
0.8063
 30
0.0
 10
23.6368
 20
0.809
 30
0.0
 10
23.6368
 20
0.809
 30
0.0
 10
23.6368
 20
0.809
 30
0.0
 10
23.6368
 20
0.809
 30
0.0
 10
23.348
 20
3.3207
 30
0.0
 10
23.348
 20
3.3207
 30
0.0
 10
23.348
 20
3.3207
 30
0.0
 10
23.348
 20
3.3207
 30
0.0
 10
24.155
 20
3.2925
 30
0.0
 10
24.155
 20
3.2925
 30
0.0
  0
SPLINE
  5
67
330
1F
100
AcDbEntity
  8
AXIS
 62
   250
100
AcDbSpline
210
0.0
220
0.0
230
1.0
 70
     8
 71
     3
 72
   136
 73
   132
 74
     0
 42
0.0000000001
 43
0.0000000001
 40
0.0
 40
0.0
 40
0.0
 40
0.0
 40
0.0294117647058824
 40
0.0294117647058824
 40
0.0294117647058824
 40
0.0294117647058824
 40
0.0588235294117647
 40
0.0588235294117647
 40
0.0588235294117647
 40
0.0588235294117647
 40
0.0882352941176471
 40
0.0882352941176471
 40
0.0882352941176471
 40
0.0882352941176471
 40
0.1176470588235294
 40
0.1176470588235294
 40
0.1176470588235294
 40
0.1176470588235294
 40
0.1470588235294118
 40
0.1470588235294118
 40
0.1470588235294118
 40
0.1470588235294118
 40
0.1764705882352941
 40
0.1764705882352941
 40
0.1764705882352941
 40
0.1764705882352941
 40
0.2058823529411765
 40
0.2058823529411765
 40
0.2058823529411765
 40
0.2058823529411765
 40
0.2352941176470588
 40
0.2352941176470588
 40
0.2352941176470588
 40
0.2352941176470588
 40
0.2647058823529412
 40
0.2647058823529412
 40
0.2647058823529412
 40
0.2647058823529412
 40
0.2941176470588235
 40
0.2941176470588235
 40
0.2941176470588235
 40
0.2941176470588235
 40
0.3235294117647059
 40
0.3235294117647059
 40
0.3235294117647059
 40
0.3235294117647059
 40
0.3529411764705883
 40
0.3529411764705883
 40
0.3529411764705883
 40
0.3529411764705883
 40
0.3823529411764706
 40
0.3823529411764706
 40
0.3823529411764706
 40
0.3823529411764706
 40
0.4117647058823529
 40
0.4117647058823529
 40
0.4117647058823529
 40
0.4117647058823529
 40
0.4411764705882353
 40
0.4411764705882353
 40
0.4411764705882353
 40
0.4411764705882353
 40
0.4705882352941176
 40
0.4705882352941176
 40
0.4705882352941176
 40
0.4705882352941176
 40
0.5
 40
0.5
 40
0.5
 40
0.5
 40
0.5294117647058824
 40
0.5294117647058824
 40
0.5294117647058824
 40
0.5294117647058824
 40
0.5588235294117647
 40
0.5588235294117647
 40
0.5588235294117647
 40
0.5588235294117647
 40
0.5882352941176471
 40
0.5882352941176471
 40
0.5882352941176471
 40
0.5882352941176471
 40
0.6176470588235294
 40
0.6176470588235294
 40
0.6176470588235294
 40
0.6176470588235294
 40
0.6470588235294118
 40
0.6470588235294118
 40
0.6470588235294118
 40
0.6470588235294118
 40
0.6764705882352942
 40
0.6764705882352942
 40
0.6764705882352942
 40
0.6764705882352942
 40
0.7058823529411765
 40
0.7058823529411765
 40
0.7058823529411765
 40
0.7058823529411765
 40
0.7352941176470589
 40
0.7352941176470589
 40
0.7352941176470589
 40
0.7352941176470589
 40
0.7647058823529411
 40
0.7647058823529411
 40
0.7647058823529411
 40
0.7647058823529411
 40
0.7941176470588235
 40
0.7941176470588235
 40
0.7941176470588235
 40
0.7941176470588235
 40
0.8235294117647058
 40
0.8235294117647058
 40
0.8235294117647058
 40
0.8235294117647058
 40
0.8529411764705882
 40
0.8529411764705882
 40
0.8529411764705882
 40
0.8529411764705882
 40
0.8823529411764706
 40
0.8823529411764706
 40
0.8823529411764706
 40
0.8823529411764706
 40
0.9117647058823529
 40
0.9117647058823529
 40
0.9117647058823529
 40
0.9117647058823529
 40
0.9411764705882353
 40
0.9411764705882353
 40
0.9411764705882353
 40
0.9411764705882353
 40
1.0
 40
1.0
 40
1.0
 40
1.0
 10
7.9218
 20
1.2551
 30
0.0
 10
7.9218
 20
1.2551
 30
0.0
 10
7.8962
 20
1.2047
 30
0.0
 10
7.8962
 20
1.2047
 30
0.0
 10
7.8962
 20
1.2047
 30
0.0
 10
7.8962
 20
1.2047
 30
0.0
 10
7.8231
 20
1.0579
 30
0.0
 10
7.8231
 20
1.0579
 30
0.0
 10
7.8231
 20
1.0579
 30
0.0
 10
7.8231
 20
1.0579
 30
0.0
 10
7.709
 20
0.8205
 30
0.0
 10
7.709
 20
0.8205
 30
0.0
 10
7.709
 20
0.8205
 30
0.0
 10
7.709
 20
0.8205
 30
0.0
 10
7.5615
 20
0.4951
 30
0.0
 10
7.5615
 20
0.4951
 30
0.0
 10
7.5615
 20
0.4951
 30
0.0
 10
7.5615
 20
0.4951
 30
0.0
 10
7.3905
 20
0.0839
 30
0.0
 10
7.3905
 20
0.0839
 30
0.0
 10
7.3905
 20
0.0839
 30
0.0
 10
7.3905
 20
0.0839
 30
0.0
 10
7.21
 20
-0.4071
 30
0.0
 10
7.21
 20
-0.4071
 30
0.0
 10
7.21
 20
-0.4071
 30
0.0
 10
7.21
 20
-0.4071
 30
0.0
 10
7.0384
 20
-0.9643
 30
0.0
 10
7.0384
 20
-0.9643
 30
0.0
 10
7.0384
 20
-0.9643
 30
0.0
 10
7.0384
 20
-0.9643
 30
0.0
 10
6.8953
 20
-1.5653
 30
0.0
 10
6.8953
 20
-1.5653
 30
0.0
 10
6.8953
 20
-1.5653
 30
0.0
 10
6.8953
 20
-1.5653
 30
0.0
 10
6.7959
 20
-2.1812
 30
0.0
 10
6.7959
 20
-2.1812
 30
0.0
 10
6.7959
 20
-2.1812
 30
0.0
 10
6.7959
 20
-2.1812
 30
0.0
 10
6.7454
 20
-2.8051
 30
0.0
 10
6.7454
 20
-2.8051
 30
0.0
 10
6.7454
 20
-2.8051
 30
0.0
 10
6.7454
 20
-2.8051
 30
0.0
 10
6.7462
 20
-3.4331
 30
0.0
 10
6.7462
 20
-3.4331
 30
0.0
 10
6.7462
 20
-3.4331
 30
0.0
 10
6.7462
 20
-3.4331
 30
0.0
 10
6.7979
 20
-4.0571
 30
0.0
 10
6.7979
 20
-4.0571
 30
0.0
 10
6.7979
 20
-4.0571
 30
0.0
 10
6.7979
 20
-4.0571
 30
0.0
 10
6.8937
 20
-4.6548
 30
0.0
 10
6.8937
 20
-4.6548
 30
0.0
 10
6.8937
 20
-4.6548
 30
0.0
 10
6.8937
 20
-4.6548
 30
0.0
 10
6.9514
 20
-5.1226
 30
0.0
 10
6.9514
 20
-5.1226
 30
0.0
 10
6.9514
 20
-5.1226
 30
0.0
 10
6.9514
 20
-5.1226
 30
0.0
 10
6.9424
 20
-5.5397
 30
0.0
 10
6.9424
 20
-5.5397
 30
0.0
 10
6.9424
 20
-5.5397
 30
0.0
 10
6.9424
 20
-5.5397
 30
0.0
 10
6.8837
 20
-5.8913
 30
0.0
 10
6.8837
 20
-5.8913
 30
0.0
 10
6.8837
 20
-5.8913
 30
0.0
 10
6.8837
 20
-5.8913
 30
0.0
 10
6.792
 20
-6.1783
 30
0.0
 10
6.792
 20
-6.1783
 30
0.0
 10
6.792
 20
-6.1783
 30
0.0
 10
6.792
 20
-6.1783
 30
0.0
 10
6.6807
 20
-6.4073
 30
0.0
 10
6.6807
 20
-6.4073
 30
0.0
 10
6.6807
 20
-6.4073
 30
0.0
 10
6.6807
 20
-6.4073
 30
0.0
 10
6.5612
 20
-6.5854
 30
0.0
 10
6.5612
 20
-6.5854
 30
0.0
 10
6.5612
 20
-6.5854
 30
0.0
 10
6.5612
 20
-6.5854
 30
0.0
 10
6.4399
 20
-6.7234
 30
0.0
 10
6.4399
 20
-6.7234
 30
0.0
 10
6.4399
 20
-6.7234
 30
0.0
 10
6.4399
 20
-6.7234
 30
0.0
 10
6.3202
 20
-6.8305
 30
0.0
 10
6.3202
 20
-6.8305
 30
0.0
 10
6.3202
 20
-6.8305
 30
0.0
 10
6.3202
 20
-6.8305
 30
0.0
 10
6.2036
 20
-6.914
 30
0.0
 10
6.2036
 20
-6.914
 30
0.0
 10
6.2036
 20
-6.914
 30
0.0
 10
6.2036
 20
-6.914
 30
0.0
 10
6.091
 20
-6.979
 30
0.0
 10
6.091
 20
-6.979
 30
0.0
 10
6.091
 20
-6.979
 30
0.0
 10
6.091
 20
-6.979
 30
0.0
 10
5.9834
 20
-7.0292
 30
0.0
 10
5.9834
 20
-7.0292
 30
0.0
 10
5.9834
 20
-7.0292
 30
0.0
 10
5.9834
 20
-7.0292
 30
0.0
 10
5.8812
 20
-7.0678
 30
0.0
 10
5.8812
 20
-7.0678
 30
0.0
 10
5.8812
 20
-7.0678
 30
0.0
 10
5.8812
 20
-7.0678
 30
0.0
 10
5.7844
 20
-7.097
 30
0.0
 10
5.7844
 20
-7.097
 30
0.0
 10
5.7844
 20
-7.097
 30
0.0
 10
5.7844
 20
-7.097
 30
0.0
 10
5.6929
 20
-7.1189
 30
0.0
 10
5.6929
 20
-7.1189
 30
0.0
 10
5.6929
 20
-7.1189
 30
0.0
 10
5.6929
 20
-7.1189
 30
0.0
 10
5.6071
 20
-7.1348
 30
0.0
 10
5.6071
 20
-7.1348
 30
0.0
 10
5.6071
 20
-7.1348
 30
0.0
 10
5.6071
 20
-7.1348
 30
0.0
 10
5.5276
 20
-7.1458
 30
0.0
 10
5.5276
 20
-7.1458
 30
0.0
 10
5.5276
 20
-7.1458
 30
0.0
 10
5.5276
 20
-7.1458
 30
0.0
 10
5.4551
 20
-7.1531
 30
0.0
 10
5.4551
 20
-7.1531
 30
0.0
 10
5.4551
 20
-7.1531
 30
0.0
 10
5.4551
 20
-7.1531
 30
0.0
 10
5.3919
 20
-7.1573
 30
0.0
 10
5.3919
 20
-7.1573
 30
0.0
 10
5.3919
 20
-7.1573
 30
0.0
 10
5.3919
 20
-7.1573
 30
0.0
 10
5.3426
 20
-7.1594
 30
0.0
 10
5.3426
 20
-7.1594
 30
0.0
 10
5.3426
 20
-7.1594
 30
0.0
 10
5.3426
 20
-7.1594
 30
0.0
 10
5.3229
 20
-7.1599
 30
0.0
 10
5.3229
 20
-7.1599
 30
0.0
  0
SPLINE
  5
68
330
1F
100
AcDbEntity
  8
AXIS
  6
NEW_LINE1
 62
   250
100
AcDbSpline
210
0.0
220
0.0
230
1.0
 70
    24
 71
     3
 72
     8
 73
     4
 74
     0
 42
0.0000000001
 43
0.0000000001
 40
0.0
 40
0.0
 40
0.0
 40
0.0
 40
1.0
 40
1.0
 40
1.0
 40
1.0
 10
20.1843
 20
-3.4634
 30
0.0
 10
20.1843
 20
-3.4634
 30
0.0
 10
-1.8284
 20
-2.5023
 30
0.0
 10
-1.8284
 20
-2.5023
 30
0.0
  0
SPLINE
  5
6A
330
1F
100
AcDbEntity
  8
AXIS
  6
NEW_LINE2
 62
   250
100
AcDbSpline
210
0.0
220
0.0
230
1.0
 70
    24
 71
     3
 72
     8
 73
     4
 74
     0
 42
0.0000000001
 43
0.0000000001
 40
0.0
 40
0.0
 40
0.0
 40
0.0
 40
1.0
 40
1.0
 40
1.0
 40
1.0
 10
-0.6774
 20
5.8241
 30
0.0
 10
-0.6774
 20
5.8241
 30
0.0
 10
-0.6774
 20
-8.72
 30
0.0
 10
-0.6774
 20
-8.72
 30
0.0
  0
ENDSEC
  0
SECTION
  2
OBJECTS
  0
DICTIONARY
  5
C
330
0
100
AcDbDictionary
  3
ACAD_GROUP
350
D
  3
ACAD_LAYOUT
350
1A
  3
ACAD_MATERIAL
350
3B
  3
ACAD_MLEADERSTYLE
350
8E
  3
ACAD_MLINESTYLE
350
17
  3
ACAD_PLOTSETTINGS
350
19
  3
ACAD_VISUALSTYLE
350
2A
  3
ACDBHEADERROUNDTRIPXREC
350
6C
  3
ACDBVARIABLEDICTIONARY
350
8C
  0
DICTIONARY
  5
D
102
{ACAD_REACTORS
330
C
102
}
330
C
100
AcDbDictionary
  0
DICTIONARY
  5
1A
102
{ACAD_REACTORS
330
C
102
}
330
C
100
AcDbDictionary
  0
DICTIONARY
  5
3B
102
{ACAD_REACTORS
330
C
102
}
330
C
100
AcDbDictionary
  3
BYBLOCK
350
3D
  3
BYLAYER
350
3C
  3
GLOBAL
350
3E
  0
DICTIONARY
  5
8E
102
{ACAD_REACTORS
330
C
102
}
330
C
100
AcDbDictionary
  0
DICTIONARY
  5
17
102
{ACAD_REACTORS
330
C
102
}
330
C
100
AcDbDictionary
  3
STANDARD
350
18
  0
DICTIONARY
  5
19
102
{ACAD_REACTORS
330
C
102
}
330
C
100
AcDbDictionary
  0
DICTIONARY
  5
2A
102
{ACAD_REACTORS
330
C
102
}
330
C
100
AcDbDictionary
  3
2DWIREFRAME
350
2F
  3
3D_HIDDEN
350
31
  3
3DWIREFRAME
350
30
  3
BASIC
350
32
  3
BRIGHTEN
350
36
  3
COLORCHANGE
350
3A
  3
CONCEPTUAL
350
34
  3
DIM
350
35
  3
FACEPATTERN
350
39
  3
FLAT
350
2B
  3
FLATWITHEDGES
350
2C
  3
GOURAUD
350
2D
  3
GOURAUDWITHEDGES
350
2E
  3
LINEPATTERN
350
38
  3
REALISTIC
350
33
  3
THICKEN
350
37
  0
DICTIONARY
  5
6C
102
{ACAD_REACTORS
330
C
102
}
330
C
100
AcDbDictionary
  3
CEPSNTYPE
350
75
  3
DIMSTYLEDATA
350
8B
  3
FINGERPRINTGUID
350
76
  3
HYPERLINKBASE
350
6F
  3
INSUNITS
350
74
  3
LAYOUTDICT
350
71
  3
LWETCUNION
350
73
  3
PLOTSETDICT
350
72
  3
PSVPSCALE
350
78
  3
PUCSBASE
350
7B
  3
PUCSORGBACK
350
81
  3
PUCSORGBOTTOM
350
7D
  3
PUCSORGFRONT
350
80
  3
PUCSORGLEFT
350
7E
  3
PUCSORGRIGHT
350
7F
  3
PUCSORGTOP
350
7C
  3
PUCSORTHOREF
350
79
  3
PUCSORTHOVIEW
350
7A
  3
STYLESHEET
350
70
  3
TSTACKALIGN
350
6D
  3
TSTACKSIZE
350
6E
  3
UCSBASE
350
84
  3
UCSORGBACK
350
8A
  3
UCSORGBOTTOM
350
86
  3
UCSORGFRONT
350
89
  3
UCSORGLEFT
350
87
  3
UCSORGRIGHT
350
88
  3
UCSORGTOP
350
85
  3
UCSORTHOREF
350
82
  3
UCSORTHOVIEW
350
83
  3
VERSIONGUID
350
77
  0
DICTIONARY
  5
8C
102
{ACAD_REACTORS
330
C
102
}
330
C
100
AcDbDictionary
  3
DIMASSOC
350
8F
  3
HIDETEXT
350
90
  0
MATERIAL
  5
3D
102
{ACAD_REACTORS
330
3B
102
}
102
{ACAD_XDICTIONARY
360
93
102
}
330
3B
100
AcDbMaterial
  1
ByBlock
  0
MATERIAL
  5
3C
102
{ACAD_REACTORS
330
3B
102
}
102
{ACAD_XDICTIONARY
360
91
102
}
330
3B
100
AcDbMaterial
  1
ByLayer
  0
MATERIAL
  5
3E
102
{ACAD_REACTORS
330
3B
102
}
102
{ACAD_XDICTIONARY
360
95
102
}
330
3B
100
AcDbMaterial
  1
Global
  0
MLINESTYLE
  5
18
102
{ACAD_REACTORS
330
17
102
}
330
17
100
AcDbMlineStyle
  2
Standard
 70
     0
  3

 62
   256
 51
90.0
 52
90.0
 71
     2
 49
0.5
 62
   256
  6
BYLAYER
 49
-0.5
 62
   256
  6
BYLAYER
  0
ACAD_PROXY_OBJECT
  5
2F
102
{ACAD_REACTORS
330
2A
102
}
330
2A
100
AcDbProxyObject
 90
      499
 91
      501
 93
      436
310
42CC9915DA5C99599C985B595049028333333333333E3BF0000000000000FB0107901411070040501600405405064090741402480A0340
1001
ACAD
1000
AcDbSavedByObjectVersion
1070
     0
  0
ACAD_PROXY_OBJECT
  5
31
102
{ACAD_REACTORS
330
2A
102
}
330
2A
100
AcDbProxyObject
 90
      499
 91
      501
 93
      500
310
424CD108121A5919195B90640502408333333333333E3BF0000000000000FB01079024090700405020000000000001110200405405064090740C02480A0340
1001
ACAD
1000
AcDbSavedByObjectVersion
1070
     0
  0
ACAD_PROXY_OBJECT
  5
30
102
{ACAD_REACTORS
330
2A
102
}
330
2A
100
AcDbProxyObject
 90
      499
 91
      501
 93
      436
310
42CCD915DA5C99599C985B595059028333333333333E3BF0000000000000FB0107901411070040501600405405064090741402480A0340
1001
ACAD
1000
AcDbSavedByObjectVersion
1070
     0
  0
ACAD_PROXY_OBJECT
  5
32
102
{ACAD_REACTORS
330
2A
102
}
330
2A
100
AcDbProxyObject
 90
      499
 91
      501
 93
      388
310
4150985CDA58D07406404333333333333E3BF0000000000000FB0107A41107004050150841D405064090741402480A0350
1001
ACAD
1000
AcDbSavedByObjectVersion
1070
     0
  0
ACAD_PROXY_OBJECT
  5
36
102
{ACAD_REACTORS
330
2A
102
}
330
2A
100
AcDbProxyObject
 90
      499
 91
      501
 93
      428
310
42109C9A59DA1D195B90C409028333333333333E3BF0000000000000FB010790141107004050150841D405064090741402480A029950
1001
ACAD
1000
AcDbSavedByObjectVersion
1070
     0
  0
ACAD_PROXY_OBJECT
  5
3A
102
{ACAD_REACTORS
330
2A
102
}
330
2A
100
AcDbProxyObject
 90
      499
 91
      501
 93
      452
310
42D0DBDB1BDC90DA185B99D95104090240C333333333333E3BF0000000000000FB0108901411070040501508421405064090741402480A0350
1001
ACAD
1000
AcDbSavedByObjectVersion
1070
     0
  0
ACAD_PROXY_OBJECT
  5
34
102
{ACAD_REACTORS
330
2A
102
}
330
2A
100
AcDbProxyObject
 90
      499
 91
      501
 93
      500
310
4290DBDB98D95C1D1D585B10940D028333333333333E3BF0000000000000FB0107902409070040501000000000000111010841D405064090740C02480A0340
1001
ACAD
1000
AcDbSavedByObjectVersion
1070
     0
  0
ACAD_PROXY_OBJECT
  5
35
102
{ACAD_REACTORS
330
2A
102
}
330
2A
100
AcDbProxyObject
 90
      499
 91
      501
 93
      412
310
40D11A5B50B409028333333333333E3BF0000000000000FB010790141107004050150841D405064090741402480A02677FFFFFD0
1001
ACAD
1000
AcDbSavedByObjectVersion
1070
     0
  0
ACAD_PROXY_OBJECT
  5
39
102
{ACAD_REACTORS
330
2A
102
}
330
2A
100
AcDbProxyObject
 90
      499
 91
      501
 93
      444
310
42D19858D95C185D1D195C9B90F409028333333333333E3BF0000000000000FB010790141107004050150841D405064090741402480A0350
1001
ACAD
1000
AcDbSavedByObjectVersion
1070
     0
  0
ACAD_PROXY_OBJECT
  5
2B
102
{ACAD_REACTORS
330
2A
102
}
330
2A
100
AcDbProxyObject
 90
      499
 91
      501
 93
      388
310
41119B185D240901404333333333333E3BF0000000000000F9010740A41107004050150841D405064090741402480A1B50
1001
ACAD
1000
AcDbSavedByObjectVersion
1070
     0
  0
ACAD_PROXY_OBJECT
  5
2C
102
{ACAD_REACTORS
330
2A
102
}
330
2A
100
AcDbProxyObject
 90
      499
 91
      501
 93
      476
310
43519B185D15DA5D1A115919D95CD0140901404333333333333E3BF0000000000000F9010740901411070040501600405405064090741402480A1B50
1001
ACAD
1000
AcDbSavedByObjectVersion
1070
     0
  0
ACAD_PROXY_OBJECT
  5
2D
102
{ACAD_REACTORS
330
2A
102
}
330
2A
100
AcDbProxyObject
 90
      499
 91
      501
 93
      412
310
41D1DBDD5C985D5910240902404333333333333E3BF0000000000000F9010740A411070040501641D405064090741402480A1B50
1001
ACAD
1000
AcDbSavedByObjectVersion
1070
     0
  0
ACAD_PROXY_OBJECT
  5
2E
102
{ACAD_REACTORS
330
2A
102
}
330
2A
100
AcDbProxyObject
 90
      499
 91
      501
 93
      500
310
4411DBDD5C985D5915DA5D1A115919D95CD0340902404333333333333E3BF0000000000000F9010740901411070040501600405405064090741402480A1B50
1001
ACAD
1000
AcDbSavedByObjectVersion
1070
     0
  0
ACAD_PROXY_OBJECT
  5
38
102
{ACAD_REACTORS
330
2A
102
}
330
2A
100
AcDbProxyObject
 90
      499
 91
      501
 93
      444
310
42D31A5B995C185D1D195C9B90E409028333333333333E3BF0000000000000FB010790141107004050750841D405064090741402483A0350
1001
ACAD
1000
AcDbSavedByObjectVersion
1070
     0
  0
ACAD_PROXY_OBJECT
  5
33
102
{ACAD_REACTORS
330
2A
102
}
330
2A
100
AcDbProxyObject
 90
      499
 91
      501
 93
      420
310
425499585B1A5CDD1A58D08409028333333333333E3BF0000000000000FB01079019070040501508421405064090741402480A1B40
1001
ACAD
1000
AcDbSavedByObjectVersion
1070
     0
  0
ACAD_PROXY_OBJECT
  5
37
102
{ACAD_REACTORS
330
2A
102
}
330
2A
100
AcDbProxyObject
 90
      499
 91
      501
 93
      412
310
41D51A1A58DAD95B90D409028333333333333E3BF0000000000000FB010790141107004050150C41D405064090741402480A0350
1001
ACAD
1000
AcDbSavedByObjectVersion
1070
     0
  0
XRECORD
  5
75
102
{ACAD_REACTORS
330
6C
102
}
330
6C
100
AcDbXrecord
 90
        0
  0
XRECORD
  5
8B
102
{ACAD_REACTORS
330
6C
102
}
330
6C
100
AcDbXrecord
1000
DSTYLE
1002
{
1070
   340
340
11
1002
}
  0
XRECORD
  5
76
102
{ACAD_REACTORS
330
6C
102
}
330
6C
100
AcDbXrecord
  1
{7B3BDC31-5060-4CAB-B094-9F88C1750C71}
  0
XRECORD
  5
6F
102
{ACAD_REACTORS
330
6C
102
}
330
6C
100
AcDbXrecord
  1

  0
XRECORD
  5
74
102
{ACAD_REACTORS
330
6C
102
}
330
6C
100
AcDbXrecord
 90
        4
  0
XRECORD
  5
71
102
{ACAD_REACTORS
330
6C
102
}
330
6C
100
AcDbXrecord
340
1A
  0
XRECORD
  5
73
102
{ACAD_REACTORS
330
6C
102
}
330
6C
100
AcDbXrecord
 90
    10781
  0
XRECORD
  5
72
102
{ACAD_REACTORS
330
6C
102
}
330
6C
100
AcDbXrecord
340
19
  0
XRECORD
  5
78
102
{ACAD_REACTORS
330
6C
102
}
330
6C
100
AcDbXrecord
 40
0.0
  0
XRECORD
  5
7B
102
{ACAD_REACTORS
330
6C
102
}
330
6C
100
AcDbXrecord
340
0
  0
XRECORD
  5
81
102
{ACAD_REACTORS
330
6C
102
}
330
6C
100
AcDbXrecord
 10
0.0
 20
0.0
 30
0.0
  0
XRECORD
  5
7D
102
{ACAD_REACTORS
330
6C
102
}
330
6C
100
AcDbXrecord
 10
0.0
 20
0.0
 30
0.0
  0
XRECORD
  5
80
102
{ACAD_REACTORS
330
6C
102
}
330
6C
100
AcDbXrecord
 10
0.0
 20
0.0
 30
0.0
  0
XRECORD
  5
7E
102
{ACAD_REACTORS
330
6C
102
}
330
6C
100
AcDbXrecord
 10
0.0
 20
0.0
 30
0.0
  0
XRECORD
  5
7F
102
{ACAD_REACTORS
330
6C
102
}
330
6C
100
AcDbXrecord
 10
0.0
 20
0.0
 30
0.0
  0
XRECORD
  5
7C
102
{ACAD_REACTORS
330
6C
102
}
330
6C
100
AcDbXrecord
 10
0.0
 20
0.0
 30
0.0
  0
XRECORD
  5
79
102
{ACAD_REACTORS
330
6C
102
}
330
6C
100
AcDbXrecord
340
0
  0
XRECORD
  5
7A
102
{ACAD_REACTORS
330
6C
102
}
330
6C
100
AcDbXrecord
 70
     0
  0
XRECORD
  5
70
102
{ACAD_REACTORS
330
6C
102
}
330
6C
100
AcDbXrecord
  1

  0
XRECORD
  5
6D
102
{ACAD_REACTORS
330
6C
102
}
330
6C
100
AcDbXrecord
 90
        1
  0
XRECORD
  5
6E
102
{ACAD_REACTORS
330
6C
102
}
330
6C
100
AcDbXrecord
 90
       70
  0
XRECORD
  5
84
102
{ACAD_REACTORS
330
6C
102
}
330
6C
100
AcDbXrecord
340
0
  0
XRECORD
  5
8A
102
{ACAD_REACTORS
330
6C
102
}
330
6C
100
AcDbXrecord
 10
0.0
 20
0.0
 30
0.0
  0
XRECORD
  5
86
102
{ACAD_REACTORS
330
6C
102
}
330
6C
100
AcDbXrecord
 10
0.0
 20
0.0
 30
0.0
  0
XRECORD
  5
89
102
{ACAD_REACTORS
330
6C
102
}
330
6C
100
AcDbXrecord
 10
0.0
 20
0.0
 30
0.0
  0
XRECORD
  5
87
102
{ACAD_REACTORS
330
6C
102
}
330
6C
100
AcDbXrecord
 10
0.0
 20
0.0
 30
0.0
  0
XRECORD
  5
88
102
{ACAD_REACTORS
330
6C
102
}
330
6C
100
AcDbXrecord
 10
0.0
 20
0.0
 30
0.0
  0
XRECORD
  5
85
102
{ACAD_REACTORS
330
6C
102
}
330
6C
100
AcDbXrecord
 10
0.0
 20
0.0
 30
0.0
  0
XRECORD
  5
82
102
{ACAD_REACTORS
330
6C
102
}
330
6C
100
AcDbXrecord
340
0
  0
XRECORD
  5
83
102
{ACAD_REACTORS
330
6C
102
}
330
6C
100
AcDbXrecord
 70
     0
  0
XRECORD
  5
77
102
{ACAD_REACTORS
330
6C
102
}
330
6C
100
AcDbXrecord
  1
{FAEB1C32-E019-11D5-929B-00C0DF256EC4}
  0
DICTIONARYVAR
  5
8F
102
{ACAD_REACTORS
330
8C
102
}
330
8C
100
DictionaryVariables
280
     0
  1
2
  0
DICTIONARYVAR
  5
90
102
{ACAD_REACTORS
330
8C
102
}
330
8C
100
DictionaryVariables
280
     0
  1
1
  0
DICTIONARY
  5
93
330
3D
100
AcDbDictionary
280
     1
  3
ACAD_XREC_ROUNDTRIP
360
94
  0
DICTIONARY
  5
91
330
3C
100
AcDbDictionary
280
     1
  3
ACAD_XREC_ROUNDTRIP
360
92
  0
DICTIONARY
  5
95
330
3E
100
AcDbDictionary
280
     1
  3
ACAD_XREC_ROUNDTRIP
360
96
  0
XRECORD
  5
94
102
{ACAD_REACTORS
330
93
102
}
330
93
100
AcDbXrecord
102
MATERIAL
148
0.0
149
0.0
149
0.0
 93
        0
 94
      127
282
     0
 72
     1
 77
     1
171
     1
175
     1
179
     1
273
     0
  0
XRECORD
  5
92
102
{ACAD_REACTORS
330
91
102
}
330
91
100
AcDbXrecord
102
MATERIAL
148
0.0
149
0.0
149
0.0
 93
        0
 94
      127
282
     0
 72
     1
 77
     1
171
     1
175
     1
179
     1
273
     0
  0
XRECORD
  5
96
102
{ACAD_REACTORS
330
95
102
}
330
95
100
AcDbXrecord
102
MATERIAL
148
0.0
149
0.0
149
0.0
 93
        0
 94
      127
282
     0
 72
     1
 77
     1
171
     1
175
     1
179
     1
273
     0
  0
ENDSEC
  0
EOF
