  0
SECTION
  2
HEADER
  9
$ACADVER
  1
AC1015
  9
$ACADMAINTVER
 70
     6
  9
$DWGCODEPAGE
  3
ANSI_1250
  9
$INSBASE
 10
0.0
 20
0.0
 30
0.0
  9
$EXTMIN
 10
-41.8263
 20
-13.6436
 30
0.0
  9
$EXTMAX
 10
41.6274
 20
13.6436
 30
0.0
  9
$LIMMIN
 10
0.0
 20
0.0
  9
$LIMMAX
 10
12.0
 20
9.0
  9
$ORTHOMODE
 70
     0
  9
$REGENMODE
 70
     1
  9
$FILLMODE
 70
     1
  9
$QTEXTMODE
 70
     0
  9
$MIRRTEXT
 70
     1
  9
$LTSCALE
 40
1.0
  9
$ATTMODE
 70
     1
  9
$TEXTSIZE
 40
0.2
  9
$TRACEWID
 40
0.05
  9
$TEXTSTYLE
  7
Standard
  9
$CLAYER
  8
0
  9
$CELTYPE
  6
ByLayer
  9
$CECOLOR
 62
   256
  9
$CELTSCALE
 40
1.0
  9
$DISPSILH
 70
     0
  9
$DIMSCALE
 40
1.0
  9
$DIMASZ
 40
0.18
  9
$DIMEXO
 40
0.0625
  9
$DIMDLI
 40
0.38
  9
$DIMRND
 40
0.0
  9
$DIMDLE
 40
0.0
  9
$DIMEXE
 40
0.18
  9
$DIMTP
 40
0.0
  9
$DIMTM
 40
0.0
  9
$DIMTXT
 40
0.18
  9
$DIMCEN
 40
0.09
  9
$DIMTSZ
 40
0.0
  9
$DIMTOL
 70
     0
  9
$DIMLIM
 70
     0
  9
$DIMTIH
 70
     1
  9
$DIMTOH
 70
     1
  9
$DIMSE1
 70
     0
  9
$DIMSE2
 70
     0
  9
$DIMTAD
 70
     0
  9
$DIMZIN
 70
     0
  9
$DIMBLK
  1

  9
$DIMASO
 70
     1
  9
$DIMSHO
 70
     1
  9
$DIMPOST
  1

  9
$DIMAPOST
  1

  9
$DIMALT
 70
     0
  9
$DIMALTD
 70
     2
  9
$DIMALTF
 40
25.4
  9
$DIMLFAC
 40
1.0
  9
$DIMTOFL
 70
     0
  9
$DIMTVP
 40
0.0
  9
$DIMTIX
 70
     0
  9
$DIMSOXD
 70
     0
  9
$DIMSAH
 70
     0
  9
$DIMBLK1
  1

  9
$DIMBLK2
  1

  9
$DIMSTYLE
  2
Standard
  9
$DIMCLRD
 70
     0
  9
$DIMCLRE
 70
     0
  9
$DIMCLRT
 70
     0
  9
$DIMTFAC
 40
1.0
  9
$DIMGAP
 40
0.09
  9
$DIMJUST
 70
     0
  9
$DIMSD1
 70
     0
  9
$DIMSD2
 70
     0
  9
$DIMTOLJ
 70
     1
  9
$DIMTZIN
 70
     0
  9
$DIMALTZ
 70
     0
  9
$DIMALTTZ
 70
     0
  9
$DIMUPT
 70
     0
  9
$DIMDEC
 70
     4
  9
$DIMTDEC
 70
     4
  9
$DIMALTU
 70
     2
  9
$DIMALTTD
 70
     2
  9
$DIMTXSTY
  7
Standard
  9
$DIMAUNIT
 70
     0
  9
$DIMADEC
 70
     0
  9
$DIMALTRND
 40
0.0
  9
$DIMAZIN
 70
     0
  9
$DIMDSEP
 70
    46
  9
$DIMATFIT
 70
     3
  9
$DIMFRAC
 70
     0
  9
$DIMLDRBLK
  1

  9
$DIMLUNIT
 70
     2
  9
$DIMLWD
 70
    -2
  9
$DIMLWE
 70
    -2
  9
$DIMTMOVE
 70
     0
  9
$LUNITS
 70
     2
  9
$LUPREC
 70
     4
  9
$SKETCHINC
 40
0.1
  9
$FILLETRAD
 40
0.5
  9
$AUNITS
 70
     0
  9
$AUPREC
 70
     0
  9
$MENU
  1
.
  9
$ELEVATION
 40
0.0
  9
$PELEVATION
 40
0.0
  9
$THICKNESS
 40
0.0
  9
$LIMCHECK
 70
     0
  9
$CHAMFERA
 40
0.5
  9
$CHAMFERB
 40
0.5
  9
$CHAMFERC
 40
1.0
  9
$CHAMFERD
 40
0.0
  9
$SKPOLY
 70
     0
  9
$TDCREATE
 40
2457637.355205093
  9
$TDUCREATE
 40
2457637.271871759
  9
$TDUPDATE
 40
2457637.355205104
  9
$TDUUPDATE
 40
2457637.271871771
  9
$TDINDWG
 40
0.0000000116
  9
$TDUSRTIMER
 40
0.0000000116
  9
$USRTIMER
 70
     1
  9
$ANGBASE
 50
0.0
  9
$ANGDIR
 70
     0
  9
$PDMODE
 70
     0
  9
$PDSIZE
 40
0.0
  9
$PLINEWID
 40
0.0
  9
$SPLFRAME
 70
     0
  9
$SPLINETYPE
 70
     6
  9
$SPLINESEGS
 70
     8
  9
$HANDSEED
  5
92
  9
$SURFTAB1
 70
     6
  9
$SURFTAB2
 70
     6
  9
$SURFTYPE
 70
     6
  9
$SURFU
 70
     6
  9
$SURFV
 70
     6
  9
$UCSBASE
  2

  9
$UCSNAME
  2

  9
$UCSORG
 10
0.0
 20
0.0
 30
0.0
  9
$UCSXDIR
 10
1.0
 20
0.0
 30
0.0
  9
$UCSYDIR
 10
0.0
 20
1.0
 30
0.0
  9
$UCSORTHOREF
  2

  9
$UCSORTHOVIEW
 70
     0
  9
$UCSORGTOP
 10
0.0
 20
0.0
 30
0.0
  9
$UCSORGBOTTOM
 10
0.0
 20
0.0
 30
0.0
  9
$UCSORGLEFT
 10
0.0
 20
0.0
 30
0.0
  9
$UCSORGRIGHT
 10
0.0
 20
0.0
 30
0.0
  9
$UCSORGFRONT
 10
0.0
 20
0.0
 30
0.0
  9
$UCSORGBACK
 10
0.0
 20
0.0
 30
0.0
  9
$PUCSBASE
  2

  9
$PUCSNAME
  2

  9
$PUCSORG
 10
0.0
 20
0.0
 30
0.0
  9
$PUCSXDIR
 10
1.0
 20
0.0
 30
0.0
  9
$PUCSYDIR
 10
0.0
 20
1.0
 30
0.0
  9
$PUCSORTHOREF
  2

  9
$PUCSORTHOVIEW
 70
     0
  9
$PUCSORGTOP
 10
0.0
 20
0.0
 30
0.0
  9
$PUCSORGBOTTOM
 10
0.0
 20
0.0
 30
0.0
  9
$PUCSORGLEFT
 10
0.0
 20
0.0
 30
0.0
  9
$PUCSORGRIGHT
 10
0.0
 20
0.0
 30
0.0
  9
$PUCSORGFRONT
 10
0.0
 20
0.0
 30
0.0
  9
$PUCSORGBACK
 10
0.0
 20
0.0
 30
0.0
  9
$USERI1
 70
     0
  9
$USERI2
 70
     0
  9
$USERI3
 70
     0
  9
$USERI4
 70
     0
  9
$USERI5
 70
     0
  9
$USERR1
 40
0.0
  9
$USERR2
 40
0.0
  9
$USERR3
 40
0.0
  9
$USERR4
 40
0.0
  9
$USERR5
 40
0.0
  9
$WORLDVIEW
 70
     1
  9
$SHADEDGE
 70
     3
  9
$SHADEDIF
 70
    70
  9
$TILEMODE
 70
     1
  9
$MAXACTVP
 70
    64
  9
$PINSBASE
 10
0.0
 20
0.0
 30
0.0
  9
$PLIMCHECK
 70
     0
  9
$PEXTMIN
 10
1.000000000000000E+20
 20
1.000000000000000E+20
 30
1.000000000000000E+20
  9
$PEXTMAX
 10
-1.000000000000000E+20
 20
-1.000000000000000E+20
 30
-1.000000000000000E+20
  9
$PLIMMIN
 10
0.0
 20
0.0
  9
$PLIMMAX
 10
12.0
 20
9.0
  9
$UNITMODE
 70
     0
  9
$VISRETAIN
 70
     1
  9
$PLINEGEN
 70
     0
  9
$PSLTSCALE
 70
     1
  9
$TREEDEPTH
 70
  3020
  9
$CMLSTYLE
  2
Standard
  9
$CMLJUST
 70
     0
  9
$CMLSCALE
 40
1.0
  9
$PROXYGRAPHICS
 70
     1
  9
$MEASUREMENT
 70
     0
  9
$CELWEIGHT
370
    -1
  9
$ENDCAPS
280
     0
  9
$JOINSTYLE
280
     0
  9
$LWDISPLAY
290
     0
  9
$INSUNITS
 70
     4
  9
$HYPERLINKBASE
  1

  9
$STYLESHEET
  1

  9
$XEDIT
290
     1
  9
$CEPSNTYPE
380
     0
  9
$PSTYLEMODE
290
     1
  9
$FINGERPRINTGUID
  2
{51711DB8-886F-40B3-AD07-2FDB109BC21C}
  9
$VERSIONGUID
  2
{FAEB1C32-E019-11D5-929B-00C0DF256EC4}
  9
$EXTNAMES
290
     1
  9
$PSVPSCALE
 40
0.0
  9
$OLESTARTUP
290
     0
  0
ENDSEC
  0
SECTION
  2
CLASSES
  0
CLASS
  1
ACDBDICTIONARYWDFLT
  2
AcDbDictionaryWithDefault
  3
ObjectDBX Classes
 90
        0
280
     0
281
     0
  0
CLASS
  1
VISUALSTYLE
  2
AcDbVisualStyle
  3
ObjectDBX Classes
 90
     4095
280
     0
281
     0
  0
CLASS
  1
MATERIAL
  2
AcDbMaterial
  3
ObjectDBX Classes
 90
     1153
280
     0
281
     0
  0
CLASS
  1
DICTIONARYVAR
  2
AcDbDictionaryVar
  3
ObjectDBX Classes
 90
        0
280
     0
281
     0
  0
CLASS
  1
ACDBPLACEHOLDER
  2
AcDbPlaceHolder
  3
ObjectDBX Classes
 90
        0
280
     0
281
     0
  0
CLASS
  1
LAYOUT
  2
AcDbLayout
  3
ObjectDBX Classes
 90
        0
280
     0
281
     0
  0
ENDSEC
  0
SECTION
  2
TABLES
  0
TABLE
  2
VPORT
  5
8
330
0
100
AcDbSymbolTable
 70
     1
  0
VPORT
  5
29
330
8
100
AcDbSymbolTableRecord
100
AcDbViewportTableRecord
  2
*Active
 70
     0
 10
0.0
 20
0.0
 11
1.0
 21
1.0
 12
10.42990654205607
 22
4.5
 13
0.0
 23
0.0
 14
0.5
 24
0.5
 15
0.5
 25
0.5
 16
0.0
 26
0.0
 36
1.0
 17
0.0
 27
0.0
 37
0.0
 40
9.0
 41
1.972972972850329
 42
50.0
 43
0.0
 44
0.0
 50
0.0
 51
0.0
 71
     0
 72
   100
 73
     1
 74
     3
 75
     0
 76
     0
 77
     0
 78
     0
281
     0
 65
     1
110
0.0
120
0.0
130
0.0
111
1.0
121
0.0
131
0.0
112
0.0
122
1.0
132
0.0
 79
     0
146
0.0
  0
ENDTAB
  0
TABLE
  2
LTYPE
  5
5
330
0
100
AcDbSymbolTable
 70
     3
  0
LTYPE
  5
14
330
5
100
AcDbSymbolTableRecord
100
AcDbLinetypeTableRecord
  2
ByBlock
 70
     0
  3

 72
    65
 73
     0
 40
0.0
  0
LTYPE
  5
15
330
5
100
AcDbSymbolTableRecord
100
AcDbLinetypeTableRecord
  2
ByLayer
 70
     0
  3

 72
    65
 73
     0
 40
0.0
  0
LTYPE
  5
16
330
5
100
AcDbSymbolTableRecord
100
AcDbLinetypeTableRecord
  2
Continuous
 70
     0
  3
Solid line
 72
    65
 73
     0
 40
0.0
  0
LTYPE
  5
43
330
5
100
AcDbSymbolTableRecord
100
AcDbLinetypeTableRecord
  2
New Line1
 70
     0
  3

 72
    65
 73
     4
 40
1.2
 49
0.5
 74
     4
 75
     0
340
0
 46
1.0
 50
0.0
 44
0.0
 45
0.0
 49
-0.3
 74
     4
 75
     0
340
0
 46
1.0
 50
0.0
 44
0.0
 45
0.0
 49
0.1
 74
     4
 75
     0
340
0
 46
1.0
 50
0.0
 44
0.0
 45
0.0
 49
-0.3
 74
     4
 75
     0
340
0
 46
1.0
 50
0.0
 44
0.0
 45
0.0
  0
LTYPE
  5
62
330
5
100
AcDbSymbolTableRecord
100
AcDbLinetypeTableRecord
  2
New Line2
 70
     0
  3

 72
    65
 73
     4
 40
1.2
 49
0.5
 74
     4
 75
     0
340
0
 46
1.0
 50
0.0
 44
0.0
 45
0.0
 49
-0.3
 74
     4
 75
     0
340
0
 46
1.0
 50
0.0
 44
0.0
 45
0.0
 49
0.1
 74
     4
 75
     0
340
0
 46
1.0
 50
0.0
 44
0.0
 45
0.0
 49
-0.3
 74
     4
 75
     0
340
0
 46
1.0
 50
0.0
 44
0.0
 45
0.0
  0
ENDTAB
  0
TABLE
  2
LAYER
  5
2
330
0
100
AcDbSymbolTable
 70
     2
  0
LAYER
  5
10
330
2
100
AcDbSymbolTableRecord
100
AcDbLayerTableRecord
  2
0
 70
     0
 62
     7
  6
Continuous
370
    -3
390
F
  0
LAYER
  5
40
330
2
100
AcDbSymbolTableRecord
100
AcDbLayerTableRecord
  2
ROUND
 70
     0
 62
     7
  6
Continuous
370
    -3
390
F
  0
ENDTAB
  0
TABLE
  2
STYLE
  5
3
330
0
100
AcDbSymbolTable
 70
     1
  0
STYLE
  5
11
330
3
100
AcDbSymbolTableRecord
100
AcDbTextStyleTableRecord
  2
Standard
 70
     0
 40
0.0
 41
1.0
 50
0.0
 71
     0
 42
0.2
  3
txt
  4

  0
ENDTAB
  0
TABLE
  2
VIEW
  5
6
330
0
100
AcDbSymbolTable
 70
     0
  0
ENDTAB
  0
TABLE
  2
UCS
  5
7
330
0
100
AcDbSymbolTable
 70
     0
  0
ENDTAB
  0
TABLE
  2
APPID
  5
9
330
0
100
AcDbSymbolTable
 70
     2
  0
APPID
  5
12
330
9
100
AcDbSymbolTableRecord
100
AcDbRegAppTableRecord
  2
ACAD
 70
     0
  0
APPID
  5
3F
330
9
100
AcDbSymbolTableRecord
100
AcDbRegAppTableRecord
  2
ODA
 70
     0
  0
ENDTAB
  0
TABLE
  2
DIMSTYLE
  5
A
330
0
100
AcDbSymbolTable
 70
     1
100
AcDbDimStyleTable
  0
DIMSTYLE
105
27
330
A
100
AcDbSymbolTableRecord
100
AcDbDimStyleTableRecord
  2
Standard
 70
     0
340
11
  0
ENDTAB
  0
TABLE
  2
BLOCK_RECORD
  5
1
330
0
100
AcDbSymbolTable
 70
     1
  0
BLOCK_RECORD
  5
1F
330
1
100
AcDbSymbolTableRecord
100
AcDbBlockTableRecord
  2
*Model_Space
340
22
  0
BLOCK_RECORD
  5
1B
330
1
100
AcDbSymbolTableRecord
100
AcDbBlockTableRecord
  2
*Paper_Space
340
1E
  0
BLOCK_RECORD
  5
23
330
1
100
AcDbSymbolTableRecord
100
AcDbBlockTableRecord
  2
*Paper_Space0
340
26
  0
ENDTAB
  0
ENDSEC
  0
SECTION
  2
BLOCKS
  0
BLOCK
  5
20
330
1F
100
AcDbEntity
  8
0
100
AcDbBlockBegin
  2
*Model_Space
 70
     0
 10
0.0
 20
0.0
 30
0.0
  3
*Model_Space
  1

  0
ENDBLK
  5
21
330
1F
100
AcDbEntity
  8
0
100
AcDbBlockEnd
  0
BLOCK
  5
1C
330
1B
100
AcDbEntity
 67
     1
  8
0
100
AcDbBlockBegin
  2
*Paper_Space
 70
     0
 10
0.0
 20
0.0
 30
0.0
  3
*Paper_Space
  1

  0
ENDBLK
  5
1D
330
1B
100
AcDbEntity
 67
     1
  8
0
100
AcDbBlockEnd
  0
BLOCK
  5
24
330
23
100
AcDbEntity
  8
0
100
AcDbBlockBegin
  2
*Paper_Space0
 70
     0
 10
0.0
 20
0.0
 30
0.0
  3
*Paper_Space0
  1

  0
ENDBLK
  5
25
330
23
100
AcDbEntity
  8
0
100
AcDbBlockEnd
  0
ENDSEC
  0
SECTION
  2
ENTITIES
  0
SPLINE
  5
41
330
1F
100
AcDbEntity
  8
ROUND
 62
   251
100
AcDbSpline
210
0.0
220
0.0
230
1.0
 70
    11
 71
     3
 72
    52
 73
    48
 74
     0
 42
0.0000000001
 43
0.0000000001
 40
0.0
 40
0.0
 40
0.0
 40
0.0
 40
0.0769230769230769
 40
0.0769230769230769
 40
0.0769230769230769
 40
0.0769230769230769
 40
0.1538461538461539
 40
0.1538461538461539
 40
0.1538461538461539
 40
0.1538461538461539
 40
0.2307692307692308
 40
0.2307692307692308
 40
0.2307692307692308
 40
0.2307692307692308
 40
0.3076923076923077
 40
0.3076923076923077
 40
0.3076923076923077
 40
0.3076923076923077
 40
0.3846153846153846
 40
0.3846153846153846
 40
0.3846153846153846
 40
0.3846153846153846
 40
0.4615384615384616
 40
0.4615384615384616
 40
0.4615384615384616
 40
0.4615384615384616
 40
0.5384615384615384
 40
0.5384615384615384
 40
0.5384615384615384
 40
0.5384615384615384
 40
0.6153846153846154
 40
0.6153846153846154
 40
0.6153846153846154
 40
0.6153846153846154
 40
0.6923076923076923
 40
0.6923076923076923
 40
0.6923076923076923
 40
0.6923076923076923
 40
0.7692307692307693
 40
0.7692307692307693
 40
0.7692307692307693
 40
0.7692307692307693
 40
0.8461538461538461
 40
0.8461538461538461
 40
0.8461538461538461
 40
0.8461538461538461
 40
1.0
 40
1.0
 40
1.0
 40
1.0
 10
-40.8464
 20
-0.018
 30
0.0
 10
-40.8464
 20
-0.018
 30
0.0
 10
36.1367
 20
0.0152
 30
0.0
 10
36.1367
 20
0.0152
 30
0.0
 10
36.1367
 20
0.0152
 30
0.0
 10
36.1367
 20
0.0152
 30
0.0
 10
36.1367
 20
0.5554
 30
0.0
 10
36.1367
 20
0.5554
 30
0.0
 10
36.1367
 20
0.5554
 30
0.0
 10
36.1367
 20
0.5554
 30
0.0
 10
36.6659
 20
0.5334
 30
0.0
 10
36.6659
 20
0.5334
 30
0.0
 10
36.6659
 20
0.5334
 30
0.0
 10
36.6659
 20
0.5334
 30
0.0
 10
36.6631
 20
0.0181
 30
0.0
 10
36.6631
 20
0.0181
 30
0.0
 10
36.6631
 20
0.0181
 30
0.0
 10
36.6631
 20
0.0181
 30
0.0
 10
40.9653
 20
0.0316
 30
0.0
 10
40.9653
 20
0.0316
 30
0.0
 10
40.9653
 20
0.0316
 30
0.0
 10
40.9653
 20
0.0316
 30
0.0
 10
40.9545
 20
-9.1407
 30
0.0
 10
40.9545
 20
-9.1407
 30
0.0
 10
40.9545
 20
-9.1407
 30
0.0
 10
40.9545
 20
-9.1407
 30
0.0
 10
36.7101
 20
-9.1517
 30
0.0
 10
36.7101
 20
-9.1517
 30
0.0
 10
36.7101
 20
-9.1517
 30
0.0
 10
36.7101
 20
-9.1517
 30
0.0
 10
36.7101
 20
-9.6478
 30
0.0
 10
36.7101
 20
-9.6478
 30
0.0
 10
36.7101
 20
-9.6478
 30
0.0
 10
36.7101
 20
-9.6478
 30
0.0
 10
36.1699
 20
-9.6809
 30
0.0
 10
36.1699
 20
-9.6809
 30
0.0
 10
36.1699
 20
-9.6809
 30
0.0
 10
36.1699
 20
-9.6809
 30
0.0
 10
36.1368
 20
-9.1517
 30
0.0
 10
36.1368
 20
-9.1517
 30
0.0
 10
36.1368
 20
-9.1517
 30
0.0
 10
36.1368
 20
-9.1517
 30
0.0
 10
-40.802
 20
-9.1508
 30
0.0
 10
-40.802
 20
-9.1508
 30
0.0
 10
-40.802
 20
-9.1508
 30
0.0
 10
-40.802
 20
-9.1508
 30
0.0
 10
-40.8464
 20
-0.018
 30
0.0
 10
-40.8464
 20
-0.018
 30
0.0
  0
SPLINE
  5
42
330
1F
100
AcDbEntity
  8
ROUND
  6
New Line1
 62
   250
370
    15
100
AcDbSpline
210
0.0
220
0.0
230
1.0
 70
    24
 71
     3
 72
     8
 73
     4
 74
     0
 42
0.0000000001
 43
0.0000000001
 40
0.0
 40
0.0
 40
0.0
 40
0.0
 40
1.0
 40
1.0
 40
1.0
 40
1.0
 10
-41.8263
 20
-4.5645
 30
0.0
 10
-41.8263
 20
-4.5645
 30
0.0
 10
13.3832
 20
-4.5645
 30
0.0
 10
13.3832
 20
-4.5645
 30
0.0
  0
SPLINE
  5
44
330
1F
100
AcDbEntity
  8
ROUND
 62
   250
100
AcDbSpline
210
0.0
220
0.0
230
1.0
 70
    11
 71
     3
 72
   196
 73
   192
 74
     0
 42
0.0000000001
 43
0.0000000001
 40
0.0
 40
0.0
 40
0.0
 40
0.0
 40
0.0204081632653061
 40
0.0204081632653061
 40
0.0204081632653061
 40
0.0204081632653061
 40
0.0408163265306122
 40
0.0408163265306122
 40
0.0408163265306122
 40
0.0408163265306122
 40
0.0612244897959184
 40
0.0612244897959184
 40
0.0612244897959184
 40
0.0612244897959184
 40
0.0816326530612245
 40
0.0816326530612245
 40
0.0816326530612245
 40
0.0816326530612245
 40
0.1020408163265306
 40
0.1020408163265306
 40
0.1020408163265306
 40
0.1020408163265306
 40
0.1224489795918367
 40
0.1224489795918367
 40
0.1224489795918367
 40
0.1224489795918367
 40
0.1428571428571428
 40
0.1428571428571428
 40
0.1428571428571428
 40
0.1428571428571428
 40
0.163265306122449
 40
0.163265306122449
 40
0.163265306122449
 40
0.163265306122449
 40
0.1836734693877551
 40
0.1836734693877551
 40
0.1836734693877551
 40
0.1836734693877551
 40
0.2040816326530612
 40
0.2040816326530612
 40
0.2040816326530612
 40
0.2040816326530612
 40
0.2244897959183673
 40
0.2244897959183673
 40
0.2244897959183673
 40
0.2244897959183673
 40
0.2448979591836735
 40
0.2448979591836735
 40
0.2448979591836735
 40
0.2448979591836735
 40
0.2653061224489796
 40
0.2653061224489796
 40
0.2653061224489796
 40
0.2653061224489796
 40
0.2857142857142857
 40
0.2857142857142857
 40
0.2857142857142857
 40
0.2857142857142857
 40
0.3061224489795918
 40
0.3061224489795918
 40
0.3061224489795918
 40
0.3061224489795918
 40
0.3265306122448979
 40
0.3265306122448979
 40
0.3265306122448979
 40
0.3265306122448979
 40
0.3469387755102041
 40
0.3469387755102041
 40
0.3469387755102041
 40
0.3469387755102041
 40
0.3673469387755102
 40
0.3673469387755102
 40
0.3673469387755102
 40
0.3673469387755102
 40
0.3877551020408163
 40
0.3877551020408163
 40
0.3877551020408163
 40
0.3877551020408163
 40
0.4081632653061225
 40
0.4081632653061225
 40
0.4081632653061225
 40
0.4081632653061225
 40
0.4285714285714285
 40
0.4285714285714285
 40
0.4285714285714285
 40
0.4285714285714285
 40
0.4489795918367347
 40
0.4489795918367347
 40
0.4489795918367347
 40
0.4489795918367347
 40
0.4693877551020408
 40
0.4693877551020408
 40
0.4693877551020408
 40
0.4693877551020408
 40
0.4897959183673469
 40
0.4897959183673469
 40
0.4897959183673469
 40
0.4897959183673469
 40
0.5102040816326531
 40
0.5102040816326531
 40
0.5102040816326531
 40
0.5102040816326531
 40
0.5306122448979592
 40
0.5306122448979592
 40
0.5306122448979592
 40
0.5306122448979592
 40
0.5510204081632653
 40
0.5510204081632653
 40
0.5510204081632653
 40
0.5510204081632653
 40
0.5714285714285714
 40
0.5714285714285714
 40
0.5714285714285714
 40
0.5714285714285714
 40
0.5918367346938775
 40
0.5918367346938775
 40
0.5918367346938775
 40
0.5918367346938775
 40
0.6122448979591837
 40
0.6122448979591837
 40
0.6122448979591837
 40
0.6122448979591837
 40
0.6326530612244898
 40
0.6326530612244898
 40
0.6326530612244898
 40
0.6326530612244898
 40
0.6530612244897959
 40
0.6530612244897959
 40
0.6530612244897959
 40
0.6530612244897959
 40
0.673469387755102
 40
0.673469387755102
 40
0.673469387755102
 40
0.673469387755102
 40
0.6938775510204082
 40
0.6938775510204082
 40
0.6938775510204082
 40
0.6938775510204082
 40
0.7142857142857143
 40
0.7142857142857143
 40
0.7142857142857143
 40
0.7142857142857143
 40
0.7346938775510204
 40
0.7346938775510204
 40
0.7346938775510204
 40
0.7346938775510204
 40
0.7551020408163265
 40
0.7551020408163265
 40
0.7551020408163265
 40
0.7551020408163265
 40
0.7755102040816326
 40
0.7755102040816326
 40
0.7755102040816326
 40
0.7755102040816326
 40
0.7959183673469388
 40
0.7959183673469388
 40
0.7959183673469388
 40
0.7959183673469388
 40
0.8163265306122449
 40
0.8163265306122449
 40
0.8163265306122449
 40
0.8163265306122449
 40
0.8367346938775511
 40
0.8367346938775511
 40
0.8367346938775511
 40
0.8367346938775511
 40
0.8571428571428571
 40
0.8571428571428571
 40
0.8571428571428571
 40
0.8571428571428571
 40
0.8775510204081632
 40
0.8775510204081632
 40
0.8775510204081632
 40
0.8775510204081632
 40
0.8979591836734694
 40
0.8979591836734694
 40
0.8979591836734694
 40
0.8979591836734694
 40
0.9183673469387755
 40
0.9183673469387755
 40
0.9183673469387755
 40
0.9183673469387755
 40
0.9387755102040817
 40
0.9387755102040817
 40
0.9387755102040817
 40
0.9387755102040817
 40
0.9591836734693877
 40
0.9591836734693877
 40
0.9591836734693877
 40
0.9591836734693877
 40
1.0
 40
1.0
 40
1.0
 40
1.0
 10
-1.0576
 20
11.2067
 30
0.0
 10
-1.0156
 20
11.1789
 30
0.0
 10
-0.9612
 20
11.1523
 30
0.0
 10
-0.8953
 20
11.1265
 30
0.0
 10
-0.8953
 20
11.1265
 30
0.0
 10
-0.8293
 20
11.1006
 30
0.0
 10
-0.7543
 20
11.0793
 30
0.0
 10
-0.6702
 20
11.0618
 30
0.0
 10
-0.6702
 20
11.0618
 30
0.0
 10
-0.5861
 20
11.045
 30
0.0
 10
-0.4969
 20
11.0366
 30
0.0
 10
-0.4018
 20
11.0359
 30
0.0
 10
-0.4018
 20
11.0359
 30
0.0
 10
-0.2511
 20
11.0366
 30
0.0
 10
-0.1185
 20
11.0573
 30
0.0
 10
-0.0041
 20
11.0974
 30
0.0
 10
-0.0041
 20
11.0974
 30
0.0
 10
0.1104
 20
11.1375
 30
0.0
 10
0.2062
 20
11.1931
 30
0.0
 10
0.2838
 20
11.2629
 30
0.0
 10
0.2838
 20
11.2629
 30
0.0
 10
0.3614
 20
11.3328
 30
0.0
 10
0.4196
 20
11.4136
 30
0.0
 10
0.459
 20
11.5042
 30
0.0
 10
0.459
 20
11.5042
 30
0.0
 10
0.4978
 20
11.5947
 30
0.0
 10
0.5179
 20
11.6911
 30
0.0
 10
0.5179
 20
11.7926
 30
0.0
 10
0.5179
 20
11.7926
 30
0.0
 10
0.5166
 20
11.8812
 30
0.0
 10
0.5011
 20
11.9614
 30
0.0
 10
0.472
 20
12.0339
 30
0.0
 10
0.472
 20
12.0339
 30
0.0
 10
0.4429
 20
12.1069
 30
0.0
 10
0.4028
 20
12.1703
 30
0.0
 10
0.3517
 20
12.2253
 30
0.0
 10
0.3517
 20
12.2253
 30
0.0
 10
0.3006
 20
12.2803
 30
0.0
 10
0.2411
 20
12.3255
 30
0.0
 10
0.1738
 20
12.3611
 30
0.0
 10
0.1738
 20
12.3611
 30
0.0
 10
0.1059
 20
12.3967
 30
0.0
 10
0.0335
 20
12.4219
 30
0.0
 10
-0.0448
 20
12.4368
 30
0.0
 10
-0.0448
 20
12.4368
 30
0.0
 10
-0.0448
 20
12.4368
 30
0.0
 10
-0.0448
 20
12.4445
 30
0.0
 10
-0.0448
 20
12.4445
 30
0.0
 10
-0.0448
 20
12.4445
 30
0.0
 10
0.0574
 20
12.4827
 30
0.0
 10
0.1434
 20
12.5312
 30
0.0
 10
0.212
 20
12.5907
 30
0.0
 10
0.212
 20
12.5907
 30
0.0
 10
0.2812
 20
12.6502
 30
0.0
 10
0.3336
 20
12.7188
 30
0.0
 10
0.3685
 20
12.7951
 30
0.0
 10
0.3685
 20
12.7951
 30
0.0
 10
0.4034
 20
12.8714
 30
0.0
 10
0.4209
 20
12.9536
 30
0.0
 10
0.4209
 20
13.0422
 30
0.0
 10
0.4209
 20
13.0422
 30
0.0
 10
0.4209
 20
13.1198
 30
0.0
 10
0.4066
 20
13.1941
 30
0.0
 10
0.3782
 20
13.2653
 30
0.0
 10
0.3782
 20
13.2653
 30
0.0
 10
0.3491
 20
13.3371
 30
0.0
 10
0.3051
 20
13.4011
 30
0.0
 10
0.2463
 20
13.458
 30
0.0
 10
0.2463
 20
13.458
 30
0.0
 10
0.1874
 20
13.5149
 30
0.0
 10
0.1124
 20
13.5596
 30
0.0
 10
0.0212
 20
13.5926
 30
0.0
 10
0.0212
 20
13.5926
 30
0.0
 10
-0.0694
 20
13.6262
 30
0.0
 10
-0.1767
 20
13.643
 30
0.0
 10
-0.3009
 20
13.6436
 30
0.0
 10
-0.3009
 20
13.6436
 30
0.0
 10
-0.3921
 20
13.643
 30
0.0
 10
-0.4794
 20
13.6333
 30
0.0
 10
-0.5635
 20
13.6152
 30
0.0
 10
-0.5635
 20
13.6152
 30
0.0
 10
-0.6476
 20
13.5964
 30
0.0
 10
-0.7239
 20
13.5725
 30
0.0
 10
-0.7924
 20
13.5434
 30
0.0
 10
-0.7924
 20
13.5434
 30
0.0
 10
-0.861
 20
13.5136
 30
0.0
 10
-0.9186
 20
13.4826
 30
0.0
 10
-0.9645
 20
13.4496
 30
0.0
 10
-0.9645
 20
13.4496
 30
0.0
 10
-0.9645
 20
13.4496
 30
0.0
 10
-0.8714
 20
13.2013
 30
0.0
 10
-0.8714
 20
13.2013
 30
0.0
 10
-0.8714
 20
13.2013
 30
0.0
 10
-0.8345
 20
13.2278
 30
0.0
 10
-0.7899
 20
13.2537
 30
0.0
 10
-0.7368
 20
13.2789
 30
0.0
 10
-0.7368
 20
13.2789
 30
0.0
 10
-0.6844
 20
13.3047
 30
0.0
 10
-0.6262
 20
13.3254
 30
0.0
 10
-0.5628
 20
13.3422
 30
0.0
 10
-0.5628
 20
13.3422
 30
0.0
 10
-0.5001
 20
13.3591
 30
0.0
 10
-0.4348
 20
13.3675
 30
0.0
 10
-0.3669
 20
13.3681
 30
0.0
 10
-0.3669
 20
13.3681
 30
0.0
 10
-0.2621
 20
13.3675
 30
0.0
 10
-0.1774
 20
13.3494
 30
0.0
 10
-0.1127
 20
13.3144
 30
0.0
 10
-0.1127
 20
13.3144
 30
0.0
 10
-0.0474
 20
13.2795
 30
0.0
 10
0.0005
 20
13.2336
 30
0.0
 10
0.0309
 20
13.176
 30
0.0
 10
0.0309
 20
13.176
 30
0.0
 10
0.0613
 20
13.1191
 30
0.0
 10
0.0761
 20
13.0564
 30
0.0
 10
0.0755
 20
12.9878
 30
0.0
 10
0.0755
 20
12.9878
 30
0.0
 10
0.0749
 20
12.9135
 30
0.0
 10
0.0568
 20
12.8488
 30
0.0
 10
0.0225
 20
12.7951
 30
0.0
 10
0.0225
 20
12.7951
 30
0.0
 10
-0.0118
 20
12.7414
 30
0.0
 10
-0.0571
 20
12.6968
 30
0.0
 10
-0.1127
 20
12.6625
 30
0.0
 10
-0.1127
 20
12.6625
 30
0.0
 10
-0.1683
 20
12.6276
 30
0.0
 10
-0.2291
 20
12.6024
 30
0.0
 10
-0.2944
 20
12.5855
 30
0.0
 10
-0.2944
 20
12.5855
 30
0.0
 10
-0.3598
 20
12.5694
 30
0.0
 10
-0.4238
 20
12.561
 30
0.0
 10
-0.4872
 20
12.561
 30
0.0
 10
-0.4872
 20
12.561
 30
0.0
 10
-0.4872
 20
12.561
 30
0.0
 10
-0.6773
 20
12.561
 30
0.0
 10
-0.6773
 20
12.561
 30
0.0
 10
-0.6773
 20
12.561
 30
0.0
 10
-0.6773
 20
12.561
 30
0.0
 10
-0.6773
 20
12.3049
 30
0.0
 10
-0.6773
 20
12.3049
 30
0.0
 10
-0.6773
 20
12.3049
 30
0.0
 10
-0.6773
 20
12.3049
 30
0.0
 10
-0.4872
 20
12.3049
 30
0.0
 10
-0.4872
 20
12.3049
 30
0.0
 10
-0.4872
 20
12.3049
 30
0.0
 10
-0.4037
 20
12.3049
 30
0.0
 10
-0.3235
 20
12.2951
 30
0.0
 10
-0.2466
 20
12.2758
 30
0.0
 10
-0.2466
 20
12.2758
 30
0.0
 10
-0.1696
 20
12.2563
 30
0.0
 10
-0.1004
 20
12.2259
 30
0.0
 10
-0.039
 20
12.1852
 30
0.0
 10
-0.039
 20
12.1852
 30
0.0
 10
0.0225
 20
12.1445
 30
0.0
 10
0.0716
 20
12.0921
 30
0.0
 10
0.1078
 20
12.028
 30
0.0
 10
0.1078
 20
12.028
 30
0.0
 10
0.1441
 20
11.9647
 30
0.0
 10
0.1628
 20
11.8883
 30
0.0
 10
0.1648
 20
11.8004
 30
0.0
 10
0.1648
 20
11.8004
 30
0.0
 10
0.1661
 20
11.7461
 30
0.0
 10
0.1576
 20
11.6904
 30
0.0
 10
0.1382
 20
11.6342
 30
0.0
 10
0.1382
 20
11.6342
 30
0.0
 10
0.1195
 20
11.5772
 30
0.0
 10
0.0878
 20
11.5242
 30
0.0
 10
0.0438
 20
11.4757
 30
0.0
 10
0.0438
 20
11.4757
 30
0.0
 10
-0.0002
 20
11.4272
 30
0.0
 10
-0.059
 20
11.3877
 30
0.0
 10
-0.1327
 20
11.358
 30
0.0
 10
-0.1327
 20
11.358
 30
0.0
 10
-0.2065
 20
11.3276
 30
0.0
 10
-0.297
 20
11.3121
 30
0.0
 10
-0.4057
 20
11.3114
 30
0.0
 10
-0.4057
 20
11.3114
 30
0.0
 10
-0.4865
 20
11.3121
 30
0.0
 10
-0.5635
 20
11.3211
 30
0.0
 10
-0.6359
 20
11.3386
 30
0.0
 10
-0.6359
 20
11.3386
 30
0.0
 10
-0.7084
 20
11.3561
 30
0.0
 10
-0.773
 20
11.3767
 30
0.0
 10
-0.83
 20
11.4007
 30
0.0
 10
-0.83
 20
11.4007
 30
0.0
 10
-0.8869
 20
11.4246
 30
0.0
 10
-0.9315
 20
11.4466
 30
0.0
 10
-0.9645
 20
11.4667
 30
0.0
 10
-0.9645
 20
11.4667
 30
0.0
 10
-0.9645
 20
11.4667
 30
0.0
 10
-1.0576
 20
11.2067
 30
0.0
 10
-1.0576
 20
11.2067
 30
0.0
  0
SPLINE
  5
45
330
1F
100
AcDbEntity
  8
ROUND
 62
   250
100
AcDbSpline
210
0.0
220
0.0
230
1.0
 70
    11
 71
     3
 72
    36
 73
    32
 74
     0
 42
0.0000000001
 43
0.0000000001
 40
0.0
 40
0.0
 40
0.0
 40
0.0
 40
0.1111111111111111
 40
0.1111111111111111
 40
0.1111111111111111
 40
0.1111111111111111
 40
0.2222222222222222
 40
0.2222222222222222
 40
0.2222222222222222
 40
0.2222222222222222
 40
0.3333333333333333
 40
0.3333333333333333
 40
0.3333333333333333
 40
0.3333333333333333
 40
0.4444444444444444
 40
0.4444444444444444
 40
0.4444444444444444
 40
0.4444444444444444
 40
0.5555555555555556
 40
0.5555555555555556
 40
0.5555555555555556
 40
0.5555555555555556
 40
0.6666666666666666
 40
0.6666666666666666
 40
0.6666666666666666
 40
0.6666666666666666
 40
0.7777777777777778
 40
0.7777777777777778
 40
0.7777777777777778
 40
0.7777777777777778
 40
1.0
 40
1.0
 40
1.0
 40
1.0
 10
0.9913
 20
13.6009
 30
0.0
 10
0.9913
 20
13.6009
 30
0.0
 10
0.9913
 20
13.3177
 30
0.0
 10
0.9913
 20
13.3177
 30
0.0
 10
0.9913
 20
13.3177
 30
0.0
 10
0.9913
 20
13.3177
 30
0.0
 10
2.2253
 20
13.3177
 30
0.0
 10
2.2253
 20
13.3177
 30
0.0
 10
2.2253
 20
13.3177
 30
0.0
 10
2.2253
 20
13.3177
 30
0.0
 10
2.2253
 20
13.3099
 30
0.0
 10
2.2253
 20
13.3099
 30
0.0
 10
2.2253
 20
13.3099
 30
0.0
 10
2.2253
 20
13.3099
 30
0.0
 10
1.131
 20
11.0786
 30
0.0
 10
1.131
 20
11.0786
 30
0.0
 10
1.131
 20
11.0786
 30
0.0
 10
1.131
 20
11.0786
 30
0.0
 10
1.4841
 20
11.0786
 30
0.0
 10
1.4841
 20
11.0786
 30
0.0
 10
1.4841
 20
11.0786
 30
0.0
 10
1.4841
 20
11.0786
 30
0.0
 10
2.5823
 20
13.3759
 30
0.0
 10
2.5823
 20
13.3759
 30
0.0
 10
2.5823
 20
13.3759
 30
0.0
 10
2.5823
 20
13.3759
 30
0.0
 10
2.5823
 20
13.6009
 30
0.0
 10
2.5823
 20
13.6009
 30
0.0
 10
2.5823
 20
13.6009
 30
0.0
 10
2.5823
 20
13.6009
 30
0.0
 10
0.9913
 20
13.6009
 30
0.0
 10
0.9913
 20
13.6009
 30
0.0
  0
SPLINE
  5
46
330
1F
100
AcDbEntity
  8
ROUND
 62
   250
100
AcDbSpline
210
0.0
220
0.0
230
1.0
 70
    11
 71
     3
 72
   132
 73
   128
 74
     0
 42
0.0000000001
 43
0.0000000001
 40
0.0
 40
0.0
 40
0.0
 40
0.0
 40
0.0303030303030303
 40
0.0303030303030303
 40
0.0303030303030303
 40
0.0303030303030303
 40
0.0606060606060606
 40
0.0606060606060606
 40
0.0606060606060606
 40
0.0606060606060606
 40
0.0909090909090909
 40
0.0909090909090909
 40
0.0909090909090909
 40
0.0909090909090909
 40
0.1212121212121212
 40
0.1212121212121212
 40
0.1212121212121212
 40
0.1212121212121212
 40
0.1515151515151515
 40
0.1515151515151515
 40
0.1515151515151515
 40
0.1515151515151515
 40
0.1818181818181818
 40
0.1818181818181818
 40
0.1818181818181818
 40
0.1818181818181818
 40
0.2121212121212121
 40
0.2121212121212121
 40
0.2121212121212121
 40
0.2121212121212121
 40
0.2424242424242424
 40
0.2424242424242424
 40
0.2424242424242424
 40
0.2424242424242424
 40
0.2727272727272727
 40
0.2727272727272727
 40
0.2727272727272727
 40
0.2727272727272727
 40
0.303030303030303
 40
0.303030303030303
 40
0.303030303030303
 40
0.303030303030303
 40
0.3333333333333333
 40
0.3333333333333333
 40
0.3333333333333333
 40
0.3333333333333333
 40
0.3636363636363636
 40
0.3636363636363636
 40
0.3636363636363636
 40
0.3636363636363636
 40
0.3939393939393939
 40
0.3939393939393939
 40
0.3939393939393939
 40
0.3939393939393939
 40
0.4242424242424243
 40
0.4242424242424243
 40
0.4242424242424243
 40
0.4242424242424243
 40
0.4545454545454545
 40
0.4545454545454545
 40
0.4545454545454545
 40
0.4545454545454545
 40
0.4848484848484849
 40
0.4848484848484849
 40
0.4848484848484849
 40
0.4848484848484849
 40
0.5151515151515151
 40
0.5151515151515151
 40
0.5151515151515151
 40
0.5151515151515151
 40
0.5454545454545454
 40
0.5454545454545454
 40
0.5454545454545454
 40
0.5454545454545454
 40
0.5757575757575758
 40
0.5757575757575758
 40
0.5757575757575758
 40
0.5757575757575758
 40
0.6060606060606061
 40
0.6060606060606061
 40
0.6060606060606061
 40
0.6060606060606061
 40
0.6363636363636364
 40
0.6363636363636364
 40
0.6363636363636364
 40
0.6363636363636364
 40
0.6666666666666666
 40
0.6666666666666666
 40
0.6666666666666666
 40
0.6666666666666666
 40
0.696969696969697
 40
0.696969696969697
 40
0.696969696969697
 40
0.696969696969697
 40
0.7272727272727273
 40
0.7272727272727273
 40
0.7272727272727273
 40
0.7272727272727273
 40
0.7575757575757576
 40
0.7575757575757576
 40
0.7575757575757576
 40
0.7575757575757576
 40
0.7878787878787878
 40
0.7878787878787878
 40
0.7878787878787878
 40
0.7878787878787878
 40
0.8181818181818182
 40
0.8181818181818182
 40
0.8181818181818182
 40
0.8181818181818182
 40
0.8484848484848485
 40
0.8484848484848485
 40
0.8484848484848485
 40
0.8484848484848485
 40
0.8787878787878788
 40
0.8787878787878788
 40
0.8787878787878788
 40
0.8787878787878788
 40
0.9090909090909091
 40
0.9090909090909091
 40
0.9090909090909091
 40
0.9090909090909091
 40
0.9393939393939394
 40
0.9393939393939394
 40
0.9393939393939394
 40
0.9393939393939394
 40
1.0
 40
1.0
 40
1.0
 40
1.0
 10
4.4411
 20
13.6009
 30
0.0
 10
4.4411
 20
13.6009
 30
0.0
 10
3.2343
 20
13.6009
 30
0.0
 10
3.2343
 20
13.6009
 30
0.0
 10
3.2343
 20
13.6009
 30
0.0
 10
3.2343
 20
13.6009
 30
0.0
 10
3.0713
 20
12.3902
 30
0.0
 10
3.0713
 20
12.3902
 30
0.0
 10
3.0713
 20
12.3902
 30
0.0
 10
3.1178
 20
12.3967
 30
0.0
 10
3.1696
 20
12.4019
 30
0.0
 10
3.2278
 20
12.4064
 30
0.0
 10
3.2278
 20
12.4064
 30
0.0
 10
3.2853
 20
12.4109
 30
0.0
 10
3.3513
 20
12.4135
 30
0.0
 10
3.4244
 20
12.4135
 30
0.0
 10
3.4244
 20
12.4135
 30
0.0
 10
3.5913
 20
12.4129
 30
0.0
 10
3.7277
 20
12.3889
 30
0.0
 10
3.8338
 20
12.3424
 30
0.0
 10
3.8338
 20
12.3424
 30
0.0
 10
3.9405
 20
12.2951
 30
0.0
 10
4.0194
 20
12.2305
 30
0.0
 10
4.0705
 20
12.1477
 30
0.0
 10
4.0705
 20
12.1477
 30
0.0
 10
4.1216
 20
12.0643
 30
0.0
 10
4.1468
 20
11.9679
 30
0.0
 10
4.1462
 20
11.8586
 30
0.0
 10
4.1462
 20
11.8586
 30
0.0
 10
4.1468
 20
11.7739
 30
0.0
 10
4.1313
 20
11.6982
 30
0.0
 10
4.0996
 20
11.6309
 30
0.0
 10
4.0996
 20
11.6309
 30
0.0
 10
4.0686
 20
11.563
 30
0.0
 10
4.0252
 20
11.5061
 30
0.0
 10
3.9703
 20
11.4582
 30
0.0
 10
3.9703
 20
11.4582
 30
0.0
 10
3.9153
 20
11.411
 30
0.0
 10
3.8519
 20
11.3748
 30
0.0
 10
3.7801
 20
11.3496
 30
0.0
 10
3.7801
 20
11.3496
 30
0.0
 10
3.7083
 20
11.3244
 30
0.0
 10
3.6327
 20
11.3114
 30
0.0
 10
3.5525
 20
11.3114
 30
0.0
 10
3.5525
 20
11.3114
 30
0.0
 10
3.4742
 20
11.3121
 30
0.0
 10
3.4005
 20
11.3192
 30
0.0
 10
3.3313
 20
11.3341
 30
0.0
 10
3.3313
 20
11.3341
 30
0.0
 10
3.2621
 20
11.3483
 30
0.0
 10
3.2
 20
11.3658
 30
0.0
 10
3.145
 20
11.3871
 30
0.0
 10
3.145
 20
11.3871
 30
0.0
 10
3.09
 20
11.4085
 30
0.0
 10
3.0448
 20
11.4298
 30
0.0
 10
3.0092
 20
11.4511
 30
0.0
 10
3.0092
 20
11.4511
 30
0.0
 10
3.0092
 20
11.4511
 30
0.0
 10
2.9238
 20
11.1911
 30
0.0
 10
2.9238
 20
11.1911
 30
0.0
 10
2.9238
 20
11.1911
 30
0.0
 10
2.9659
 20
11.1646
 30
0.0
 10
3.0182
 20
11.14
 30
0.0
 10
3.081
 20
11.1161
 30
0.0
 10
3.081
 20
11.1161
 30
0.0
 10
3.1437
 20
11.0928
 30
0.0
 10
3.2149
 20
11.0741
 30
0.0
 10
3.2944
 20
11.0592
 30
0.0
 10
3.2944
 20
11.0592
 30
0.0
 10
3.3746
 20
11.0443
 30
0.0
 10
3.4606
 20
11.0366
 30
0.0
 10
3.5525
 20
11.0359
 30
0.0
 10
3.5525
 20
11.0359
 30
0.0
 10
3.6902
 20
11.0366
 30
0.0
 10
3.8157
 20
11.0585
 30
0.0
 10
3.9302
 20
11.1012
 30
0.0
 10
3.9302
 20
11.1012
 30
0.0
 10
4.0446
 20
11.1439
 30
0.0
 10
4.1436
 20
11.2041
 30
0.0
 10
4.227
 20
11.2817
 30
0.0
 10
4.227
 20
11.2817
 30
0.0
 10
4.3111
 20
11.3593
 30
0.0
 10
4.3758
 20
11.4505
 30
0.0
 10
4.4217
 20
11.5546
 30
0.0
 10
4.4217
 20
11.5546
 30
0.0
 10
4.4676
 20
11.6594
 30
0.0
 10
4.4909
 20
11.7739
 30
0.0
 10
4.4915
 20
11.8974
 30
0.0
 10
4.4915
 20
11.8974
 30
0.0
 10
4.4909
 20
12.0022
 30
0.0
 10
4.4741
 20
12.0966
 30
0.0
 10
4.4418
 20
12.18
 30
0.0
 10
4.4418
 20
12.18
 30
0.0
 10
4.4094
 20
12.2635
 30
0.0
 10
4.3667
 20
12.3352
 30
0.0
 10
4.3124
 20
12.3961
 30
0.0
 10
4.3124
 20
12.3961
 30
0.0
 10
4.2581
 20
12.4568
 30
0.0
 10
4.1973
 20
12.5054
 30
0.0
 10
4.1307
 20
12.5416
 30
0.0
 10
4.1307
 20
12.5416
 30
0.0
 10
4.0524
 20
12.5894
 30
0.0
 10
3.9677
 20
12.6243
 30
0.0
 10
3.8752
 20
12.6457
 30
0.0
 10
3.8752
 20
12.6457
 30
0.0
 10
3.7827
 20
12.667
 30
0.0
 10
3.687
 20
12.678
 30
0.0
 10
3.5874
 20
12.6774
 30
0.0
 10
3.5874
 20
12.6774
 30
0.0
 10
3.5421
 20
12.6774
 30
0.0
 10
3.5033
 20
12.6767
 30
0.0
 10
3.4716
 20
12.6748
 30
0.0
 10
3.4716
 20
12.6748
 30
0.0
 10
3.4399
 20
12.6729
 30
0.0
 10
3.4102
 20
12.6696
 30
0.0
 10
3.3817
 20
12.6657
 30
0.0
 10
3.3817
 20
12.6657
 30
0.0
 10
3.3817
 20
12.6657
 30
0.0
 10
3.4787
 20
13.3138
 30
0.0
 10
3.4787
 20
13.3138
 30
0.0
 10
3.4787
 20
13.3138
 30
0.0
 10
3.4787
 20
13.3138
 30
0.0
 10
4.4411
 20
13.3138
 30
0.0
 10
4.4411
 20
13.3138
 30
0.0
 10
4.4411
 20
13.3138
 30
0.0
 10
4.4411
 20
13.3138
 30
0.0
 10
4.4411
 20
13.6009
 30
0.0
 10
4.4411
 20
13.6009
 30
0.0
  0
SPLINE
  5
47
330
1F
100
AcDbEntity
  8
ROUND
 62
   250
370
    15
100
AcDbSpline
210
0.0
220
0.0
230
1.0
 70
    24
 71
     3
 72
     8
 73
     4
 74
     0
 42
0.0000000001
 43
0.0000000001
 40
0.0
 40
0.0
 40
0.0
 40
0.0
 40
1.0
 40
1.0
 40
1.0
 40
1.0
 10
-40.1278
 20
10.4364
 30
0.0
 10
-40.1278
 20
10.4364
 30
0.0
 10
40.6723
 20
10.4364
 30
0.0
 10
40.6723
 20
10.4364
 30
0.0
  0
SPLINE
  5
48
330
1F
100
AcDbEntity
  8
ROUND
 62
   250
370
    15
100
AcDbSpline
210
0.0
220
0.0
230
1.0
 70
    24
 71
     3
 72
     8
 73
     4
 74
     0
 42
0.0000000001
 43
0.0000000001
 40
0.0
 40
0.0
 40
0.0
 40
0.0
 40
1.0
 40
1.0
 40
1.0
 40
1.0
 10
14.1082
 20
-13.6436
 30
0.0
 10
14.1082
 20
-13.6436
 30
0.0
 10
14.1082
 20
9.2868
 30
0.0
 10
14.1082
 20
9.2868
 30
0.0
  0
SPLINE
  5
49
330
1F
100
AcDbEntity
  8
ROUND
 62
   250
100
AcDbSpline
210
0.0
220
0.0
230
1.0
 70
    11
 71
     3
 72
   104
 73
   100
 74
     0
 42
0.0000000001
 43
0.0000000001
 40
0.0
 40
0.0
 40
0.0
 40
0.0
 40
0.0384615384615385
 40
0.0384615384615385
 40
0.0384615384615385
 40
0.0384615384615385
 40
0.0769230769230769
 40
0.0769230769230769
 40
0.0769230769230769
 40
0.0769230769230769
 40
0.1153846153846154
 40
0.1153846153846154
 40
0.1153846153846154
 40
0.1153846153846154
 40
0.1538461538461539
 40
0.1538461538461539
 40
0.1538461538461539
 40
0.1538461538461539
 40
0.1923076923076923
 40
0.1923076923076923
 40
0.1923076923076923
 40
0.1923076923076923
 40
0.2307692307692308
 40
0.2307692307692308
 40
0.2307692307692308
 40
0.2307692307692308
 40
0.2692307692307692
 40
0.2692307692307692
 40
0.2692307692307692
 40
0.2692307692307692
 40
0.3076923076923077
 40
0.3076923076923077
 40
0.3076923076923077
 40
0.3076923076923077
 40
0.3461538461538461
 40
0.3461538461538461
 40
0.3461538461538461
 40
0.3461538461538461
 40
0.3846153846153846
 40
0.3846153846153846
 40
0.3846153846153846
 40
0.3846153846153846
 40
0.4230769230769231
 40
0.4230769230769231
 40
0.4230769230769231
 40
0.4230769230769231
 40
0.4615384615384616
 40
0.4615384615384616
 40
0.4615384615384616
 40
0.4615384615384616
 40
0.5
 40
0.5
 40
0.5
 40
0.5
 40
0.5384615384615384
 40
0.5384615384615384
 40
0.5384615384615384
 40
0.5384615384615384
 40
0.5769230769230769
 40
0.5769230769230769
 40
0.5769230769230769
 40
0.5769230769230769
 40
0.6153846153846154
 40
0.6153846153846154
 40
0.6153846153846154
 40
0.6153846153846154
 40
0.6538461538461539
 40
0.6538461538461539
 40
0.6538461538461539
 40
0.6538461538461539
 40
0.6923076923076923
 40
0.6923076923076923
 40
0.6923076923076923
 40
0.6923076923076923
 40
0.7307692307692307
 40
0.7307692307692307
 40
0.7307692307692307
 40
0.7307692307692307
 40
0.7692307692307693
 40
0.7692307692307693
 40
0.7692307692307693
 40
0.7692307692307693
 40
0.8076923076923077
 40
0.8076923076923077
 40
0.8076923076923077
 40
0.8076923076923077
 40
0.8461538461538461
 40
0.8461538461538461
 40
0.8461538461538461
 40
0.8461538461538461
 40
0.8846153846153846
 40
0.8846153846153846
 40
0.8846153846153846
 40
0.8846153846153846
 40
0.9230769230769231
 40
0.9230769230769231
 40
0.9230769230769231
 40
0.9230769230769231
 40
1.0
 40
1.0
 40
1.0
 40
1.0
 10
13.5083
 20
2.8655
 30
0.0
 10
13.5083
 20
2.8655
 30
0.0
 10
13.1745
 20
3.11
 30
0.0
 10
13.1745
 20
3.11
 30
0.0
 10
13.1745
 20
3.11
 30
0.0
 10
13.2424
 20
3.2038
 30
0.0
 10
13.2948
 20
3.3066
 30
0.0
 10
13.3304
 20
3.4178
 30
0.0
 10
13.3304
 20
3.4178
 30
0.0
 10
13.366
 20
3.5297
 30
0.0
 10
13.3841
 20
3.6468
 30
0.0
 10
13.3841
 20
3.7697
 30
0.0
 10
13.3841
 20
3.7697
 30
0.0
 10
13.3841
 20
3.8958
 30
0.0
 10
13.3653
 20
4.018
 30
0.0
 10
13.3285
 20
4.1351
 30
0.0
 10
13.3285
 20
4.1351
 30
0.0
 10
13.2916
 20
4.2522
 30
0.0
 10
13.2366
 20
4.3608
 30
0.0
 10
13.1629
 20
4.4604
 30
0.0
 10
13.1629
 20
4.4604
 30
0.0
 10
13.0898
 20
4.5607
 30
0.0
 10
12.998
 20
4.648
 30
0.0
 10
12.888
 20
4.723
 30
0.0
 10
12.888
 20
4.723
 30
0.0
 10
12.7781
 20
4.7974
 30
0.0
 10
12.65
 20
4.8556
 30
0.0
 10
12.5032
 20
4.8976
 30
0.0
 10
12.5032
 20
4.8976
 30
0.0
 10
12.357
 20
4.939
 30
0.0
 10
12.1928
 20
4.9604
 30
0.0
 10
12.0104
 20
4.961
 30
0.0
 10
12.0104
 20
4.961
 30
0.0
 10
11.8817
 20
4.961
 30
0.0
 10
11.7594
 20
4.9481
 30
0.0
 10
11.643
 20
4.9216
 30
0.0
 10
11.643
 20
4.9216
 30
0.0
 10
11.526
 20
4.8957
 30
0.0
 10
11.4173
 20
4.8575
 30
0.0
 10
11.317
 20
4.8077
 30
0.0
 10
11.317
 20
4.8077
 30
0.0
 10
11.2168
 20
4.7573
 30
0.0
 10
11.1275
 20
4.6958
 30
0.0
 10
11.048
 20
4.6234
 30
0.0
 10
11.048
 20
4.6234
 30
0.0
 10
11.048
 20
4.6234
 30
0.0
 10
10.7143
 20
4.864
 30
0.0
 10
10.7143
 20
4.864
 30
0.0
 10
10.7143
 20
4.864
 30
0.0
 10
10.7143
 20
4.864
 30
0.0
 10
10.5746
 20
4.6583
 30
0.0
 10
10.5746
 20
4.6583
 30
0.0
 10
10.5746
 20
4.6583
 30
0.0
 10
10.5746
 20
4.6583
 30
0.0
 10
10.8889
 20
4.4294
 30
0.0
 10
10.8889
 20
4.4294
 30
0.0
 10
10.8889
 20
4.4294
 30
0.0
 10
10.8191
 20
4.3356
 30
0.0
 10
10.7667
 20
4.2341
 30
0.0
 10
10.7317
 20
4.1241
 30
0.0
 10
10.7317
 20
4.1241
 30
0.0
 10
10.6968
 20
4.0135
 30
0.0
 10
10.6793
 20
3.8984
 30
0.0
 10
10.6793
 20
3.7775
 30
0.0
 10
10.6793
 20
3.7775
 30
0.0
 10
10.68
 20
3.6048
 30
0.0
 10
10.7123
 20
3.4457
 30
0.0
 10
10.7764
 20
3.2988
 30
0.0
 10
10.7764
 20
3.2988
 30
0.0
 10
10.8404
 20
3.1527
 30
0.0
 10
10.9329
 20
3.0253
 30
0.0
 10
11.0525
 20
2.9166
 30
0.0
 10
11.0525
 20
2.9166
 30
0.0
 10
11.1722
 20
2.8073
 30
0.0
 10
11.3157
 20
2.7232
 30
0.0
 10
11.4833
 20
2.6624
 30
0.0
 10
11.4833
 20
2.6624
 30
0.0
 10
11.6508
 20
2.6023
 30
0.0
 10
11.8377
 20
2.5713
 30
0.0
 10
12.0453
 20
2.5706
 30
0.0
 10
12.0453
 20
2.5706
 30
0.0
 10
12.176
 20
2.5706
 30
0.0
 10
12.3008
 20
2.5848
 30
0.0
 10
12.4185
 20
2.612
 30
0.0
 10
12.4185
 20
2.612
 30
0.0
 10
12.5362
 20
2.6392
 30
0.0
 10
12.6455
 20
2.6786
 30
0.0
 10
12.7457
 20
2.7297
 30
0.0
 10
12.7457
 20
2.7297
 30
0.0
 10
12.846
 20
2.7814
 30
0.0
 10
12.9359
 20
2.8435
 30
0.0
 10
13.0154
 20
2.916
 30
0.0
 10
13.0154
 20
2.916
 30
0.0
 10
13.0154
 20
2.916
 30
0.0
 10
13.353
 20
2.6754
 30
0.0
 10
13.353
 20
2.6754
 30
0.0
 10
13.353
 20
2.6754
 30
0.0
 10
13.353
 20
2.6754
 30
0.0
 10
13.5083
 20
2.8655
 30
0.0
 10
13.5083
 20
2.8655
 30
0.0
  0
SPLINE
  5
4A
330
1F
100
AcDbEntity
  8
ROUND
 62
   250
100
AcDbSpline
210
0.0
220
0.0
230
1.0
 70
    11
 71
     3
 72
    52
 73
    48
 74
     0
 42
0.0000000001
 43
0.0000000001
 40
0.0
 40
0.0
 40
0.0
 40
0.0
 40
0.0769230769230769
 40
0.0769230769230769
 40
0.0769230769230769
 40
0.0769230769230769
 40
0.1538461538461539
 40
0.1538461538461539
 40
0.1538461538461539
 40
0.1538461538461539
 40
0.2307692307692308
 40
0.2307692307692308
 40
0.2307692307692308
 40
0.2307692307692308
 40
0.3076923076923077
 40
0.3076923076923077
 40
0.3076923076923077
 40
0.3076923076923077
 40
0.3846153846153846
 40
0.3846153846153846
 40
0.3846153846153846
 40
0.3846153846153846
 40
0.4615384615384616
 40
0.4615384615384616
 40
0.4615384615384616
 40
0.4615384615384616
 40
0.5384615384615384
 40
0.5384615384615384
 40
0.5384615384615384
 40
0.5384615384615384
 40
0.6153846153846154
 40
0.6153846153846154
 40
0.6153846153846154
 40
0.6153846153846154
 40
0.6923076923076923
 40
0.6923076923076923
 40
0.6923076923076923
 40
0.6923076923076923
 40
0.7692307692307693
 40
0.7692307692307693
 40
0.7692307692307693
 40
0.7692307692307693
 40
0.8461538461538461
 40
0.8461538461538461
 40
0.8461538461538461
 40
0.8461538461538461
 40
1.0
 40
1.0
 40
1.0
 40
1.0
 10
12.7283
 20
3.1139
 30
0.0
 10
12.7283
 20
3.1139
 30
0.0
 10
12.7322
 20
3.1061
 30
0.0
 10
12.7322
 20
3.1061
 30
0.0
 10
12.7322
 20
3.1061
 30
0.0
 10
12.6655
 20
3.0673
 30
0.0
 10
12.5963
 20
3.0337
 30
0.0
 10
12.5252
 20
3.0052
 30
0.0
 10
12.5252
 20
3.0052
 30
0.0
 10
12.4534
 20
2.9768
 30
0.0
 10
12.3777
 20
2.9548
 30
0.0
 10
12.2962
 20
2.9393
 30
0.0
 10
12.2962
 20
2.9393
 30
0.0
 10
12.2154
 20
2.9237
 30
0.0
 10
12.1261
 20
2.916
 30
0.0
 10
12.0298
 20
2.916
 30
0.0
 10
12.0298
 20
2.916
 30
0.0
 10
11.9185
 20
2.916
 30
0.0
 10
11.8112
 20
2.9276
 30
0.0
 10
11.7057
 20
2.9503
 30
0.0
 10
11.7057
 20
2.9503
 30
0.0
 10
11.601
 20
2.9735
 30
0.0
 10
11.5027
 20
3.0078
 30
0.0
 10
11.4121
 20
3.0531
 30
0.0
 10
11.4121
 20
3.0531
 30
0.0
 10
11.3209
 20
3.099
 30
0.0
 10
11.2407
 20
3.1559
 30
0.0
 10
11.1722
 20
3.2245
 30
0.0
 10
11.1722
 20
3.2245
 30
0.0
 10
11.103
 20
3.293
 30
0.0
 10
11.0493
 20
3.3726
 30
0.0
 10
11.0105
 20
3.4631
 30
0.0
 10
11.0105
 20
3.4631
 30
0.0
 10
10.971
 20
3.5543
 30
0.0
 10
10.9516
 20
3.6565
 30
0.0
 10
10.951
 20
3.7697
 30
0.0
 10
10.951
 20
3.7697
 30
0.0
 10
10.9516
 20
3.8686
 30
0.0
 10
10.9678
 20
3.9592
 30
0.0
 10
11.0001
 20
4.0407
 30
0.0
 10
11.0001
 20
4.0407
 30
0.0
 10
11.0318
 20
4.1228
 30
0.0
 10
11.0765
 20
4.1966
 30
0.0
 10
11.1334
 20
4.2625
 30
0.0
 10
11.1334
 20
4.2625
 30
0.0
 10
11.1334
 20
4.2625
 30
0.0
 10
12.7283
 20
3.1139
 30
0.0
 10
12.7283
 20
3.1139
 30
0.0
  0
SPLINE
  5
4B
330
1F
100
AcDbEntity
  8
ROUND
 62
   250
100
AcDbSpline
210
0.0
220
0.0
230
1.0
 70
    11
 71
     3
 72
    48
 73
    44
 74
     0
 42
0.0000000001
 43
0.0000000001
 40
0.0
 40
0.0
 40
0.0
 40
0.0
 40
0.0833333333333333
 40
0.0833333333333333
 40
0.0833333333333333
 40
0.0833333333333333
 40
0.1666666666666667
 40
0.1666666666666667
 40
0.1666666666666667
 40
0.1666666666666667
 40
0.25
 40
0.25
 40
0.25
 40
0.25
 40
0.3333333333333333
 40
0.3333333333333333
 40
0.3333333333333333
 40
0.3333333333333333
 40
0.4166666666666667
 40
0.4166666666666667
 40
0.4166666666666667
 40
0.4166666666666667
 40
0.5
 40
0.5
 40
0.5
 40
0.5
 40
0.5833333333333334
 40
0.5833333333333334
 40
0.5833333333333334
 40
0.5833333333333334
 40
0.6666666666666666
 40
0.6666666666666666
 40
0.6666666666666666
 40
0.6666666666666666
 40
0.75
 40
0.75
 40
0.75
 40
0.75
 40
0.8333333333333334
 40
0.8333333333333334
 40
0.8333333333333334
 40
0.8333333333333334
 40
1.0
 40
1.0
 40
1.0
 40
1.0
 10
11.339
 20
4.4216
 30
0.0
 10
11.339
 20
4.4216
 30
0.0
 10
11.339
 20
4.4333
 30
0.0
 10
11.339
 20
4.4333
 30
0.0
 10
11.339
 20
4.4333
 30
0.0
 10
11.4516
 20
4.5005
 30
0.0
 10
11.5654
 20
4.5477
 30
0.0
 10
11.6805
 20
4.5755
 30
0.0
 10
11.6805
 20
4.5755
 30
0.0
 10
11.795
 20
4.6034
 30
0.0
 10
11.9088
 20
4.6169
 30
0.0
 10
12.022
 20
4.6156
 30
0.0
 10
12.022
 20
4.6156
 30
0.0
 10
12.1397
 20
4.6156
 30
0.0
 10
12.2523
 20
4.6034
 30
0.0
 10
12.3603
 20
4.5794
 30
0.0
 10
12.3603
 20
4.5794
 30
0.0
 10
12.4683
 20
4.5555
 30
0.0
 10
12.5679
 20
4.5199
 30
0.0
 10
12.6591
 20
4.4734
 30
0.0
 10
12.6591
 20
4.4734
 30
0.0
 10
12.7503
 20
4.4261
 30
0.0
 10
12.8298
 20
4.3686
 30
0.0
 10
12.8971
 20
4.3
 30
0.0
 10
12.8971
 20
4.3
 30
0.0
 10
12.965
 20
4.2308
 30
0.0
 10
13.018
 20
4.1519
 30
0.0
 10
13.0555
 20
4.0627
 30
0.0
 10
13.0555
 20
4.0627
 30
0.0
 10
13.093
 20
3.9734
 30
0.0
 10
13.1118
 20
3.8745
 30
0.0
 10
13.1125
 20
3.7658
 30
0.0
 10
13.1125
 20
3.7658
 30
0.0
 10
13.1125
 20
3.6604
 30
0.0
 10
13.0963
 20
3.5679
 30
0.0
 10
13.0646
 20
3.4896
 30
0.0
 10
13.0646
 20
3.4896
 30
0.0
 10
13.0329
 20
3.4107
 30
0.0
 10
12.9863
 20
3.3402
 30
0.0
 10
12.9262
 20
3.2769
 30
0.0
 10
12.9262
 20
3.2769
 30
0.0
 10
12.9262
 20
3.2769
 30
0.0
 10
11.339
 20
4.4216
 30
0.0
 10
11.339
 20
4.4216
 30
0.0
  0
SPLINE
  5
4C
330
1F
100
AcDbEntity
  8
ROUND
 62
   250
100
AcDbSpline
210
0.0
220
0.0
230
1.0
 70
    11
 71
     3
 72
    48
 73
    44
 74
     0
 42
0.0000000001
 43
0.0000000001
 40
0.0
 40
0.0
 40
0.0
 40
0.0
 40
0.0833333333333333
 40
0.0833333333333333
 40
0.0833333333333333
 40
0.0833333333333333
 40
0.1666666666666667
 40
0.1666666666666667
 40
0.1666666666666667
 40
0.1666666666666667
 40
0.25
 40
0.25
 40
0.25
 40
0.25
 40
0.3333333333333333
 40
0.3333333333333333
 40
0.3333333333333333
 40
0.3333333333333333
 40
0.4166666666666667
 40
0.4166666666666667
 40
0.4166666666666667
 40
0.4166666666666667
 40
0.5
 40
0.5
 40
0.5
 40
0.5
 40
0.5833333333333334
 40
0.5833333333333334
 40
0.5833333333333334
 40
0.5833333333333334
 40
0.6666666666666666
 40
0.6666666666666666
 40
0.6666666666666666
 40
0.6666666666666666
 40
0.75
 40
0.75
 40
0.75
 40
0.75
 40
0.8333333333333334
 40
0.8333333333333334
 40
0.8333333333333334
 40
0.8333333333333334
 40
1.0
 40
1.0
 40
1.0
 40
1.0
 10
13.3414
 20
6.6568
 30
0.0
 10
13.3414
 20
6.6568
 30
0.0
 10
12.6507
 20
6.6568
 30
0.0
 10
12.6507
 20
6.6568
 30
0.0
 10
12.6507
 20
6.6568
 30
0.0
 10
12.6507
 20
6.6568
 30
0.0
 10
12.6507
 20
7.01
 30
0.0
 10
12.6507
 20
7.01
 30
0.0
 10
12.6507
 20
7.01
 30
0.0
 10
12.6507
 20
7.01
 30
0.0
 10
12.3868
 20
7.01
 30
0.0
 10
12.3868
 20
7.01
 30
0.0
 10
12.3868
 20
7.01
 30
0.0
 10
12.3868
 20
7.01
 30
0.0
 10
12.3868
 20
6.6568
 30
0.0
 10
12.3868
 20
6.6568
 30
0.0
 10
12.3868
 20
6.6568
 30
0.0
 10
12.3868
 20
6.6568
 30
0.0
 10
10.8191
 20
6.6568
 30
0.0
 10
10.8191
 20
6.6568
 30
0.0
 10
10.8191
 20
6.6568
 30
0.0
 10
10.8191
 20
6.6568
 30
0.0
 10
10.8191
 20
6.2882
 30
0.0
 10
10.8191
 20
6.2882
 30
0.0
 10
10.8191
 20
6.2882
 30
0.0
 10
10.8191
 20
6.2882
 30
0.0
 10
12.4295
 20
5.1628
 30
0.0
 10
12.4295
 20
5.1628
 30
0.0
 10
12.4295
 20
5.1628
 30
0.0
 10
12.4295
 20
5.1628
 30
0.0
 10
12.6507
 20
5.1628
 30
0.0
 10
12.6507
 20
5.1628
 30
0.0
 10
12.6507
 20
5.1628
 30
0.0
 10
12.6507
 20
5.1628
 30
0.0
 10
12.6507
 20
6.3347
 30
0.0
 10
12.6507
 20
6.3347
 30
0.0
 10
12.6507
 20
6.3347
 30
0.0
 10
12.6507
 20
6.3347
 30
0.0
 10
13.3414
 20
6.3347
 30
0.0
 10
13.3414
 20
6.3347
 30
0.0
 10
13.3414
 20
6.3347
 30
0.0
 10
13.3414
 20
6.3347
 30
0.0
 10
13.3414
 20
6.6568
 30
0.0
 10
13.3414
 20
6.6568
 30
0.0
  0
SPLINE
  5
4D
330
1F
100
AcDbEntity
  8
ROUND
 62
   250
100
AcDbSpline
210
0.0
220
0.0
230
1.0
 70
    11
 71
     3
 72
    36
 73
    32
 74
     0
 42
0.0000000001
 43
0.0000000001
 40
0.0
 40
0.0
 40
0.0
 40
0.0
 40
0.1111111111111111
 40
0.1111111111111111
 40
0.1111111111111111
 40
0.1111111111111111
 40
0.2222222222222222
 40
0.2222222222222222
 40
0.2222222222222222
 40
0.2222222222222222
 40
0.3333333333333333
 40
0.3333333333333333
 40
0.3333333333333333
 40
0.3333333333333333
 40
0.4444444444444444
 40
0.4444444444444444
 40
0.4444444444444444
 40
0.4444444444444444
 40
0.5555555555555556
 40
0.5555555555555556
 40
0.5555555555555556
 40
0.5555555555555556
 40
0.6666666666666666
 40
0.6666666666666666
 40
0.6666666666666666
 40
0.6666666666666666
 40
0.7777777777777778
 40
0.7777777777777778
 40
0.7777777777777778
 40
0.7777777777777778
 40
1.0
 40
1.0
 40
1.0
 40
1.0
 10
12.3868
 20
5.5082
 30
0.0
 10
12.3868
 20
5.5082
 30
0.0
 10
12.379
 20
5.5082
 30
0.0
 10
12.379
 20
5.5082
 30
0.0
 10
12.379
 20
5.5082
 30
0.0
 10
12.379
 20
5.5082
 30
0.0
 10
11.5214
 20
6.1252
 30
0.0
 10
11.5214
 20
6.1252
 30
0.0
 10
11.5214
 20
6.1252
 30
0.0
 10
11.4639
 20
6.1595
 30
0.0
 10
11.4057
 20
6.1937
 30
0.0
 10
11.3468
 20
6.2274
 30
0.0
 10
11.3468
 20
6.2274
 30
0.0
 10
11.2873
 20
6.2604
 30
0.0
 10
11.2213
 20
6.2966
 30
0.0
 10
11.1489
 20
6.3347
 30
0.0
 10
11.1489
 20
6.3347
 30
0.0
 10
11.1489
 20
6.3347
 30
0.0
 10
11.1489
 20
6.3464
 30
0.0
 10
11.1489
 20
6.3464
 30
0.0
 10
11.1489
 20
6.3464
 30
0.0
 10
11.2808
 20
6.3386
 30
0.0
 10
11.4128
 20
6.3347
 30
0.0
 10
11.5447
 20
6.3347
 30
0.0
 10
11.5447
 20
6.3347
 30
0.0
 10
11.5447
 20
6.3347
 30
0.0
 10
12.3868
 20
6.3347
 30
0.0
 10
12.3868
 20
6.3347
 30
0.0
 10
12.3868
 20
6.3347
 30
0.0
 10
12.3868
 20
6.3347
 30
0.0
 10
12.3868
 20
5.5082
 30
0.0
 10
12.3868
 20
5.5082
 30
0.0
  0
SPLINE
  5
4E
330
1F
100
AcDbEntity
  8
ROUND
 62
   250
100
AcDbSpline
210
0.0
220
0.0
230
1.0
 70
    11
 71
     3
 72
   132
 73
   128
 74
     0
 42
0.0000000001
 43
0.0000000001
 40
0.0
 40
0.0
 40
0.0
 40
0.0
 40
0.0303030303030303
 40
0.0303030303030303
 40
0.0303030303030303
 40
0.0303030303030303
 40
0.0606060606060606
 40
0.0606060606060606
 40
0.0606060606060606
 40
0.0606060606060606
 40
0.0909090909090909
 40
0.0909090909090909
 40
0.0909090909090909
 40
0.0909090909090909
 40
0.1212121212121212
 40
0.1212121212121212
 40
0.1212121212121212
 40
0.1212121212121212
 40
0.1515151515151515
 40
0.1515151515151515
 40
0.1515151515151515
 40
0.1515151515151515
 40
0.1818181818181818
 40
0.1818181818181818
 40
0.1818181818181818
 40
0.1818181818181818
 40
0.2121212121212121
 40
0.2121212121212121
 40
0.2121212121212121
 40
0.2121212121212121
 40
0.2424242424242424
 40
0.2424242424242424
 40
0.2424242424242424
 40
0.2424242424242424
 40
0.2727272727272727
 40
0.2727272727272727
 40
0.2727272727272727
 40
0.2727272727272727
 40
0.303030303030303
 40
0.303030303030303
 40
0.303030303030303
 40
0.303030303030303
 40
0.3333333333333333
 40
0.3333333333333333
 40
0.3333333333333333
 40
0.3333333333333333
 40
0.3636363636363636
 40
0.3636363636363636
 40
0.3636363636363636
 40
0.3636363636363636
 40
0.3939393939393939
 40
0.3939393939393939
 40
0.3939393939393939
 40
0.3939393939393939
 40
0.4242424242424243
 40
0.4242424242424243
 40
0.4242424242424243
 40
0.4242424242424243
 40
0.4545454545454545
 40
0.4545454545454545
 40
0.4545454545454545
 40
0.4545454545454545
 40
0.4848484848484849
 40
0.4848484848484849
 40
0.4848484848484849
 40
0.4848484848484849
 40
0.5151515151515151
 40
0.5151515151515151
 40
0.5151515151515151
 40
0.5151515151515151
 40
0.5454545454545454
 40
0.5454545454545454
 40
0.5454545454545454
 40
0.5454545454545454
 40
0.5757575757575758
 40
0.5757575757575758
 40
0.5757575757575758
 40
0.5757575757575758
 40
0.6060606060606061
 40
0.6060606060606061
 40
0.6060606060606061
 40
0.6060606060606061
 40
0.6363636363636364
 40
0.6363636363636364
 40
0.6363636363636364
 40
0.6363636363636364
 40
0.6666666666666666
 40
0.6666666666666666
 40
0.6666666666666666
 40
0.6666666666666666
 40
0.696969696969697
 40
0.696969696969697
 40
0.696969696969697
 40
0.696969696969697
 40
0.7272727272727273
 40
0.7272727272727273
 40
0.7272727272727273
 40
0.7272727272727273
 40
0.7575757575757576
 40
0.7575757575757576
 40
0.7575757575757576
 40
0.7575757575757576
 40
0.7878787878787878
 40
0.7878787878787878
 40
0.7878787878787878
 40
0.7878787878787878
 40
0.8181818181818182
 40
0.8181818181818182
 40
0.8181818181818182
 40
0.8181818181818182
 40
0.8484848484848485
 40
0.8484848484848485
 40
0.8484848484848485
 40
0.8484848484848485
 40
0.8787878787878788
 40
0.8787878787878788
 40
0.8787878787878788
 40
0.8787878787878788
 40
0.9090909090909091
 40
0.9090909090909091
 40
0.9090909090909091
 40
0.9090909090909091
 40
0.9393939393939394
 40
0.9393939393939394
 40
0.9393939393939394
 40
0.9393939393939394
 40
1.0
 40
1.0
 40
1.0
 40
1.0
 10
10.8191
 20
8.7756
 30
0.0
 10
10.8191
 20
8.7756
 30
0.0
 10
10.8191
 20
7.5687
 30
0.0
 10
10.8191
 20
7.5687
 30
0.0
 10
10.8191
 20
7.5687
 30
0.0
 10
10.8191
 20
7.5687
 30
0.0
 10
12.0298
 20
7.4058
 30
0.0
 10
12.0298
 20
7.4058
 30
0.0
 10
12.0298
 20
7.4058
 30
0.0
 10
12.0233
 20
7.4523
 30
0.0
 10
12.0181
 20
7.5041
 30
0.0
 10
12.0136
 20
7.5623
 30
0.0
 10
12.0136
 20
7.5623
 30
0.0
 10
12.0091
 20
7.6198
 30
0.0
 10
12.0065
 20
7.6858
 30
0.0
 10
12.0065
 20
7.7589
 30
0.0
 10
12.0065
 20
7.7589
 30
0.0
 10
12.0071
 20
7.9257
 30
0.0
 10
12.0311
 20
8.0622
 30
0.0
 10
12.0776
 20
8.1683
 30
0.0
 10
12.0776
 20
8.1683
 30
0.0
 10
12.1249
 20
8.275
 30
0.0
 10
12.1895
 20
8.3539
 30
0.0
 10
12.2723
 20
8.405
 30
0.0
 10
12.2723
 20
8.405
 30
0.0
 10
12.3557
 20
8.4561
 30
0.0
 10
12.4521
 20
8.4813
 30
0.0
 10
12.5614
 20
8.4807
 30
0.0
 10
12.5614
 20
8.4807
 30
0.0
 10
12.6461
 20
8.4813
 30
0.0
 10
12.7218
 20
8.4658
 30
0.0
 10
12.7891
 20
8.4341
 30
0.0
 10
12.7891
 20
8.4341
 30
0.0
 10
12.857
 20
8.403
 30
0.0
 10
12.9139
 20
8.3597
 30
0.0
 10
12.9618
 20
8.3047
 30
0.0
 10
12.9618
 20
8.3047
 30
0.0
 10
13.009
 20
8.2498
 30
0.0
 10
13.0452
 20
8.1864
 30
0.0
 10
13.0704
 20
8.1146
 30
0.0
 10
13.0704
 20
8.1146
 30
0.0
 10
13.0956
 20
8.0428
 30
0.0
 10
13.1086
 20
7.9671
 30
0.0
 10
13.1086
 20
7.8869
 30
0.0
 10
13.1086
 20
7.8869
 30
0.0
 10
13.1079
 20
7.8087
 30
0.0
 10
13.1008
 20
7.735
 30
0.0
 10
13.0859
 20
7.6658
 30
0.0
 10
13.0859
 20
7.6658
 30
0.0
 10
13.0717
 20
7.5966
 30
0.0
 10
13.0542
 20
7.5345
 30
0.0
 10
13.0329
 20
7.4795
 30
0.0
 10
13.0329
 20
7.4795
 30
0.0
 10
13.0115
 20
7.4245
 30
0.0
 10
12.9902
 20
7.3792
 30
0.0
 10
12.9689
 20
7.3437
 30
0.0
 10
12.9689
 20
7.3437
 30
0.0
 10
12.9689
 20
7.3437
 30
0.0
 10
13.2289
 20
7.2583
 30
0.0
 10
13.2289
 20
7.2583
 30
0.0
 10
13.2289
 20
7.2583
 30
0.0
 10
13.2554
 20
7.3003
 30
0.0
 10
13.28
 20
7.3527
 30
0.0
 10
13.3039
 20
7.4155
 30
0.0
 10
13.3039
 20
7.4155
 30
0.0
 10
13.3272
 20
7.4782
 30
0.0
 10
13.3459
 20
7.5493
 30
0.0
 10
13.3608
 20
7.6289
 30
0.0
 10
13.3608
 20
7.6289
 30
0.0
 10
13.3757
 20
7.7091
 30
0.0
 10
13.3834
 20
7.7951
 30
0.0
 10
13.3841
 20
7.8869
 30
0.0
 10
13.3841
 20
7.8869
 30
0.0
 10
13.3834
 20
8.0247
 30
0.0
 10
13.3615
 20
8.1502
 30
0.0
 10
13.3188
 20
8.2646
 30
0.0
 10
13.3188
 20
8.2646
 30
0.0
 10
13.2761
 20
8.3791
 30
0.0
 10
13.2159
 20
8.4781
 30
0.0
 10
13.1383
 20
8.5615
 30
0.0
 10
13.1383
 20
8.5615
 30
0.0
 10
13.0607
 20
8.6456
 30
0.0
 10
12.9695
 20
8.7103
 30
0.0
 10
12.8654
 20
8.7562
 30
0.0
 10
12.8654
 20
8.7562
 30
0.0
 10
12.7606
 20
8.8021
 30
0.0
 10
12.6461
 20
8.8254
 30
0.0
 10
12.5226
 20
8.826
 30
0.0
 10
12.5226
 20
8.826
 30
0.0
 10
12.4178
 20
8.8254
 30
0.0
 10
12.3234
 20
8.8086
 30
0.0
 10
12.24
 20
8.7762
 30
0.0
 10
12.24
 20
8.7762
 30
0.0
 10
12.1565
 20
8.7439
 30
0.0
 10
12.0848
 20
8.7012
 30
0.0
 10
12.0239
 20
8.6469
 30
0.0
 10
12.0239
 20
8.6469
 30
0.0
 10
11.9632
 20
8.5925
 30
0.0
 10
11.9146
 20
8.5318
 30
0.0
 10
11.8784
 20
8.4651
 30
0.0
 10
11.8784
 20
8.4651
 30
0.0
 10
11.8306
 20
8.3869
 30
0.0
 10
11.7957
 20
8.3022
 30
0.0
 10
11.7743
 20
8.2097
 30
0.0
 10
11.7743
 20
8.2097
 30
0.0
 10
11.753
 20
8.1172
 30
0.0
 10
11.742
 20
8.0215
 30
0.0
 10
11.7426
 20
7.9219
 30
0.0
 10
11.7426
 20
7.9219
 30
0.0
 10
11.7426
 20
7.8766
 30
0.0
 10
11.7433
 20
7.8378
 30
0.0
 10
11.7452
 20
7.8061
 30
0.0
 10
11.7452
 20
7.8061
 30
0.0
 10
11.7471
 20
7.7744
 30
0.0
 10
11.7504
 20
7.7447
 30
0.0
 10
11.7543
 20
7.7162
 30
0.0
 10
11.7543
 20
7.7162
 30
0.0
 10
11.7543
 20
7.7162
 30
0.0
 10
11.1062
 20
7.8132
 30
0.0
 10
11.1062
 20
7.8132
 30
0.0
 10
11.1062
 20
7.8132
 30
0.0
 10
11.1062
 20
7.8132
 30
0.0
 10
11.1062
 20
8.7756
 30
0.0
 10
11.1062
 20
8.7756
 30
0.0
 10
11.1062
 20
8.7756
 30
0.0
 10
11.1062
 20
8.7756
 30
0.0
 10
10.8191
 20
8.7756
 30
0.0
 10
10.8191
 20
8.7756
 30
0.0
  0
SPLINE
  5
4F
330
1F
100
AcDbEntity
  8
ROUND
 62
   250
370
    30
100
AcDbSpline
210
0.0
220
0.0
230
1.0
 70
    24
 71
     3
 72
     8
 73
     4
 74
     0
 42
0.0000000001
 43
0.0000000001
 40
0.0
 40
0.0
 40
0.0
 40
0.0
 40
1.0
 40
1.0
 40
1.0
 40
1.0
 10
0.0877
 20
-9.1648
 30
0.0
 10
0.0877
 20
-9.1648
 30
0.0
 10
0.0877
 20
0.0358
 30
0.0
 10
0.0877
 20
0.0358
 30
0.0
  0
SPLINE
  5
50
330
1F
100
AcDbEntity
  8
ROUND
 62
   250
370
    30
100
AcDbSpline
210
0.0
220
0.0
230
1.0
 70
    24
 71
     3
 72
     8
 73
     4
 74
     0
 42
0.0000000001
 43
0.0000000001
 40
0.0
 40
0.0
 40
0.0
 40
0.0
 40
1.0
 40
1.0
 40
1.0
 40
1.0
 10
36.6855
 20
-9.6759
 30
0.0
 10
36.6855
 20
-9.6759
 30
0.0
 10
36.1743
 20
-9.6759
 30
0.0
 10
36.1743
 20
-9.6759
 30
0.0
  0
SPLINE
  5
51
330
1F
100
AcDbEntity
  8
ROUND
 62
   250
370
    30
100
AcDbSpline
210
0.0
220
0.0
230
1.0
 70
    24
 71
     3
 72
     8
 73
     4
 74
     0
 42
0.0000000001
 43
0.0000000001
 40
0.0
 40
0.0
 40
0.0
 40
0.0
 40
1.0
 40
1.0
 40
1.0
 40
1.0
 10
40.9791
 20
-9.1648
 30
0.0
 10
40.9791
 20
-9.1648
 30
0.0
 10
36.6855
 20
-9.1648
 30
0.0
 10
36.6855
 20
-9.1648
 30
0.0
  0
SPLINE
  5
52
330
1F
100
AcDbEntity
  8
ROUND
 62
   250
370
    30
100
AcDbSpline
210
0.0
220
0.0
230
1.0
 70
    24
 71
     3
 72
     8
 73
     4
 74
     0
 42
0.0000000001
 43
0.0000000001
 40
0.0
 40
0.0
 40
0.0
 40
0.0
 40
1.0
 40
1.0
 40
1.0
 40
1.0
 10
36.1743
 20
-9.1648
 30
0.0
 10
36.1743
 20
-9.1648
 30
0.0
 10
0.0877
 20
-9.1648
 30
0.0
 10
0.0877
 20
-9.1648
 30
0.0
  0
SPLINE
  5
53
330
1F
100
AcDbEntity
  8
ROUND
 62
   250
370
    30
100
AcDbSpline
210
0.0
220
0.0
230
1.0
 70
    24
 71
     3
 72
     8
 73
     4
 74
     0
 42
0.0000000001
 43
0.0000000001
 40
0.0
 40
0.0
 40
0.0
 40
0.0
 40
1.0
 40
1.0
 40
1.0
 40
1.0
 10
40.9791
 20
0.0358
 30
0.0
 10
40.9791
 20
0.0358
 30
0.0
 10
36.6855
 20
0.0358
 30
0.0
 10
36.6855
 20
0.0358
 30
0.0
  0
SPLINE
  5
54
330
1F
100
AcDbEntity
  8
ROUND
 62
   250
370
    30
100
AcDbSpline
210
0.0
220
0.0
230
1.0
 70
    24
 71
     3
 72
     8
 73
     4
 74
     0
 42
0.0000000001
 43
0.0000000001
 40
0.0
 40
0.0
 40
0.0
 40
0.0
 40
1.0
 40
1.0
 40
1.0
 40
1.0
 10
36.1743
 20
0.0358
 30
0.0
 10
36.1743
 20
0.0358
 30
0.0
 10
0.0877
 20
0.0358
 30
0.0
 10
0.0877
 20
0.0358
 30
0.0
  0
SPLINE
  5
55
330
1F
100
AcDbEntity
  8
ROUND
 62
   250
370
    30
100
AcDbSpline
210
0.0
220
0.0
230
1.0
 70
    24
 71
     3
 72
     8
 73
     4
 74
     0
 42
0.0000000001
 43
0.0000000001
 40
0.0
 40
0.0
 40
0.0
 40
0.0
 40
1.0
 40
1.0
 40
1.0
 40
1.0
 10
36.6855
 20
0.547
 30
0.0
 10
36.6855
 20
0.547
 30
0.0
 10
36.1743
 20
0.547
 30
0.0
 10
36.1743
 20
0.547
 30
0.0
  0
SPLINE
  5
56
330
1F
100
AcDbEntity
  8
ROUND
 62
   250
370
    30
100
AcDbSpline
210
0.0
220
0.0
230
1.0
 70
    24
 71
     3
 72
     8
 73
     4
 74
     0
 42
0.0000000001
 43
0.0000000001
 40
0.0
 40
0.0
 40
0.0
 40
0.0
 40
1.0
 40
1.0
 40
1.0
 40
1.0
 10
36.1743
 20
-9.6759
 30
0.0
 10
36.1743
 20
-9.6759
 30
0.0
 10
36.1743
 20
0.547
 30
0.0
 10
36.1743
 20
0.547
 30
0.0
  0
SPLINE
  5
57
330
1F
100
AcDbEntity
  8
ROUND
 62
   250
370
    30
100
AcDbSpline
210
0.0
220
0.0
230
1.0
 70
    24
 71
     3
 72
     8
 73
     4
 74
     0
 42
0.0000000001
 43
0.0000000001
 40
0.0
 40
0.0
 40
0.0
 40
0.0
 40
1.0
 40
1.0
 40
1.0
 40
1.0
 10
36.6855
 20
-9.6759
 30
0.0
 10
36.6855
 20
-9.6759
 30
0.0
 10
36.6855
 20
0.547
 30
0.0
 10
36.6855
 20
0.547
 30
0.0
  0
SPLINE
  5
58
330
1F
100
AcDbEntity
  8
ROUND
 62
   250
370
    30
100
AcDbSpline
210
0.0
220
0.0
230
1.0
 70
    24
 71
     3
 72
     8
 73
     4
 74
     0
 42
0.0000000001
 43
0.0000000001
 40
0.0
 40
0.0
 40
0.0
 40
0.0
 40
1.0
 40
1.0
 40
1.0
 40
1.0
 10
40.9791
 20
-9.1648
 30
0.0
 10
40.9791
 20
-9.1648
 30
0.0
 10
40.9791
 20
0.0358
 30
0.0
 10
40.9791
 20
0.0358
 30
0.0
  0
SPLINE
  5
59
330
1F
100
AcDbEntity
  8
ROUND
 62
   250
370
    30
100
AcDbSpline
210
0.0
220
0.0
230
1.0
 70
    24
 71
     3
 72
     8
 73
     4
 74
     0
 42
0.0000000001
 43
0.0000000001
 40
0.0
 40
0.0
 40
0.0
 40
0.0
 40
1.0
 40
1.0
 40
1.0
 40
1.0
 10
-40.8037
 20
-9.1801
 30
0.0
 10
-40.8037
 20
-9.1801
 30
0.0
 10
-40.8037
 20
0.0205
 30
0.0
 10
-40.8037
 20
0.0205
 30
0.0
  0
SPLINE
  5
5A
330
1F
100
AcDbEntity
  8
ROUND
 62
   250
370
    30
100
AcDbSpline
210
0.0
220
0.0
230
1.0
 70
    24
 71
     3
 72
     8
 73
     4
 74
     0
 42
0.0000000001
 43
0.0000000001
 40
0.0
 40
0.0
 40
0.0
 40
0.0
 40
1.0
 40
1.0
 40
1.0
 40
1.0
 10
0.0877
 20
-9.1801
 30
0.0
 10
0.0877
 20
-9.1801
 30
0.0
 10
-5.0423
 20
-9.1801
 30
0.0
 10
-5.0423
 20
-9.1801
 30
0.0
  0
SPLINE
  5
5B
330
1F
100
AcDbEntity
  8
ROUND
 62
   250
370
    30
100
AcDbSpline
210
0.0
220
0.0
230
1.0
 70
    24
 71
     3
 72
     8
 73
     4
 74
     0
 42
0.0000000001
 43
0.0000000001
 40
0.0
 40
0.0
 40
0.0
 40
0.0
 40
1.0
 40
1.0
 40
1.0
 40
1.0
 10
-4.7171
 20
-9.1801
 30
0.0
 10
-4.7171
 20
-9.1801
 30
0.0
 10
-40.8037
 20
-9.1801
 30
0.0
 10
-40.8037
 20
-9.1801
 30
0.0
  0
SPLINE
  5
5C
330
1F
100
AcDbEntity
  8
ROUND
 62
   250
370
    30
100
AcDbSpline
210
0.0
220
0.0
230
1.0
 70
    24
 71
     3
 72
     8
 73
     4
 74
     0
 42
0.0000000001
 43
0.0000000001
 40
0.0
 40
0.0
 40
0.0
 40
0.0
 40
1.0
 40
1.0
 40
1.0
 40
1.0
 10
0.0877
 20
0.0205
 30
0.0
 10
0.0877
 20
0.0205
 30
0.0
 10
-4.7777
 20
0.0205
 30
0.0
 10
-4.7777
 20
0.0205
 30
0.0
  0
SPLINE
  5
5D
330
1F
100
AcDbEntity
  8
ROUND
 62
   250
370
    30
100
AcDbSpline
210
0.0
220
0.0
230
1.0
 70
    24
 71
     3
 72
     8
 73
     4
 74
     0
 42
0.0000000001
 43
0.0000000001
 40
0.0
 40
0.0
 40
0.0
 40
0.0
 40
1.0
 40
1.0
 40
1.0
 40
1.0
 10
-4.7171
 20
0.0205
 30
0.0
 10
-4.7171
 20
0.0205
 30
0.0
 10
-40.8037
 20
0.0205
 30
0.0
 10
-40.8037
 20
0.0205
 30
0.0
  0
SPLINE
  5
5E
330
1F
100
AcDbEntity
  8
ROUND
 62
   250
370
    30
100
AcDbSpline
210
0.0
220
0.0
230
1.0
 70
    24
 71
     3
 72
     8
 73
     4
 74
     0
 42
0.0000000001
 43
0.0000000001
 40
0.0
 40
0.0
 40
0.0
 40
0.0
 40
1.0
 40
1.0
 40
1.0
 40
1.0
 10
0.0877
 20
-9.1801
 30
0.0
 10
0.0877
 20
-9.1801
 30
0.0
 10
0.0877
 20
0.0205
 30
0.0
 10
0.0877
 20
0.0205
 30
0.0
  0
SPLINE
  5
5F
330
1F
100
AcDbEntity
  8
ROUND
 62
   250
370
    15
100
AcDbSpline
210
0.0
220
0.0
230
1.0
 70
    24
 71
     3
 72
     8
 73
     4
 74
     0
 42
0.0000000001
 43
0.0000000001
 40
0.0
 40
0.0
 40
0.0
 40
0.0
 40
1.0
 40
1.0
 40
1.0
 40
1.0
 10
-40.8014
 20
0.323
 30
0.0
 10
-40.8014
 20
0.323
 30
0.0
 10
-40.8014
 20
11.1393
 30
0.0
 10
-40.8014
 20
11.1393
 30
0.0
  0
SPLINE
  5
60
330
1F
100
AcDbEntity
  8
ROUND
 62
   250
370
    15
100
AcDbSpline
210
0.0
220
0.0
230
1.0
 70
    24
 71
     3
 72
     8
 73
     4
 74
     0
 42
0.0000000001
 43
0.0000000001
 40
0.0
 40
0.0
 40
0.0
 40
0.0
 40
1.0
 40
1.0
 40
1.0
 40
1.0
 10
40.9195
 20
0.3644
 30
0.0
 10
40.9195
 20
0.3644
 30
0.0
 10
40.9195
 20
11.2275
 30
0.0
 10
40.9195
 20
11.2275
 30
0.0
  0
SPLINE
  5
61
330
1F
100
AcDbEntity
  8
ROUND
  6
New Line2
 62
   250
370
    15
100
AcDbSpline
210
0.0
220
0.0
230
1.0
 70
    24
 71
     3
 72
     8
 73
     4
 74
     0
 42
0.0000000001
 43
0.0000000001
 40
0.0
 40
0.0
 40
0.0
 40
0.0
 40
1.0
 40
1.0
 40
1.0
 40
1.0
 10
14.9596
 20
-4.5645
 30
0.0
 10
14.9596
 20
-4.5645
 30
0.0
 10
41.8264
 20
-4.5645
 30
0.0
 10
41.8264
 20
-4.5645
 30
0.0
  0
SPLINE
  5
63
330
1F
100
AcDbEntity
  8
ROUND
 62
   250
370
     9
100
AcDbSpline
210
0.0
220
0.0
230
1.0
 70
    11
 71
     3
 72
    32
 73
    28
 74
     0
 42
0.0000000001
 43
0.0000000001
 40
0.0
 40
0.0
 40
0.0
 40
0.0
 40
0.125
 40
0.125
 40
0.125
 40
0.125
 40
0.25
 40
0.25
 40
0.25
 40
0.25
 40
0.375
 40
0.375
 40
0.375
 40
0.375
 40
0.5
 40
0.5
 40
0.5
 40
0.5
 40
0.625
 40
0.625
 40
0.625
 40
0.625
 40
0.75
 40
0.75
 40
0.75
 40
0.75
 40
1.0
 40
1.0
 40
1.0
 40
1.0
 10
39.6363
 20
10.0346
 30
0.0
 10
39.6363
 20
10.0346
 30
0.0
 10
39.6363
 20
10.0346
 30
0.0
 10
39.6363
 20
10.0346
 30
0.0
 10
39.6363
 20
10.0346
 30
0.0
 10
39.6363
 20
10.0346
 30
0.0
 10
39.6363
 20
10.0346
 30
0.0
 10
39.6363
 20
10.0346
 30
0.0
 10
39.6363
 20
10.0346
 30
0.0
 10
39.6363
 20
10.0346
 30
0.0
 10
40.9091
 20
10.478
 30
0.0
 10
40.9091
 20
10.478
 30
0.0
 10
40.9091
 20
10.478
 30
0.0
 10
40.9091
 20
10.478
 30
0.0
 10
39.6363
 20
10.9214
 30
0.0
 10
39.6363
 20
10.9214
 30
0.0
 10
39.6363
 20
10.9214
 30
0.0
 10
39.6363
 20
10.9214
 30
0.0
 10
39.6363
 20
10.9214
 30
0.0
 10
39.6363
 20
10.9214
 30
0.0
 10
39.6363
 20
10.9214
 30
0.0
 10
39.6363
 20
10.9214
 30
0.0
 10
39.6363
 20
10.9214
 30
0.0
 10
39.6363
 20
10.9214
 30
0.0
 10
39.6363
 20
10.9214
 30
0.0
 10
39.6363
 20
10.9214
 30
0.0
 10
39.6363
 20
10.0346
 30
0.0
 10
39.6363
 20
10.0346
 30
0.0
  0
SPLINE
  5
64
330
1F
100
AcDbEntity
  8
ROUND
 62
   250
370
     9
100
AcDbSpline
210
0.0
220
0.0
230
1.0
 70
    11
 71
     3
 72
    32
 73
    28
 74
     0
 42
0.0000000001
 43
0.0000000001
 40
0.0
 40
0.0
 40
0.0
 40
0.0
 40
0.125
 40
0.125
 40
0.125
 40
0.125
 40
0.25
 40
0.25
 40
0.25
 40
0.25
 40
0.375
 40
0.375
 40
0.375
 40
0.375
 40
0.5
 40
0.5
 40
0.5
 40
0.5
 40
0.625
 40
0.625
 40
0.625
 40
0.625
 40
0.75
 40
0.75
 40
0.75
 40
0.75
 40
1.0
 40
1.0
 40
1.0
 40
1.0
 10
14.5441
 20
-10.5128
 30
0.0
 10
14.5441
 20
-10.5128
 30
0.0
 10
14.5441
 20
-10.5128
 30
0.0
 10
14.5441
 20
-10.5128
 30
0.0
 10
14.5441
 20
-10.5128
 30
0.0
 10
14.5441
 20
-10.5128
 30
0.0
 10
14.5441
 20
-10.5128
 30
0.0
 10
14.5441
 20
-10.5128
 30
0.0
 10
14.5441
 20
-10.5128
 30
0.0
 10
14.5441
 20
-10.5128
 30
0.0
 10
14.1007
 20
-9.24
 30
0.0
 10
14.1007
 20
-9.24
 30
0.0
 10
14.1007
 20
-9.24
 30
0.0
 10
14.1007
 20
-9.24
 30
0.0
 10
13.6573
 20
-10.5128
 30
0.0
 10
13.6573
 20
-10.5128
 30
0.0
 10
13.6573
 20
-10.5128
 30
0.0
 10
13.6573
 20
-10.5128
 30
0.0
 10
13.6573
 20
-10.5128
 30
0.0
 10
13.6573
 20
-10.5128
 30
0.0
 10
13.6573
 20
-10.5128
 30
0.0
 10
13.6573
 20
-10.5128
 30
0.0
 10
13.6573
 20
-10.5128
 30
0.0
 10
13.6573
 20
-10.5128
 30
0.0
 10
13.6573
 20
-10.5128
 30
0.0
 10
13.6573
 20
-10.5128
 30
0.0
 10
14.5441
 20
-10.5128
 30
0.0
 10
14.5441
 20
-10.5128
 30
0.0
  0
SPLINE
  5
65
330
1F
100
AcDbEntity
  8
ROUND
 62
   250
370
     9
100
AcDbSpline
210
0.0
220
0.0
230
1.0
 70
    11
 71
     3
 72
    32
 73
    28
 74
     0
 42
0.0000000001
 43
0.0000000001
 40
0.0
 40
0.0
 40
0.0
 40
0.0
 40
0.125
 40
0.125
 40
0.125
 40
0.125
 40
0.25
 40
0.25
 40
0.25
 40
0.25
 40
0.375
 40
0.375
 40
0.375
 40
0.375
 40
0.5
 40
0.5
 40
0.5
 40
0.5
 40
0.625
 40
0.625
 40
0.625
 40
0.625
 40
0.75
 40
0.75
 40
0.75
 40
0.75
 40
1.0
 40
1.0
 40
1.0
 40
1.0
 10
13.6798
 20
1.3989
 30
0.0
 10
13.6798
 20
1.3989
 30
0.0
 10
13.6798
 20
1.3989
 30
0.0
 10
13.6798
 20
1.3989
 30
0.0
 10
13.6798
 20
1.3989
 30
0.0
 10
13.6798
 20
1.3989
 30
0.0
 10
13.6798
 20
1.3989
 30
0.0
 10
13.6798
 20
1.3989
 30
0.0
 10
13.6798
 20
1.3989
 30
0.0
 10
13.6798
 20
1.3989
 30
0.0
 10
14.1232
 20
0.1261
 30
0.0
 10
14.1232
 20
0.1261
 30
0.0
 10
14.1232
 20
0.1261
 30
0.0
 10
14.1232
 20
0.1261
 30
0.0
 10
14.5666
 20
1.3989
 30
0.0
 10
14.5666
 20
1.3989
 30
0.0
 10
14.5666
 20
1.3989
 30
0.0
 10
14.5666
 20
1.3989
 30
0.0
 10
14.5666
 20
1.3989
 30
0.0
 10
14.5666
 20
1.3989
 30
0.0
 10
14.5666
 20
1.3989
 30
0.0
 10
14.5666
 20
1.3989
 30
0.0
 10
14.5666
 20
1.3989
 30
0.0
 10
14.5666
 20
1.3989
 30
0.0
 10
14.5666
 20
1.3989
 30
0.0
 10
14.5666
 20
1.3989
 30
0.0
 10
13.6798
 20
1.3989
 30
0.0
 10
13.6798
 20
1.3989
 30
0.0
  0
SPLINE
  5
66
330
1F
100
AcDbEntity
  8
ROUND
 62
   250
370
     9
100
AcDbSpline
210
0.0
220
0.0
230
1.0
 70
    11
 71
     3
 72
    32
 73
    28
 74
     0
 42
0.0000000001
 43
0.0000000001
 40
0.0
 40
0.0
 40
0.0
 40
0.0
 40
0.125
 40
0.125
 40
0.125
 40
0.125
 40
0.25
 40
0.25
 40
0.25
 40
0.25
 40
0.375
 40
0.375
 40
0.375
 40
0.375
 40
0.5
 40
0.5
 40
0.5
 40
0.5
 40
0.625
 40
0.625
 40
0.625
 40
0.625
 40
0.75
 40
0.75
 40
0.75
 40
0.75
 40
1.0
 40
1.0
 40
1.0
 40
1.0
 10
-39.4252
 20
9.9795
 30
0.0
 10
-39.4252
 20
9.9795
 30
0.0
 10
-39.4252
 20
9.9795
 30
0.0
 10
-39.4252
 20
9.9795
 30
0.0
 10
-39.4252
 20
9.9795
 30
0.0
 10
-39.4252
 20
9.9795
 30
0.0
 10
-39.4252
 20
9.9795
 30
0.0
 10
-39.4252
 20
9.9795
 30
0.0
 10
-39.4252
 20
9.9795
 30
0.0
 10
-39.4252
 20
9.9795
 30
0.0
 10
-40.698
 20
10.4229
 30
0.0
 10
-40.698
 20
10.4229
 30
0.0
 10
-40.698
 20
10.4229
 30
0.0
 10
-40.698
 20
10.4229
 30
0.0
 10
-39.4252
 20
10.8663
 30
0.0
 10
-39.4252
 20
10.8663
 30
0.0
 10
-39.4252
 20
10.8663
 30
0.0
 10
-39.4252
 20
10.8663
 30
0.0
 10
-39.4252
 20
10.8663
 30
0.0
 10
-39.4252
 20
10.8663
 30
0.0
 10
-39.4252
 20
10.8663
 30
0.0
 10
-39.4252
 20
10.8663
 30
0.0
 10
-39.4252
 20
10.8663
 30
0.0
 10
-39.4252
 20
10.8663
 30
0.0
 10
-39.4252
 20
10.8663
 30
0.0
 10
-39.4252
 20
10.8663
 30
0.0
 10
-39.4252
 20
9.9795
 30
0.0
 10
-39.4252
 20
9.9795
 30
0.0
  0
ENDSEC
  0
SECTION
  2
OBJECTS
  0
DICTIONARY
  5
C
330
0
100
AcDbDictionary
281
     1
  3
ACAD_GROUP
350
D
  3
ACAD_LAYOUT
350
1A
  3
ACAD_MATERIAL
350
3B
  3
ACAD_MLEADERSTYLE
350
69
  3
ACAD_MLINESTYLE
350
17
  3
ACAD_PLOTSETTINGS
350
19
  3
ACAD_PLOTSTYLENAME
350
E
  3
ACAD_VISUALSTYLE
350
2A
  3
AcDbVariableDictionary
350
67
  0
DICTIONARY
  5
D
102
{ACAD_REACTORS
330
C
102
}
330
C
100
AcDbDictionary
281
     1
  0
DICTIONARY
  5
1A
102
{ACAD_REACTORS
330
C
102
}
330
C
100
AcDbDictionary
281
     1
  3
Layout1
350
1E
  3
Layout2
350
26
  3
Model
350
22
  0
DICTIONARY
  5
3B
102
{ACAD_REACTORS
330
C
102
}
330
C
100
AcDbDictionary
281
     1
  3
ByBlock
350
3D
  3
ByLayer
350
3C
  3
Global
350
3E
  0
DICTIONARY
  5
69
102
{ACAD_REACTORS
330
C
102
}
330
C
100
AcDbDictionary
281
     1
  0
DICTIONARY
  5
17
102
{ACAD_REACTORS
330
C
102
}
330
C
100
AcDbDictionary
281
     1
  3
Standard
350
18
  0
DICTIONARY
  5
19
102
{ACAD_REACTORS
330
C
102
}
330
C
100
AcDbDictionary
281
     1
  0
ACDBDICTIONARYWDFLT
  5
E
102
{ACAD_REACTORS
330
C
102
}
330
C
100
AcDbDictionary
281
     1
  3
Normal
350
F
100
AcDbDictionaryWithDefault
340
F
  0
DICTIONARY
  5
2A
102
{ACAD_REACTORS
330
C
102
}
330
C
100
AcDbDictionary
281
     1
  3
2dWireframe
350
2F
  3
3D Hidden
350
31
  3
3dWireframe
350
30
  3
Basic
350
32
  3
Brighten
350
36
  3
ColorChange
350
3A
  3
Conceptual
350
34
  3
Dim
350
35
  3
Facepattern
350
39
  3
Flat
350
2B
  3
FlatWithEdges
350
2C
  3
Gouraud
350
2D
  3
GouraudWithEdges
350
2E
  3
Linepattern
350
38
  3
Realistic
350
33
  3
Thicken
350
37
  0
DICTIONARY
  5
67
102
{ACAD_REACTORS
330
C
102
}
330
C
100
AcDbDictionary
281
     1
  3
DIMASSOC
350
6A
  3
HIDETEXT
350
6B
  0
LAYOUT
  5
1E
102
{ACAD_REACTORS
330
1A
102
}
330
1A
100
AcDbPlotSettings
  1

  2
none_device
  4

  6

 40
0.0
 41
0.0
 42
0.0
 43
0.0
 44
0.0
 45
0.0
 46
0.0
 47
0.0
 48
0.0
 49
0.0
140
0.0
141
0.0
142
1.0
143
1.0
 70
   688
 72
     0
 73
     0
 74
     5
  7

 75
    16
147
1.0
148
0.0
149
0.0
100
AcDbLayout
  1
Layout1
 70
     1
 71
     1
 10
0.0
 20
0.0
 11
12.0
 21
9.0
 12
0.0
 22
0.0
 32
0.0
 14
1.000000000000000E+20
 24
1.000000000000000E+20
 34
1.000000000000000E+20
 15
-1.000000000000000E+20
 25
-1.000000000000000E+20
 35
-1.000000000000000E+20
146
0.0
 13
0.0
 23
0.0
 33
0.0
 16
1.0
 26
0.0
 36
0.0
 17
0.0
 27
1.0
 37
0.0
 76
     0
330
1B
  0
LAYOUT
  5
26
102
{ACAD_REACTORS
330
1A
102
}
330
1A
100
AcDbPlotSettings
  1

  2
none_device
  4

  6

 40
0.0
 41
0.0
 42
0.0
 43
0.0
 44
0.0
 45
0.0
 46
0.0
 47
0.0
 48
0.0
 49
0.0
140
0.0
141
0.0
142
1.0
143
1.0
 70
   688
 72
     0
 73
     0
 74
     5
  7

 75
    16
147
1.0
148
0.0
149
0.0
100
AcDbLayout
  1
Layout2
 70
     1
 71
     2
 10
0.0
 20
0.0
 11
0.0
 21
0.0
 12
0.0
 22
0.0
 32
0.0
 14
0.0
 24
0.0
 34
0.0
 15
0.0
 25
0.0
 35
0.0
146
0.0
 13
0.0
 23
0.0
 33
0.0
 16
1.0
 26
0.0
 36
0.0
 17
0.0
 27
1.0
 37
0.0
 76
     0
330
23
  0
LAYOUT
  5
22
102
{ACAD_REACTORS
330
1A
102
}
330
1A
100
AcDbPlotSettings
  1

  2
none_device
  4

  6

 40
0.0
 41
0.0
 42
0.0
 43
0.0
 44
0.0
 45
0.0
 46
0.0
 47
0.0
 48
0.0
 49
0.0
140
0.0
141
0.0
142
1.0
143
1.0
 70
  1712
 72
     0
 73
     0
 74
     0
  7

 75
     0
147
1.0
148
0.0
149
0.0
100
AcDbLayout
  1
Model
 70
     1
 71
     0
 10
0.0
 20
0.0
 11
12.0
 21
9.0
 12
0.0
 22
0.0
 32
0.0
 14
-41.8263
 24
-13.6436
 34
0.0
 15
41.6274
 25
13.6436
 35
0.0
146
0.0
 13
0.0
 23
0.0
 33
0.0
 16
1.0
 26
0.0
 36
0.0
 17
0.0
 27
1.0
 37
0.0
 76
     0
330
1F
331
29
  0
MATERIAL
  5
3D
102
{ACAD_REACTORS
330
3B
102
}
102
{ACAD_XDICTIONARY
360
8E
102
}
330
3B
100
AcDbMaterial
  1
ByBlock
  0
MATERIAL
  5
3C
102
{ACAD_REACTORS
330
3B
102
}
102
{ACAD_XDICTIONARY
360
8C
102
}
330
3B
100
AcDbMaterial
  1
ByLayer
  0
MATERIAL
  5
3E
102
{ACAD_REACTORS
330
3B
102
}
102
{ACAD_XDICTIONARY
360
90
102
}
330
3B
100
AcDbMaterial
  1
Global
  0
MLINESTYLE
  5
18
102
{ACAD_REACTORS
330
17
102
}
330
17
100
AcDbMlineStyle
  2
Standard
 70
     0
  3

 62
   256
 51
90.0
 52
90.0
 71
     2
 49
0.5
 62
   256
  6
BYLAYER
 49
-0.5
 62
   256
  6
BYLAYER
  0
ACDBPLACEHOLDER
  5
F
102
{ACAD_REACTORS
330
E
102
}
330
E
  0
VISUALSTYLE
  5
2F
102
{ACAD_REACTORS
330
2A
102
}
102
{ACAD_XDICTIONARY
360
74
102
}
330
2A
100
AcDbVisualStyle
  2
2dWireframe
 70
     4
 71
     0
 72
     2
 73
     0
 90
        0
 40
-0.6
 41
-30.0
 62
     5
 63
     7
 74
     1
 91
        4
 64
     7
 65
   257
 75
     1
175
     1
 42
1.0
 92
        0
 66
   257
 43
1.0
 76
     1
 77
     6
 78
     2
 67
     7
 79
     5
170
     0
171
     0
290
     0
174
     0
 93
        1
 44
0.0
173
     0
291
     0
 45
0.0
1001
ACAD
1000
AcDbSavedByObjectVersion
1070
     0
  0
VISUALSTYLE
  5
31
102
{ACAD_REACTORS
330
2A
102
}
102
{ACAD_XDICTIONARY
360
78
102
}
330
2A
100
AcDbVisualStyle
  2
3D Hidden
 70
     6
 71
     1
 72
     2
 73
     2
 90
        0
 40
-0.6
 41
-30.0
 62
     5
 63
     7
 74
     2
 91
        2
 64
     7
 65
   257
 75
     2
175
     1
 42
40.0
 92
        0
 66
   257
 43
1.0
 76
     1
 77
     6
 78
     2
 67
     7
 79
     3
170
     0
171
     0
290
     0
174
     0
 93
        1
 44
0.0
173
     0
291
     0
 45
0.0
1001
ACAD
1000
AcDbSavedByObjectVersion
1070
     0
  0
VISUALSTYLE
  5
30
102
{ACAD_REACTORS
330
2A
102
}
102
{ACAD_XDICTIONARY
360
76
102
}
330
2A
100
AcDbVisualStyle
  2
3dWireframe
 70
     5
 71
     0
 72
     2
 73
     0
 90
        0
 40
-0.6
 41
-30.0
 62
     5
 63
     7
 74
     1
 91
        4
 64
     7
 65
   257
 75
     1
175
     1
 42
1.0
 92
        0
 66
   257
 43
1.0
 76
     1
 77
     6
 78
     2
 67
     7
 79
     5
170
     0
171
     0
290
     0
174
     0
 93
        1
 44
0.0
173
     0
291
     0
 45
0.0
1001
ACAD
1000
AcDbSavedByObjectVersion
1070
     0
  0
VISUALSTYLE
  5
32
102
{ACAD_REACTORS
330
2A
102
}
102
{ACAD_XDICTIONARY
360
7A
102
}
330
2A
100
AcDbVisualStyle
  2
Basic
 70
     7
 71
     1
 72
     0
 73
     1
 90
        0
 40
-0.6
 41
-30.0
 62
     5
 63
     7
 74
     0
 91
        4
 64
     7
 65
   257
 75
     1
175
     1
 42
1.0
 92
        8
 66
     7
 43
1.0
 76
     1
 77
     6
 78
     2
 67
     7
 79
     5
170
     0
171
     0
290
     0
174
     0
 93
        1
 44
0.0
173
     0
291
     1
 45
0.0
1001
ACAD
1000
AcDbSavedByObjectVersion
1070
     0
  0
VISUALSTYLE
  5
36
102
{ACAD_REACTORS
330
2A
102
}
102
{ACAD_XDICTIONARY
360
82
102
}
330
2A
100
AcDbVisualStyle
  2
Brighten
 70
    12
 71
     2
 72
     2
 73
     0
 90
        0
 40
-0.6
 41
-30.0
 62
     5
 63
     7
 74
     1
 91
        4
 64
     7
 65
   257
 75
     1
175
     1
 42
1.0
 92
        8
 66
     7
 43
1.0
 76
     1
 77
     6
 78
     2
 67
     7
 79
     5
170
     0
171
     0
290
     0
174
     0
 93
        1
 44
50.0
173
     0
291
     1
 45
0.0
1001
ACAD
1000
AcDbSavedByObjectVersion
1070
     0
  0
VISUALSTYLE
  5
3A
102
{ACAD_REACTORS
330
2A
102
}
102
{ACAD_XDICTIONARY
360
8A
102
}
330
2A
100
AcDbVisualStyle
  2
ColorChange
 70
    16
 71
     2
 72
     2
 73
     3
 90
        0
 40
-0.6
 41
-30.0
 62
     5
 63
     8
 74
     1
 91
        4
 64
     7
 65
   257
 75
     1
175
     1
 42
1.0
 92
        8
 66
     8
 43
1.0
 76
     1
 77
     6
 78
     2
 67
     7
 79
     5
170
     0
171
     0
290
     0
174
     0
 93
        1
 44
0.0
173
     0
291
     1
 45
0.0
1001
ACAD
1000
AcDbSavedByObjectVersion
1070
     0
  0
VISUALSTYLE
  5
34
102
{ACAD_REACTORS
330
2A
102
}
102
{ACAD_XDICTIONARY
360
7E
102
}
330
2A
100
AcDbVisualStyle
  2
Conceptual
 70
     9
 71
     3
 72
     2
 73
     0
 90
        0
 40
-0.6
 41
-30.0
 62
     5
 63
     7
 74
     2
 91
        2
 64
     7
 65
   257
 75
     1
175
     1
 42
40.0
 92
        8
 66
     7
 43
1.0
 76
     1
 77
     6
 78
     2
 67
     7
 79
     3
170
     0
171
     0
290
     0
174
     0
 93
        1
 44
0.0
173
     0
291
     0
 45
0.0
1001
ACAD
1000
AcDbSavedByObjectVersion
1070
     0
  0
VISUALSTYLE
  5
35
102
{ACAD_REACTORS
330
2A
102
}
102
{ACAD_XDICTIONARY
360
80
102
}
330
2A
100
AcDbVisualStyle
  2
Dim
 70
    11
 71
     2
 72
     2
 73
     0
 90
        0
 40
-0.6
 41
-30.0
 62
     5
 63
     7
 74
     1
 91
        4
 64
     7
 65
   257
 75
     1
175
     1
 42
1.0
 92
        8
 66
     7
 43
1.0
 76
     1
 77
     6
 78
     2
 67
     7
 79
     5
170
     0
171
     0
290
     0
174
     0
 93
        1
 44
-50.0
173
     0
291
     1
 45
0.0
1001
ACAD
1000
AcDbSavedByObjectVersion
1070
     0
  0
VISUALSTYLE
  5
39
102
{ACAD_REACTORS
330
2A
102
}
102
{ACAD_XDICTIONARY
360
88
102
}
330
2A
100
AcDbVisualStyle
  2
Facepattern
 70
    15
 71
     2
 72
     2
 73
     0
 90
        0
 40
-0.6
 41
-30.0
 62
     5
 63
     7
 74
     1
 91
        4
 64
     7
 65
   257
 75
     1
175
     1
 42
1.0
 92
        8
 66
     7
 43
1.0
 76
     1
 77
     6
 78
     2
 67
     7
 79
     5
170
     0
171
     0
290
     0
174
     0
 93
        1
 44
0.0
173
     0
291
     1
 45
0.0
1001
ACAD
1000
AcDbSavedByObjectVersion
1070
     0
  0
VISUALSTYLE
  5
2B
102
{ACAD_REACTORS
330
2A
102
}
102
{ACAD_XDICTIONARY
360
6C
102
}
330
2A
100
AcDbVisualStyle
  2
Flat
 70
     0
 71
     2
 72
     1
 73
     1
 90
        2
 40
-0.6
 41
30.0
 62
     5
 63
     7
 74
     0
 91
        4
 64
     7
 65
   257
 75
     1
175
     1
 42
1.0
 92
        8
 66
     7
 43
1.0
 76
     1
 77
     6
 78
     2
 67
     7
 79
     5
170
     0
171
     0
290
     0
174
     0
 93
       13
 44
0.0
173
     0
291
     1
 45
0.0
1001
ACAD
1000
AcDbSavedByObjectVersion
1070
     0
  0
VISUALSTYLE
  5
2C
102
{ACAD_REACTORS
330
2A
102
}
102
{ACAD_XDICTIONARY
360
6E
102
}
330
2A
100
AcDbVisualStyle
  2
FlatWithEdges
 70
     1
 71
     2
 72
     1
 73
     1
 90
        2
 40
-0.6
 41
30.0
 62
     5
 63
     7
 74
     1
 91
        4
 64
     7
 65
   257
 75
     1
175
     1
 42
1.0
 92
        0
 66
   257
 43
1.0
 76
     1
 77
     6
 78
     2
 67
     7
 79
     5
170
     0
171
     0
290
     0
174
     0
 93
       13
 44
0.0
173
     0
291
     1
 45
0.0
1001
ACAD
1000
AcDbSavedByObjectVersion
1070
     0
  0
VISUALSTYLE
  5
2D
102
{ACAD_REACTORS
330
2A
102
}
102
{ACAD_XDICTIONARY
360
70
102
}
330
2A
100
AcDbVisualStyle
  2
Gouraud
 70
     2
 71
     2
 72
     2
 73
     1
 90
        2
 40
-0.6
 41
30.0
 62
     5
 63
     7
 74
     0
 91
        4
 64
     7
 65
   257
 75
     1
175
     1
 42
1.0
 92
        0
 66
     7
 43
1.0
 76
     1
 77
     6
 78
     2
 67
     7
 79
     5
170
     0
171
     0
290
     0
174
     0
 93
       13
 44
0.0
173
     0
291
     1
 45
0.0
1001
ACAD
1000
AcDbSavedByObjectVersion
1070
     0
  0
VISUALSTYLE
  5
2E
102
{ACAD_REACTORS
330
2A
102
}
102
{ACAD_XDICTIONARY
360
72
102
}
330
2A
100
AcDbVisualStyle
  2
GouraudWithEdges
 70
     3
 71
     2
 72
     2
 73
     1
 90
        2
 40
-0.6
 41
30.0
 62
     5
 63
     7
 74
     1
 91
        4
 64
     7
 65
   257
 75
     1
175
     1
 42
1.0
 92
        0
 66
   257
 43
1.0
 76
     1
 77
     6
 78
     2
 67
     7
 79
     5
170
     0
171
     0
290
     0
174
     0
 93
       13
 44
0.0
173
     0
291
     1
 45
0.0
1001
ACAD
1000
AcDbSavedByObjectVersion
1070
     0
  0
VISUALSTYLE
  5
38
102
{ACAD_REACTORS
330
2A
102
}
102
{ACAD_XDICTIONARY
360
86
102
}
330
2A
100
AcDbVisualStyle
  2
Linepattern
 70
    14
 71
     2
 72
     2
 73
     0
 90
        0
 40
-0.6
 41
-30.0
 62
     5
 63
     7
 74
     1
 91
        4
 64
     7
 65
   257
 75
     7
175
     7
 42
1.0
 92
        8
 66
     7
 43
1.0
 76
     1
 77
     6
 78
     2
 67
     7
 79
     5
170
     0
171
     0
290
     0
174
     0
 93
        1
 44
0.0
173
     0
291
     1
 45
0.0
1001
ACAD
1000
AcDbSavedByObjectVersion
1070
     0
  0
VISUALSTYLE
  5
33
102
{ACAD_REACTORS
330
2A
102
}
102
{ACAD_XDICTIONARY
360
7C
102
}
330
2A
100
AcDbVisualStyle
  2
Realistic
 70
     8
 71
     2
 72
     2
 73
     0
 90
        0
 40
-0.6
 41
-30.0
 62
     5
 63
     7
 74
     1
 91
        0
 64
     7
 65
   257
 75
     1
175
     1
 42
1.0
 92
        8
 66
     8
 43
1.0
 76
     1
 77
     6
 78
     2
 67
     7
 79
     5
170
     0
171
     0
290
     0
174
     0
 93
       13
 44
0.0
173
     0
291
     0
 45
0.0
1001
ACAD
1000
AcDbSavedByObjectVersion
1070
     0
  0
VISUALSTYLE
  5
37
102
{ACAD_REACTORS
330
2A
102
}
102
{ACAD_XDICTIONARY
360
84
102
}
330
2A
100
AcDbVisualStyle
  2
Thicken
 70
    13
 71
     2
 72
     2
 73
     0
 90
        0
 40
-0.6
 41
-30.0
 62
     5
 63
     7
 74
     1
 91
        4
 64
     7
 65
   257
 75
     1
175
     1
 42
1.0
 92
       12
 66
     7
 43
1.0
 76
     1
 77
     6
 78
     2
 67
     7
 79
     5
170
     0
171
     0
290
     0
174
     0
 93
        1
 44
0.0
173
     0
291
     1
 45
0.0
1001
ACAD
1000
AcDbSavedByObjectVersion
1070
     0
  0
DICTIONARYVAR
  5
6A
102
{ACAD_REACTORS
330
67
102
}
330
67
100
DictionaryVariables
280
     0
  1
2
  0
DICTIONARYVAR
  5
6B
102
{ACAD_REACTORS
330
67
102
}
330
67
100
DictionaryVariables
280
     0
  1
1
  0
DICTIONARY
  5
8E
330
3D
100
AcDbDictionary
280
     1
281
     1
  3
ACAD_XREC_ROUNDTRIP
360
8F
  0
DICTIONARY
  5
8C
330
3C
100
AcDbDictionary
280
     1
281
     1
  3
ACAD_XREC_ROUNDTRIP
360
8D
  0
DICTIONARY
  5
90
330
3E
100
AcDbDictionary
280
     1
281
     1
  3
ACAD_XREC_ROUNDTRIP
360
91
  0
DICTIONARY
  5
74
330
2F
100
AcDbDictionary
280
     1
281
     1
  3
ACAD_XREC_ROUNDTRIP
360
75
  0
DICTIONARY
  5
78
330
31
100
AcDbDictionary
280
     1
281
     1
  3
ACAD_XREC_ROUNDTRIP
360
79
  0
DICTIONARY
  5
76
330
30
100
AcDbDictionary
280
     1
281
     1
  3
ACAD_XREC_ROUNDTRIP
360
77
  0
DICTIONARY
  5
7A
330
32
100
AcDbDictionary
280
     1
281
     1
  3
ACAD_XREC_ROUNDTRIP
360
7B
  0
DICTIONARY
  5
82
330
36
100
AcDbDictionary
280
     1
281
     1
  3
ACAD_XREC_ROUNDTRIP
360
83
  0
DICTIONARY
  5
8A
330
3A
100
AcDbDictionary
280
     1
281
     1
  3
ACAD_XREC_ROUNDTRIP
360
8B
  0
DICTIONARY
  5
7E
330
34
100
AcDbDictionary
280
     1
281
     1
  3
ACAD_XREC_ROUNDTRIP
360
7F
  0
DICTIONARY
  5
80
330
35
100
AcDbDictionary
280
     1
281
     1
  3
ACAD_XREC_ROUNDTRIP
360
81
  0
DICTIONARY
  5
88
330
39
100
AcDbDictionary
280
     1
281
     1
  3
ACAD_XREC_ROUNDTRIP
360
89
  0
DICTIONARY
  5
6C
330
2B
100
AcDbDictionary
280
     1
281
     1
  3
ACAD_XREC_ROUNDTRIP
360
6D
  0
DICTIONARY
  5
6E
330
2C
100
AcDbDictionary
280
     1
281
     1
  3
ACAD_XREC_ROUNDTRIP
360
6F
  0
DICTIONARY
  5
70
330
2D
100
AcDbDictionary
280
     1
281
     1
  3
ACAD_XREC_ROUNDTRIP
360
71
  0
DICTIONARY
  5
72
330
2E
100
AcDbDictionary
280
     1
281
     1
  3
ACAD_XREC_ROUNDTRIP
360
73
  0
DICTIONARY
  5
86
330
38
100
AcDbDictionary
280
     1
281
     1
  3
ACAD_XREC_ROUNDTRIP
360
87
  0
DICTIONARY
  5
7C
330
33
100
AcDbDictionary
280
     1
281
     1
  3
ACAD_XREC_ROUNDTRIP
360
7D
  0
DICTIONARY
  5
84
330
37
100
AcDbDictionary
280
     1
281
     1
  3
ACAD_XREC_ROUNDTRIP
360
85
  0
XRECORD
  5
8F
102
{ACAD_REACTORS
330
8E
102
}
330
8E
100
AcDbXrecord
280
     1
102
MATERIAL
148
0.0
149
0.0
149
0.0
 93
        0
 94
      127
282
     0
 72
     1
 77
     1
171
     1
175
     1
179
     1
273
     0
  0
XRECORD
  5
8D
102
{ACAD_REACTORS
330
8C
102
}
330
8C
100
AcDbXrecord
280
     1
102
MATERIAL
148
0.0
149
0.0
149
0.0
 93
        0
 94
      127
282
     0
 72
     1
 77
     1
171
     1
175
     1
179
     1
273
     0
  0
XRECORD
  5
91
102
{ACAD_REACTORS
330
90
102
}
330
90
100
AcDbXrecord
280
     1
102
MATERIAL
148
0.0
149
0.0
149
0.0
 93
        0
 94
      127
282
     0
 72
     1
 77
     1
171
     1
175
     1
179
     1
273
     0
  0
XRECORD
  5
75
102
{ACAD_REACTORS
330
74
102
}
330
74
100
AcDbXrecord
280
     1
102
RTVSPropertyOp0
 70
     1
102
RTVSPropertyOp1
 70
     1
102
RTVSPropertyOp2
 70
     1
102
RTVSPropertyOp3
 70
     1
102
RTVSPropertyOp4
 70
     1
102
RTVSPropertyOp5
 70
     1
102
RTVSPropertyOp6
 70
     1
102
RTVSPropertyOp7
 70
     1
102
RTVSPropertyOp8
 70
     1
102
RTVSPropertyOp9
 70
     1
102
RTVSPropertyOp10
 70
     1
102
RTVSPropertyOp11
 70
     1
102
RTVSPropertyOp12
 70
     1
102
RTVSPropertyOp13
 70
     1
102
RTVSPropertyOp14
 70
     1
102
RTVSPropertyOp15
 70
     1
102
RTVSPropertyOp16
 70
     1
102
RTVSPropertyOp17
 70
     1
102
RTVSPropertyOp18
 70
     1
102
RTVSPropertyOp19
 70
     1
102
RTVSPropertyOp20
 70
     1
102
RTVSPropertyOp21
 70
     1
102
RTVSPropertyOp22
 70
     1
102
RTVSPropertyOp23
 70
     1
102
RTVSPropertyOp24
 70
     1
102
RTVSPropertyOp25
 70
     1
102
RTVSPropertyOp26
 70
     1
102
RTVSPropertyOp27
 70
     1
  0
XRECORD
  5
79
102
{ACAD_REACTORS
330
78
102
}
330
78
100
AcDbXrecord
280
     1
102
RTVSPropertyOp0
 70
     1
102
RTVSPropertyOp1
 70
     1
102
RTVSPropertyOp2
 70
     1
102
RTVSPropertyOp3
 70
     1
102
RTVSPropertyOp4
 70
     1
102
RTVSPropertyOp5
 70
     1
102
RTVSPropertyOp6
 70
     1
102
RTVSPropertyOp7
 70
     1
102
RTVSPropertyOp8
 70
     1
102
RTVSPropertyOp9
 70
     1
102
RTVSPropertyOp10
 70
     1
102
RTVSPropertyOp11
 70
     1
102
RTVSPropertyOp12
 70
     1
102
RTVSPropertyOp13
 70
     1
102
RTVSPropertyOp14
 70
     1
102
RTVSPropertyOp15
 70
     1
102
RTVSPropertyOp16
 70
     1
102
RTVSPropertyOp17
 70
     1
102
RTVSPropertyOp18
 70
     1
102
RTVSPropertyOp19
 70
     1
102
RTVSPropertyOp20
 70
     1
102
RTVSPropertyOp21
 70
     1
102
RTVSPropertyOp22
 70
     1
102
RTVSPropertyOp23
 70
     1
102
RTVSPropertyOp24
 70
     1
102
RTVSPropertyOp25
 70
     1
102
RTVSPropertyOp26
 70
     1
102
RTVSPropertyOp27
 70
     1
  0
XRECORD
  5
77
102
{ACAD_REACTORS
330
76
102
}
330
76
100
AcDbXrecord
280
     1
102
RTVSPropertyOp0
 70
     1
102
RTVSPropertyOp1
 70
     1
102
RTVSPropertyOp2
 70
     1
102
RTVSPropertyOp3
 70
     1
102
RTVSPropertyOp4
 70
     1
102
RTVSPropertyOp5
 70
     1
102
RTVSPropertyOp6
 70
     1
102
RTVSPropertyOp7
 70
     1
102
RTVSPropertyOp8
 70
     1
102
RTVSPropertyOp9
 70
     1
102
RTVSPropertyOp10
 70
     1
102
RTVSPropertyOp11
 70
     1
102
RTVSPropertyOp12
 70
     1
102
RTVSPropertyOp13
 70
     1
102
RTVSPropertyOp14
 70
     1
102
RTVSPropertyOp15
 70
     1
102
RTVSPropertyOp16
 70
     1
102
RTVSPropertyOp17
 70
     1
102
RTVSPropertyOp18
 70
     1
102
RTVSPropertyOp19
 70
     1
102
RTVSPropertyOp20
 70
     1
102
RTVSPropertyOp21
 70
     1
102
RTVSPropertyOp22
 70
     1
102
RTVSPropertyOp23
 70
     1
102
RTVSPropertyOp24
 70
     1
102
RTVSPropertyOp25
 70
     1
102
RTVSPropertyOp26
 70
     1
102
RTVSPropertyOp27
 70
     1
  0
XRECORD
  5
7B
102
{ACAD_REACTORS
330
7A
102
}
330
7A
100
AcDbXrecord
280
     1
102
RTVSPropertyOp0
 70
     1
102
RTVSPropertyOp1
 70
     1
102
RTVSPropertyOp2
 70
     1
102
RTVSPropertyOp3
 70
     1
102
RTVSPropertyOp4
 70
     1
102
RTVSPropertyOp5
 70
     1
102
RTVSPropertyOp6
 70
     1
102
RTVSPropertyOp7
 70
     1
102
RTVSPropertyOp8
 70
     1
102
RTVSPropertyOp9
 70
     1
102
RTVSPropertyOp10
 70
     1
102
RTVSPropertyOp11
 70
     1
102
RTVSPropertyOp12
 70
     1
102
RTVSPropertyOp13
 70
     1
102
RTVSPropertyOp14
 70
     1
102
RTVSPropertyOp15
 70
     1
102
RTVSPropertyOp16
 70
     1
102
RTVSPropertyOp17
 70
     1
102
RTVSPropertyOp18
 70
     1
102
RTVSPropertyOp19
 70
     1
102
RTVSPropertyOp20
 70
     1
102
RTVSPropertyOp21
 70
     1
102
RTVSPropertyOp22
 70
     1
102
RTVSPropertyOp23
 70
     1
102
RTVSPropertyOp24
 70
     1
102
RTVSPropertyOp25
 70
     1
102
RTVSPropertyOp26
 70
     1
102
RTVSPropertyOp27
 70
     1
  0
XRECORD
  5
83
102
{ACAD_REACTORS
330
82
102
}
330
82
100
AcDbXrecord
280
     1
102
RTVSPropertyOp0
 70
     1
102
RTVSPropertyOp1
 70
     1
102
RTVSPropertyOp2
 70
     1
102
RTVSPropertyOp3
 70
     1
102
RTVSPropertyOp4
 70
     1
102
RTVSPropertyOp5
 70
     1
102
RTVSPropertyOp6
 70
     1
102
RTVSPropertyOp7
 70
     1
102
RTVSPropertyOp8
 70
     1
102
RTVSPropertyOp9
 70
     1
102
RTVSPropertyOp10
 70
     1
102
RTVSPropertyOp11
 70
     1
102
RTVSPropertyOp12
 70
     1
102
RTVSPropertyOp13
 70
     1
102
RTVSPropertyOp14
 70
     1
102
RTVSPropertyOp15
 70
     1
102
RTVSPropertyOp16
 70
     1
102
RTVSPropertyOp17
 70
     1
102
RTVSPropertyOp18
 70
     1
102
RTVSPropertyOp19
 70
     1
102
RTVSPropertyOp20
 70
     1
102
RTVSPropertyOp21
 70
     1
102
RTVSPropertyOp22
 70
     1
102
RTVSPropertyOp23
 70
     1
102
RTVSPropertyOp24
 70
     1
102
RTVSPropertyOp25
 70
     1
102
RTVSPropertyOp26
 70
     1
102
RTVSPropertyOp27
 70
     1
  0
XRECORD
  5
8B
102
{ACAD_REACTORS
330
8A
102
}
330
8A
100
AcDbXrecord
280
     1
102
RTVSPropertyOp0
 70
     1
102
RTVSPropertyOp1
 70
     1
102
RTVSPropertyOp2
 70
     1
102
RTVSPropertyOp3
 70
     1
102
RTVSPropertyOp4
 70
     1
102
RTVSPropertyOp5
 70
     1
102
RTVSPropertyOp6
 70
     1
102
RTVSPropertyOp7
 70
     1
102
RTVSPropertyOp8
 70
     1
102
RTVSPropertyOp9
 70
     1
102
RTVSPropertyOp10
 70
     1
102
RTVSPropertyOp11
 70
     1
102
RTVSPropertyOp12
 70
     1
102
RTVSPropertyOp13
 70
     1
102
RTVSPropertyOp14
 70
     1
102
RTVSPropertyOp15
 70
     1
102
RTVSPropertyOp16
 70
     1
102
RTVSPropertyOp17
 70
     1
102
RTVSPropertyOp18
 70
     1
102
RTVSPropertyOp19
 70
     1
102
RTVSPropertyOp20
 70
     1
102
RTVSPropertyOp21
 70
     1
102
RTVSPropertyOp22
 70
     1
102
RTVSPropertyOp23
 70
     1
102
RTVSPropertyOp24
 70
     1
102
RTVSPropertyOp25
 70
     1
102
RTVSPropertyOp26
 70
     1
102
RTVSPropertyOp27
 70
     1
  0
XRECORD
  5
7F
102
{ACAD_REACTORS
330
7E
102
}
330
7E
100
AcDbXrecord
280
     1
102
RTVSPropertyOp0
 70
     1
102
RTVSPropertyOp1
 70
     1
102
RTVSPropertyOp2
 70
     1
102
RTVSPropertyOp3
 70
     1
102
RTVSPropertyOp4
 70
     1
102
RTVSPropertyOp5
 70
     1
102
RTVSPropertyOp6
 70
     1
102
RTVSPropertyOp7
 70
     1
102
RTVSPropertyOp8
 70
     1
102
RTVSPropertyOp9
 70
     1
102
RTVSPropertyOp10
 70
     1
102
RTVSPropertyOp11
 70
     1
102
RTVSPropertyOp12
 70
     1
102
RTVSPropertyOp13
 70
     1
102
RTVSPropertyOp14
 70
     1
102
RTVSPropertyOp15
 70
     1
102
RTVSPropertyOp16
 70
     1
102
RTVSPropertyOp17
 70
     1
102
RTVSPropertyOp18
 70
     1
102
RTVSPropertyOp19
 70
     1
102
RTVSPropertyOp20
 70
     1
102
RTVSPropertyOp21
 70
     1
102
RTVSPropertyOp22
 70
     1
102
RTVSPropertyOp23
 70
     1
102
RTVSPropertyOp24
 70
     1
102
RTVSPropertyOp25
 70
     1
102
RTVSPropertyOp26
 70
     1
102
RTVSPropertyOp27
 70
     1
  0
XRECORD
  5
81
102
{ACAD_REACTORS
330
80
102
}
330
80
100
AcDbXrecord
280
     1
102
RTVSPropertyOp0
 70
     1
102
RTVSPropertyOp1
 70
     1
102
RTVSPropertyOp2
 70
     1
102
RTVSPropertyOp3
 70
     1
102
RTVSPropertyOp4
 70
     1
102
RTVSPropertyOp5
 70
     1
102
RTVSPropertyOp6
 70
     1
102
RTVSPropertyOp7
 70
     1
102
RTVSPropertyOp8
 70
     1
102
RTVSPropertyOp9
 70
     1
102
RTVSPropertyOp10
 70
     1
102
RTVSPropertyOp11
 70
     1
102
RTVSPropertyOp12
 70
     1
102
RTVSPropertyOp13
 70
     1
102
RTVSPropertyOp14
 70
     1
102
RTVSPropertyOp15
 70
     1
102
RTVSPropertyOp16
 70
     1
102
RTVSPropertyOp17
 70
     1
102
RTVSPropertyOp18
 70
     1
102
RTVSPropertyOp19
 70
     1
102
RTVSPropertyOp20
 70
     1
102
RTVSPropertyOp21
 70
     1
102
RTVSPropertyOp22
 70
     1
102
RTVSPropertyOp23
 70
     1
102
RTVSPropertyOp24
 70
     1
102
RTVSPropertyOp25
 70
     1
102
RTVSPropertyOp26
 70
     1
102
RTVSPropertyOp27
 70
     1
  0
XRECORD
  5
89
102
{ACAD_REACTORS
330
88
102
}
330
88
100
AcDbXrecord
280
     1
102
RTVSPropertyOp0
 70
     1
102
RTVSPropertyOp1
 70
     1
102
RTVSPropertyOp2
 70
     1
102
RTVSPropertyOp3
 70
     1
102
RTVSPropertyOp4
 70
     1
102
RTVSPropertyOp5
 70
     1
102
RTVSPropertyOp6
 70
     1
102
RTVSPropertyOp7
 70
     1
102
RTVSPropertyOp8
 70
     1
102
RTVSPropertyOp9
 70
     1
102
RTVSPropertyOp10
 70
     1
102
RTVSPropertyOp11
 70
     1
102
RTVSPropertyOp12
 70
     1
102
RTVSPropertyOp13
 70
     1
102
RTVSPropertyOp14
 70
     1
102
RTVSPropertyOp15
 70
     1
102
RTVSPropertyOp16
 70
     1
102
RTVSPropertyOp17
 70
     1
102
RTVSPropertyOp18
 70
     1
102
RTVSPropertyOp19
 70
     1
102
RTVSPropertyOp20
 70
     1
102
RTVSPropertyOp21
 70
     1
102
RTVSPropertyOp22
 70
     1
102
RTVSPropertyOp23
 70
     1
102
RTVSPropertyOp24
 70
     1
102
RTVSPropertyOp25
 70
     1
102
RTVSPropertyOp26
 70
     1
102
RTVSPropertyOp27
 70
     1
  0
XRECORD
  5
6D
102
{ACAD_REACTORS
330
6C
102
}
330
6C
100
AcDbXrecord
280
     1
102
RTVSPropertyOp0
 70
     1
102
RTVSPropertyOp1
 70
     1
102
RTVSPropertyOp2
 70
     1
102
RTVSPropertyOp3
 70
     1
102
RTVSPropertyOp4
 70
     1
102
RTVSPropertyOp5
 70
     1
102
RTVSPropertyOp6
 70
     1
102
RTVSPropertyOp7
 70
     1
102
RTVSPropertyOp8
 70
     1
102
RTVSPropertyOp9
 70
     1
102
RTVSPropertyOp10
 70
     1
102
RTVSPropertyOp11
 70
     1
102
RTVSPropertyOp12
 70
     1
102
RTVSPropertyOp13
 70
     1
102
RTVSPropertyOp14
 70
     1
102
RTVSPropertyOp15
 70
     1
102
RTVSPropertyOp16
 70
     1
102
RTVSPropertyOp17
 70
     1
102
RTVSPropertyOp18
 70
     1
102
RTVSPropertyOp19
 70
     1
102
RTVSPropertyOp20
 70
     1
102
RTVSPropertyOp21
 70
     1
102
RTVSPropertyOp22
 70
     1
102
RTVSPropertyOp23
 70
     1
102
RTVSPropertyOp24
 70
     1
102
RTVSPropertyOp25
 70
     1
102
RTVSPropertyOp26
 70
     1
102
RTVSPropertyOp27
 70
     1
  0
XRECORD
  5
6F
102
{ACAD_REACTORS
330
6E
102
}
330
6E
100
AcDbXrecord
280
     1
102
RTVSPropertyOp0
 70
     1
102
RTVSPropertyOp1
 70
     1
102
RTVSPropertyOp2
 70
     1
102
RTVSPropertyOp3
 70
     1
102
RTVSPropertyOp4
 70
     1
102
RTVSPropertyOp5
 70
     1
102
RTVSPropertyOp6
 70
     1
102
RTVSPropertyOp7
 70
     1
102
RTVSPropertyOp8
 70
     1
102
RTVSPropertyOp9
 70
     1
102
RTVSPropertyOp10
 70
     1
102
RTVSPropertyOp11
 70
     1
102
RTVSPropertyOp12
 70
     1
102
RTVSPropertyOp13
 70
     1
102
RTVSPropertyOp14
 70
     1
102
RTVSPropertyOp15
 70
     1
102
RTVSPropertyOp16
 70
     1
102
RTVSPropertyOp17
 70
     1
102
RTVSPropertyOp18
 70
     1
102
RTVSPropertyOp19
 70
     1
102
RTVSPropertyOp20
 70
     1
102
RTVSPropertyOp21
 70
     1
102
RTVSPropertyOp22
 70
     1
102
RTVSPropertyOp23
 70
     1
102
RTVSPropertyOp24
 70
     1
102
RTVSPropertyOp25
 70
     1
102
RTVSPropertyOp26
 70
     1
102
RTVSPropertyOp27
 70
     1
  0
XRECORD
  5
71
102
{ACAD_REACTORS
330
70
102
}
330
70
100
AcDbXrecord
280
     1
102
RTVSPropertyOp0
 70
     1
102
RTVSPropertyOp1
 70
     1
102
RTVSPropertyOp2
 70
     1
102
RTVSPropertyOp3
 70
     1
102
RTVSPropertyOp4
 70
     1
102
RTVSPropertyOp5
 70
     1
102
RTVSPropertyOp6
 70
     1
102
RTVSPropertyOp7
 70
     1
102
RTVSPropertyOp8
 70
     1
102
RTVSPropertyOp9
 70
     1
102
RTVSPropertyOp10
 70
     1
102
RTVSPropertyOp11
 70
     1
102
RTVSPropertyOp12
 70
     1
102
RTVSPropertyOp13
 70
     1
102
RTVSPropertyOp14
 70
     1
102
RTVSPropertyOp15
 70
     1
102
RTVSPropertyOp16
 70
     1
102
RTVSPropertyOp17
 70
     1
102
RTVSPropertyOp18
 70
     1
102
RTVSPropertyOp19
 70
     1
102
RTVSPropertyOp20
 70
     1
102
RTVSPropertyOp21
 70
     1
102
RTVSPropertyOp22
 70
     1
102
RTVSPropertyOp23
 70
     1
102
RTVSPropertyOp24
 70
     1
102
RTVSPropertyOp25
 70
     1
102
RTVSPropertyOp26
 70
     1
102
RTVSPropertyOp27
 70
     1
  0
XRECORD
  5
73
102
{ACAD_REACTORS
330
72
102
}
330
72
100
AcDbXrecord
280
     1
102
RTVSPropertyOp0
 70
     1
102
RTVSPropertyOp1
 70
     1
102
RTVSPropertyOp2
 70
     1
102
RTVSPropertyOp3
 70
     1
102
RTVSPropertyOp4
 70
     1
102
RTVSPropertyOp5
 70
     1
102
RTVSPropertyOp6
 70
     1
102
RTVSPropertyOp7
 70
     1
102
RTVSPropertyOp8
 70
     1
102
RTVSPropertyOp9
 70
     1
102
RTVSPropertyOp10
 70
     1
102
RTVSPropertyOp11
 70
     1
102
RTVSPropertyOp12
 70
     1
102
RTVSPropertyOp13
 70
     1
102
RTVSPropertyOp14
 70
     1
102
RTVSPropertyOp15
 70
     1
102
RTVSPropertyOp16
 70
     1
102
RTVSPropertyOp17
 70
     1
102
RTVSPropertyOp18
 70
     1
102
RTVSPropertyOp19
 70
     1
102
RTVSPropertyOp20
 70
     1
102
RTVSPropertyOp21
 70
     1
102
RTVSPropertyOp22
 70
     1
102
RTVSPropertyOp23
 70
     1
102
RTVSPropertyOp24
 70
     1
102
RTVSPropertyOp25
 70
     1
102
RTVSPropertyOp26
 70
     1
102
RTVSPropertyOp27
 70
     1
  0
XRECORD
  5
87
102
{ACAD_REACTORS
330
86
102
}
330
86
100
AcDbXrecord
280
     1
102
RTVSPropertyOp0
 70
     1
102
RTVSPropertyOp1
 70
     1
102
RTVSPropertyOp2
 70
     1
102
RTVSPropertyOp3
 70
     1
102
RTVSPropertyOp4
 70
     1
102
RTVSPropertyOp5
 70
     1
102
RTVSPropertyOp6
 70
     1
102
RTVSPropertyOp7
 70
     1
102
RTVSPropertyOp8
 70
     1
102
RTVSPropertyOp9
 70
     1
102
RTVSPropertyOp10
 70
     1
102
RTVSPropertyOp11
 70
     1
102
RTVSPropertyOp12
 70
     1
102
RTVSPropertyOp13
 70
     1
102
RTVSPropertyOp14
 70
     1
102
RTVSPropertyOp15
 70
     1
102
RTVSPropertyOp16
 70
     1
102
RTVSPropertyOp17
 70
     1
102
RTVSPropertyOp18
 70
     1
102
RTVSPropertyOp19
 70
     1
102
RTVSPropertyOp20
 70
     1
102
RTVSPropertyOp21
 70
     1
102
RTVSPropertyOp22
 70
     1
102
RTVSPropertyOp23
 70
     1
102
RTVSPropertyOp24
 70
     1
102
RTVSPropertyOp25
 70
     1
102
RTVSPropertyOp26
 70
     1
102
RTVSPropertyOp27
 70
     1
  0
XRECORD
  5
7D
102
{ACAD_REACTORS
330
7C
102
}
330
7C
100
AcDbXrecord
280
     1
102
RTVSPropertyOp0
 70
     1
102
RTVSPropertyOp1
 70
     1
102
RTVSPropertyOp2
 70
     1
102
RTVSPropertyOp3
 70
     1
102
RTVSPropertyOp4
 70
     1
102
RTVSPropertyOp5
 70
     1
102
RTVSPropertyOp6
 70
     1
102
RTVSPropertyOp7
 70
     1
102
RTVSPropertyOp8
 70
     1
102
RTVSPropertyOp9
 70
     1
102
RTVSPropertyOp10
 70
     1
102
RTVSPropertyOp11
 70
     1
102
RTVSPropertyOp12
 70
     1
102
RTVSPropertyOp13
 70
     1
102
RTVSPropertyOp14
 70
     1
102
RTVSPropertyOp15
 70
     1
102
RTVSPropertyOp16
 70
     1
102
RTVSPropertyOp17
 70
     1
102
RTVSPropertyOp18
 70
     1
102
RTVSPropertyOp19
 70
     1
102
RTVSPropertyOp20
 70
     1
102
RTVSPropertyOp21
 70
     1
102
RTVSPropertyOp22
 70
     1
102
RTVSPropertyOp23
 70
     1
102
RTVSPropertyOp24
 70
     1
102
RTVSPropertyOp25
 70
     1
102
RTVSPropertyOp26
 70
     1
102
RTVSPropertyOp27
 70
     1
  0
XRECORD
  5
85
102
{ACAD_REACTORS
330
84
102
}
330
84
100
AcDbXrecord
280
     1
102
RTVSPropertyOp0
 70
     1
102
RTVSPropertyOp1
 70
     1
102
RTVSPropertyOp2
 70
     1
102
RTVSPropertyOp3
 70
     1
102
RTVSPropertyOp4
 70
     1
102
RTVSPropertyOp5
 70
     1
102
RTVSPropertyOp6
 70
     1
102
RTVSPropertyOp7
 70
     1
102
RTVSPropertyOp8
 70
     1
102
RTVSPropertyOp9
 70
     1
102
RTVSPropertyOp10
 70
     1
102
RTVSPropertyOp11
 70
     1
102
RTVSPropertyOp12
 70
     1
102
RTVSPropertyOp13
 70
     1
102
RTVSPropertyOp14
 70
     1
102
RTVSPropertyOp15
 70
     1
102
RTVSPropertyOp16
 70
     1
102
RTVSPropertyOp17
 70
     1
102
RTVSPropertyOp18
 70
     1
102
RTVSPropertyOp19
 70
     1
102
RTVSPropertyOp20
 70
     1
102
RTVSPropertyOp21
 70
     1
102
RTVSPropertyOp22
 70
     1
102
RTVSPropertyOp23
 70
     1
102
RTVSPropertyOp24
 70
     1
102
RTVSPropertyOp25
 70
     1
102
RTVSPropertyOp26
 70
     1
102
RTVSPropertyOp27
 70
     1
  0
ENDSEC
  0
EOF
