  0
SECTION
  2
HEADER
  9
$ACADVER
  1
AC1014
  9
$ACADMAINTVER
 70
     9
  9
$DWGCODEPAGE
  3
ANSI_1250
  9
$INSBASE
 10
0.0
 20
0.0
 30
0.0
  9
$EXTMIN
 10
-48.9776
 20
-16.4943
 30
0.0
  9
$EXTMAX
 10
49.0146
 20
16.4944
 30
0.0
  9
$LIMMIN
 10
0.0
 20
0.0
  9
$LIMMAX
 10
12.0
 20
9.0
  9
$ORTHOMODE
 70
     0
  9
$REGENMODE
 70
     1
  9
$FILLMODE
 70
     1
  9
$QTEXTMODE
 70
     0
  9
$MIRRTEXT
 70
     1
  9
$DRAGMODE
 70
     2
  9
$LTSCALE
 40
1.0
  9
$OSMODE
 70
    37
  9
$ATTMODE
 70
     1
  9
$TEXTSIZE
 40
0.2
  9
$TRACEWID
 40
0.05
  9
$TEXTSTYLE
  7
STANDARD
  9
$CLAYER
  8
0
  9
$CELTYPE
  6
BYLAYER
  9
$CECOLOR
 62
   256
  9
$CELTSCALE
 40
1.0
  9
$DELOBJ
 70
     1
  9
$DISPSILH
 70
     0
  9
$DIMSCALE
 40
1.0
  9
$DIMASZ
 40
0.18
  9
$DIMEXO
 40
0.0625
  9
$DIMDLI
 40
0.38
  9
$DIMRND
 40
0.0
  9
$DIMDLE
 40
0.0
  9
$DIMEXE
 40
0.18
  9
$DIMTP
 40
0.0
  9
$DIMTM
 40
0.0
  9
$DIMTXT
 40
0.18
  9
$DIMCEN
 40
0.09
  9
$DIMTSZ
 40
0.0
  9
$DIMTOL
 70
     0
  9
$DIMLIM
 70
     0
  9
$DIMTIH
 70
     1
  9
$DIMTOH
 70
     1
  9
$DIMSE1
 70
     0
  9
$DIMSE2
 70
     0
  9
$DIMTAD
 70
     0
  9
$DIMZIN
 70
     0
  9
$DIMBLK
  1

  9
$DIMASO
 70
     1
  9
$DIMSHO
 70
     1
  9
$DIMPOST
  1

  9
$DIMAPOST
  1

  9
$DIMALT
 70
     0
  9
$DIMALTD
 70
     2
  9
$DIMALTF
 40
25.4
  9
$DIMLFAC
 40
1.0
  9
$DIMTOFL
 70
     0
  9
$DIMTVP
 40
0.0
  9
$DIMTIX
 70
     0
  9
$DIMSOXD
 70
     0
  9
$DIMSAH
 70
     0
  9
$DIMBLK1
  1

  9
$DIMBLK2
  1

  9
$DIMSTYLE
  2
STANDARD
  9
$DIMCLRD
 70
     0
  9
$DIMCLRE
 70
     0
  9
$DIMCLRT
 70
     0
  9
$DIMTFAC
 40
1.0
  9
$DIMGAP
 40
0.09
  9
$DIMJUST
 70
     0
  9
$DIMSD1
 70
     0
  9
$DIMSD2
 70
     0
  9
$DIMTOLJ
 70
     1
  9
$DIMTZIN
 70
     0
  9
$DIMALTZ
 70
     0
  9
$DIMALTTZ
 70
     0
  9
$DIMFIT
 70
     3
  9
$DIMUPT
 70
     0
  9
$DIMUNIT
 70
     2
  9
$DIMDEC
 70
     4
  9
$DIMTDEC
 70
     4
  9
$DIMALTU
 70
     2
  9
$DIMALTTD
 70
     2
  9
$DIMTXSTY
  7
STANDARD
  9
$DIMAUNIT
 70
     0
  9
$LUNITS
 70
     2
  9
$LUPREC
 70
     4
  9
$SKETCHINC
 40
0.1
  9
$FILLETRAD
 40
0.5
  9
$AUNITS
 70
     0
  9
$AUPREC
 70
     0
  9
$MENU
  1
.
  9
$ELEVATION
 40
0.0
  9
$PELEVATION
 40
0.0
  9
$THICKNESS
 40
0.0
  9
$LIMCHECK
 70
     0
  9
$CHAMFERA
 40
0.5
  9
$CHAMFERB
 40
0.5
  9
$CHAMFERC
 40
1.0
  9
$CHAMFERD
 40
0.0
  9
$SKPOLY
 70
     0
  9
$TDCREATE
 40
2456272.428046111
  9
$TDUPDATE
 40
2456272.428046123
  9
$TDINDWG
 40
0.0000000116
  9
$TDUSRTIMER
 40
0.0000000116
  9
$USRTIMER
 70
     1
  9
$ANGBASE
 50
0.0
  9
$ANGDIR
 70
     0
  9
$PDMODE
 70
     0
  9
$PDSIZE
 40
0.0
  9
$PLINEWID
 40
0.0
  9
$COORDS
 70
     1
  9
$SPLFRAME
 70
     0
  9
$SPLINETYPE
 70
     6
  9
$SPLINESEGS
 70
     8
  9
$ATTDIA
 70
     0
  9
$ATTREQ
 70
     1
  9
$HANDLING
 70
     1
  9
$HANDSEED
  5
D0
  9
$SURFTAB1
 70
     6
  9
$SURFTAB2
 70
     6
  9
$SURFTYPE
 70
     6
  9
$SURFU
 70
     6
  9
$SURFV
 70
     6
  9
$UCSNAME
  2

  9
$UCSORG
 10
0.0
 20
0.0
 30
0.0
  9
$UCSXDIR
 10
1.0
 20
0.0
 30
0.0
  9
$UCSYDIR
 10
0.0
 20
1.0
 30
0.0
  9
$PUCSNAME
  2

  9
$PUCSORG
 10
0.0
 20
0.0
 30
0.0
  9
$PUCSXDIR
 10
1.0
 20
0.0
 30
0.0
  9
$PUCSYDIR
 10
0.0
 20
1.0
 30
0.0
  9
$USERI1
 70
     0
  9
$USERI2
 70
     0
  9
$USERI3
 70
     0
  9
$USERI4
 70
     0
  9
$USERI5
 70
     0
  9
$USERR1
 40
0.0
  9
$USERR2
 40
0.0
  9
$USERR3
 40
0.0
  9
$USERR4
 40
0.0
  9
$USERR5
 40
0.0
  9
$WORLDVIEW
 70
     1
  9
$SHADEDGE
 70
     3
  9
$SHADEDIF
 70
    70
  9
$TILEMODE
 70
     1
  9
$MAXACTVP
 70
    64
  9
$PINSBASE
 10
0.0
 20
0.0
 30
0.0
  9
$PLIMCHECK
 70
     0
  9
$PEXTMIN
 10
1.000000000000000E+20
 20
1.000000000000000E+20
 30
1.000000000000000E+20
  9
$PEXTMAX
 10
-1.000000000000000E+20
 20
-1.000000000000000E+20
 30
-1.000000000000000E+20
  9
$PLIMMIN
 10
0.0
 20
0.0
  9
$PLIMMAX
 10
12.0
 20
9.0
  9
$UNITMODE
 70
     0
  9
$VISRETAIN
 70
     1
  9
$PLINEGEN
 70
     0
  9
$PSLTSCALE
 70
     1
  9
$TREEDEPTH
 70
  3020
  9
$PICKSTYLE
 70
     1
  9
$CMLSTYLE
  2
STANDARD
  9
$CMLJUST
 70
     0
  9
$CMLSCALE
 40
1.0
  9
$PROXYGRAPHICS
 70
     1
  9
$MEASUREMENT
 70
     0
  0
ENDSEC
  0
SECTION
  2
CLASSES
  0
CLASS
  1
ACDBDICTIONARYWDFLT
  2
AcDbDictionaryWithDefault
  3
ObjectDBX Classes
 90
        0
280
     0
281
     0
  0
CLASS
  1
VISUALSTYLE
  2
AcDbVisualStyle
  3
ObjectDBX Classes
 90
     4095
280
     0
281
     0
  0
CLASS
  1
MATERIAL
  2
AcDbMaterial
  3
ObjectDBX Classes
 90
     1153
280
     0
281
     0
  0
CLASS
  1
DICTIONARYVAR
  2
AcDbDictionaryVar
  3
ObjectDBX Classes
 90
        0
280
     0
281
     0
  0
CLASS
  1
XRECORD
  2
AcDbXrecord
  3
AutoCAD 2000
 90
        0
280
     0
281
     0
  0
CLASS
  1
LWPOLYLINE
  2
AcDbPolyline
  3
AutoCAD 2000
 90
        0
280
     0
281
     1
  0
CLASS
  1
HATCH
  2
AcDbHatch
  3
AutoCAD 2000
 90
        0
280
     0
281
     1
  0
CLASS
  1
ACDBPLACEHOLDER
  2
AcDbPlaceHolder
  3
ObjectDBX Classes
 90
        0
280
     0
281
     0
  0
CLASS
  1
LAYOUT
  2
AcDbLayout
  3
ObjectDBX Classes
 90
        0
280
     0
281
     0
  0
ENDSEC
  0
SECTION
  2
TABLES
  0
TABLE
  2
VPORT
  5
8
330
0
100
AcDbSymbolTable
 70
     1
  0
VPORT
  5
29
330
8
100
AcDbSymbolTableRecord
100
AcDbViewportTableRecord
  2
*ACTIVE
 70
     0
 10
0.0
 20
0.0
 11
1.0
 21
1.0
 12
10.42990654205607
 22
4.5
 13
0.0
 23
0.0
 14
0.5
 24
0.5
 15
0.5
 25
0.5
 16
0.0
 26
0.0
 36
1.0
 17
0.0
 27
0.0
 37
0.0
 40
9.0
 41
1.972972972850329
 42
50.0
 43
0.0
 44
0.0
 50
0.0
 51
0.0
 71
     0
 72
   100
 73
     1
 74
     3
 75
     0
 76
     0
 77
     0
 78
     0
  0
ENDTAB
  0
TABLE
  2
LTYPE
  5
5
330
0
100
AcDbSymbolTable
 70
     3
  0
LTYPE
  5
14
330
5
100
AcDbSymbolTableRecord
100
AcDbLinetypeTableRecord
  2
BYBLOCK
 70
     0
  3

 72
    65
 73
     0
 40
0.0
  0
LTYPE
  5
15
330
5
100
AcDbSymbolTableRecord
100
AcDbLinetypeTableRecord
  2
BYLAYER
 70
     0
  3

 72
    65
 73
     0
 40
0.0
  0
LTYPE
  5
16
330
5
100
AcDbSymbolTableRecord
100
AcDbLinetypeTableRecord
  2
CONTINUOUS
 70
     0
  3
Solid line
 72
    65
 73
     0
 40
0.0
  0
LTYPE
  5
42
330
5
100
AcDbSymbolTableRecord
100
AcDbLinetypeTableRecord
  2
NEW_LINE1
 70
     0
  3

 72
    65
 73
     4
 40
1.2
 49
0.5
 74
     4
 75
     0
340
0
 46
1.0
 50
0.0
 44
0.0
 45
0.0
 49
-0.3
 74
     4
 75
     0
340
0
 46
1.0
 50
0.0
 44
0.0
 45
0.0
 49
0.1
 74
     4
 75
     0
340
0
 46
1.0
 50
0.0
 44
0.0
 45
0.0
 49
-0.3
 74
     4
 75
     0
340
0
 46
1.0
 50
0.0
 44
0.0
 45
0.0
  0
LTYPE
  5
A4
330
5
100
AcDbSymbolTableRecord
100
AcDbLinetypeTableRecord
  2
NEW_LINE2
 70
     0
  3

 72
    65
 73
     4
 40
1.2
 49
0.5
 74
     4
 75
     0
340
0
 46
1.0
 50
0.0
 44
0.0
 45
0.0
 49
-0.3
 74
     4
 75
     0
340
0
 46
1.0
 50
0.0
 44
0.0
 45
0.0
 49
0.1
 74
     4
 75
     0
340
0
 46
1.0
 50
0.0
 44
0.0
 45
0.0
 49
-0.3
 74
     4
 75
     0
340
0
 46
1.0
 50
0.0
 44
0.0
 45
0.0
  0
ENDTAB
  0
TABLE
  2
LAYER
  5
2
330
0
100
AcDbSymbolTable
 70
     2
  0
LAYER
  5
10
330
2
100
AcDbSymbolTableRecord
100
AcDbLayerTableRecord
  2
0
 70
     0
 62
     7
  6
CONTINUOUS
  0
LAYER
  5
40
330
2
100
AcDbSymbolTableRecord
100
AcDbLayerTableRecord
  2
ROUND
 70
     0
 62
     7
  6
CONTINUOUS
  0
ENDTAB
  0
TABLE
  2
STYLE
  5
3
330
0
100
AcDbSymbolTable
 70
     1
  0
STYLE
  5
11
330
3
100
AcDbSymbolTableRecord
100
AcDbTextStyleTableRecord
  2
STANDARD
 70
     0
 40
0.0
 41
1.0
 50
0.0
 71
     0
 42
0.2
  3
txt
  4

  0
ENDTAB
  0
TABLE
  2
VIEW
  5
6
330
0
100
AcDbSymbolTable
 70
     0
  0
ENDTAB
  0
TABLE
  2
UCS
  5
7
330
0
100
AcDbSymbolTable
 70
     0
  0
ENDTAB
  0
TABLE
  2
APPID
  5
9
330
0
100
AcDbSymbolTable
 70
     2
  0
APPID
  5
12
330
9
100
AcDbSymbolTableRecord
100
AcDbRegAppTableRecord
  2
ACAD
 70
     0
  0
APPID
  5
3F
330
9
100
AcDbSymbolTableRecord
100
AcDbRegAppTableRecord
  2
ODA
 70
     0
  0
ENDTAB
  0
TABLE
  2
DIMSTYLE
  5
A
330
0
100
AcDbSymbolTable
 70
     1
  0
DIMSTYLE
105
27
330
A
100
AcDbSymbolTableRecord
100
AcDbDimStyleTableRecord
  2
STANDARD
 70
     0
  3

  4

  5

  6

  7

 40
1.0
 41
0.18
 42
0.0625
 43
0.38
 44
0.18
 45
0.0
 46
0.0
 47
0.0
 48
0.0
140
0.18
141
0.09
142
0.0
143
25.4
144
1.0
145
0.0
146
1.0
147
0.09
 71
     0
 72
     0
 73
     1
 74
     1
 75
     0
 76
     0
 77
     0
 78
     0
170
     0
171
     2
172
     0
173
     0
174
     0
175
     0
176
     0
177
     0
178
     0
270
     2
271
     4
272
     4
273
     2
274
     2
340
11
275
     0
280
     0
281
     0
282
     0
283
     1
284
     0
285
     0
286
     0
287
     3
288
     0
  0
ENDTAB
  0
TABLE
  2
BLOCK_RECORD
  5
1
330
0
100
AcDbSymbolTable
 70
     1
  0
BLOCK_RECORD
  5
1F
330
1
100
AcDbSymbolTableRecord
100
AcDbBlockTableRecord
  2
*MODEL_SPACE
  0
BLOCK_RECORD
  5
1B
330
1
100
AcDbSymbolTableRecord
100
AcDbBlockTableRecord
  2
*PAPER_SPACE
  0
ENDTAB
  0
ENDSEC
  0
SECTION
  2
BLOCKS
  0
BLOCK
  5
20
330
1F
100
AcDbEntity
  8
0
100
AcDbBlockBegin
  2
*MODEL_SPACE
 70
     0
 10
0.0
 20
0.0
 30
0.0
  3
*MODEL_SPACE
  1

  0
ENDBLK
  5
21
330
1F
100
AcDbEntity
  8
0
100
AcDbBlockEnd
  0
BLOCK
  5
1C
330
1B
100
AcDbEntity
 67
     1
  8
0
100
AcDbBlockBegin
  2
*PAPER_SPACE
 70
     0
 10
0.0
 20
0.0
 30
0.0
  3
*PAPER_SPACE
  1

  0
ENDBLK
  5
1D
330
1B
100
AcDbEntity
 67
     1
  8
0
100
AcDbBlockEnd
  0
ENDSEC
  0
SECTION
  2
ENTITIES
  0
SPLINE
  5
41
330
1F
100
AcDbEntity
  8
ROUND
  6
NEW_LINE1
 62
   250
100
AcDbSpline
210
0.0
220
0.0
230
1.0
 70
    24
 71
     3
 72
     8
 73
     4
 74
     0
 42
0.0000000001
 43
0.0000000001
 40
0.0
 40
0.0
 40
0.0
 40
0.0
 40
1.0
 40
1.0
 40
1.0
 40
1.0
 10
-42.2273
 20
-2.4997
 30
0.0
 10
-42.2273
 20
-2.4997
 30
0.0
 10
-18.1543
 20
-2.4997
 30
0.0
 10
-18.1543
 20
-2.4997
 30
0.0
  0
SPLINE
  5
43
330
1F
100
AcDbEntity
  8
ROUND
 62
   250
100
AcDbSpline
210
0.0
220
0.0
230
1.0
 70
    11
 71
     3
 72
    92
 73
    88
 74
     0
 42
0.0000000001
 43
0.0000000001
 40
0.0
 40
0.0
 40
0.0
 40
0.0
 40
0.0434782608695652
 40
0.0434782608695652
 40
0.0434782608695652
 40
0.0434782608695652
 40
0.0869565217391304
 40
0.0869565217391304
 40
0.0869565217391304
 40
0.0869565217391304
 40
0.1304347826086956
 40
0.1304347826086956
 40
0.1304347826086956
 40
0.1304347826086956
 40
0.1739130434782609
 40
0.1739130434782609
 40
0.1739130434782609
 40
0.1739130434782609
 40
0.2173913043478261
 40
0.2173913043478261
 40
0.2173913043478261
 40
0.2173913043478261
 40
0.2608695652173913
 40
0.2608695652173913
 40
0.2608695652173913
 40
0.2608695652173913
 40
0.3043478260869565
 40
0.3043478260869565
 40
0.3043478260869565
 40
0.3043478260869565
 40
0.3478260869565217
 40
0.3478260869565217
 40
0.3478260869565217
 40
0.3478260869565217
 40
0.391304347826087
 40
0.391304347826087
 40
0.391304347826087
 40
0.391304347826087
 40
0.4347826086956522
 40
0.4347826086956522
 40
0.4347826086956522
 40
0.4347826086956522
 40
0.4782608695652174
 40
0.4782608695652174
 40
0.4782608695652174
 40
0.4782608695652174
 40
0.5217391304347826
 40
0.5217391304347826
 40
0.5217391304347826
 40
0.5217391304347826
 40
0.5652173913043478
 40
0.5652173913043478
 40
0.5652173913043478
 40
0.5652173913043478
 40
0.6086956521739131
 40
0.6086956521739131
 40
0.6086956521739131
 40
0.6086956521739131
 40
0.6521739130434783
 40
0.6521739130434783
 40
0.6521739130434783
 40
0.6521739130434783
 40
0.6956521739130435
 40
0.6956521739130435
 40
0.6956521739130435
 40
0.6956521739130435
 40
0.7391304347826086
 40
0.7391304347826086
 40
0.7391304347826086
 40
0.7391304347826086
 40
0.782608695652174
 40
0.782608695652174
 40
0.782608695652174
 40
0.782608695652174
 40
0.8260869565217391
 40
0.8260869565217391
 40
0.8260869565217391
 40
0.8260869565217391
 40
0.8695652173913043
 40
0.8695652173913043
 40
0.8695652173913043
 40
0.8695652173913043
 40
0.9130434782608695
 40
0.9130434782608695
 40
0.9130434782608695
 40
0.9130434782608695
 40
1.0
 40
1.0
 40
1.0
 40
1.0
 10
-4.3314
 20
13.7349
 30
0.0
 10
-4.3314
 20
13.7349
 30
0.0
 10
-4.3314
 20
13.3673
 30
0.0
 10
-4.3314
 20
13.3673
 30
0.0
 10
-4.3314
 20
13.3673
 30
0.0
 10
-4.3314
 20
13.3673
 30
0.0
 10
-6.3898
 20
13.3673
 30
0.0
 10
-6.3898
 20
13.3673
 30
0.0
 10
-6.3898
 20
13.3673
 30
0.0
 10
-6.3927
 20
13.4593
 30
0.0
 10
-6.3782
 20
13.5478
 30
0.0
 10
-6.3455
 20
13.6326
 30
0.0
 10
-6.3455
 20
13.6326
 30
0.0
 10
-6.2933
 20
13.7733
 30
0.0
 10
-6.2093
 20
13.9111
 30
0.0
 10
-6.094
 20
14.0474
 30
0.0
 10
-6.094
 20
14.0474
 30
0.0
 10
-5.9779
 20
14.183
 30
0.0
 10
-5.8111
 20
14.3403
 30
0.0
 10
-5.5936
 20
14.5186
 30
0.0
 10
-5.5936
 20
14.5186
 30
0.0
 10
-5.2551
 20
14.7964
 30
0.0
 10
-5.0259
 20
15.016
 30
0.0
 10
-4.9071
 20
15.1785
 30
0.0
 10
-4.9071
 20
15.1785
 30
0.0
 10
-4.7882
 20
15.34
 30
0.0
 10
-4.7287
 20
15.4939
 30
0.0
 10
-4.7287
 20
15.6381
 30
0.0
 10
-4.7287
 20
15.6381
 30
0.0
 10
-4.7287
 20
15.7897
 30
0.0
 10
-4.7832
 20
15.9173
 30
0.0
 10
-4.8912
 20
16.0216
 30
0.0
 10
-4.8912
 20
16.0216
 30
0.0
 10
-4.9999
 20
16.1252
 30
0.0
 10
-5.1412
 20
16.1775
 30
0.0
 10
-5.3153
 20
16.1775
 30
0.0
 10
-5.3153
 20
16.1775
 30
0.0
 10
-5.4995
 20
16.1775
 30
0.0
 10
-5.6467
 20
16.1224
 30
0.0
 10
-5.7569
 20
16.0115
 30
0.0
 10
-5.7569
 20
16.0115
 30
0.0
 10
-5.8677
 20
15.9013
 30
0.0
 10
-5.9236
 20
15.7483
 30
0.0
 10
-5.925
 20
15.5532
 30
0.0
 10
-5.925
 20
15.5532
 30
0.0
 10
-5.925
 20
15.5532
 30
0.0
 10
-6.3179
 20
15.5931
 30
0.0
 10
-6.3179
 20
15.5931
 30
0.0
 10
-6.3179
 20
15.5931
 30
0.0
 10
-6.2911
 20
15.8868
 30
0.0
 10
-6.1897
 20
16.1101
 30
0.0
 10
-6.0143
 20
16.2638
 30
0.0
 10
-6.0143
 20
16.2638
 30
0.0
 10
-5.8387
 20
16.4175
 30
0.0
 10
-5.6024
 20
16.4944
 30
0.0
 10
-5.3066
 20
16.4944
 30
0.0
 10
-5.3066
 20
16.4944
 30
0.0
 10
-5.0079
 20
16.4944
 30
0.0
 10
-4.7714
 20
16.411
 30
0.0
 10
-4.5976
 20
16.2456
 30
0.0
 10
-4.5976
 20
16.2456
 30
0.0
 10
-4.4228
 20
16.0796
 30
0.0
 10
-4.3358
 20
15.8744
 30
0.0
 10
-4.3358
 20
15.6293
 30
0.0
 10
-4.3358
 20
15.6293
 30
0.0
 10
-4.3358
 20
15.5046
 30
0.0
 10
-4.3611
 20
15.3821
 30
0.0
 10
-4.4126
 20
15.2619
 30
0.0
 10
-4.4126
 20
15.2619
 30
0.0
 10
-4.4633
 20
15.1415
 30
0.0
 10
-4.5482
 20
15.0146
 30
0.0
 10
-4.6663
 20
14.8819
 30
0.0
 10
-4.6663
 20
14.8819
 30
0.0
 10
-4.7845
 20
14.7484
 30
0.0
 10
-4.9811
 20
14.5658
 30
0.0
 10
-5.2558
 20
14.3338
 30
0.0
 10
-5.2558
 20
14.3338
 30
0.0
 10
-5.485
 20
14.141
 30
0.0
 10
-5.6322
 20
14.0104
 30
0.0
 10
-5.6974
 20
13.9415
 30
0.0
 10
-5.6974
 20
13.9415
 30
0.0
 10
-5.7626
 20
13.8734
 30
0.0
 10
-5.8162
 20
13.8045
 30
0.0
 10
-5.8591
 20
13.7349
 30
0.0
 10
-5.8591
 20
13.7349
 30
0.0
 10
-5.8591
 20
13.7349
 30
0.0
 10
-4.3314
 20
13.7349
 30
0.0
 10
-4.3314
 20
13.7349
 30
0.0
  0
SPLINE
  5
44
330
1F
100
AcDbEntity
  8
ROUND
 62
   250
100
AcDbSpline
210
0.0
220
0.0
230
1.0
 70
    11
 71
     3
 72
    52
 73
    48
 74
     0
 42
0.0000000001
 43
0.0000000001
 40
0.0
 40
0.0
 40
0.0
 40
0.0
 40
0.0769230769230769
 40
0.0769230769230769
 40
0.0769230769230769
 40
0.0769230769230769
 40
0.1538461538461539
 40
0.1538461538461539
 40
0.1538461538461539
 40
0.1538461538461539
 40
0.2307692307692308
 40
0.2307692307692308
 40
0.2307692307692308
 40
0.2307692307692308
 40
0.3076923076923077
 40
0.3076923076923077
 40
0.3076923076923077
 40
0.3076923076923077
 40
0.3846153846153846
 40
0.3846153846153846
 40
0.3846153846153846
 40
0.3846153846153846
 40
0.4615384615384616
 40
0.4615384615384616
 40
0.4615384615384616
 40
0.4615384615384616
 40
0.5384615384615384
 40
0.5384615384615384
 40
0.5384615384615384
 40
0.5384615384615384
 40
0.6153846153846154
 40
0.6153846153846154
 40
0.6153846153846154
 40
0.6153846153846154
 40
0.6923076923076923
 40
0.6923076923076923
 40
0.6923076923076923
 40
0.6923076923076923
 40
0.7692307692307693
 40
0.7692307692307693
 40
0.7692307692307693
 40
0.7692307692307693
 40
0.8461538461538461
 40
0.8461538461538461
 40
0.8461538461538461
 40
0.8461538461538461
 40
1.0
 40
1.0
 40
1.0
 40
1.0
 10
-3.9218
 20
14.9029
 30
0.0
 10
-3.9218
 20
15.2713
 30
0.0
 10
-3.8841
 20
15.5678
 30
0.0
 10
-3.8079
 20
15.7918
 30
0.0
 10
-3.8079
 20
15.7918
 30
0.0
 10
-3.7325
 20
16.0165
 30
0.0
 10
-3.6194
 20
16.1898
 30
0.0
 10
-3.47
 20
16.3116
 30
0.0
 10
-3.47
 20
16.3116
 30
0.0
 10
-3.3207
 20
16.4335
 30
0.0
 10
-3.1329
 20
16.4944
 30
0.0
 10
-2.9068
 20
16.4944
 30
0.0
 10
-2.9068
 20
16.4944
 30
0.0
 10
-2.7392
 20
16.4944
 30
0.0
 10
-2.5928
 20
16.4603
 30
0.0
 10
-2.4667
 20
16.3928
 30
0.0
 10
-2.4667
 20
16.3928
 30
0.0
 10
-2.3405
 20
16.3261
 30
0.0
 10
-2.2369
 20
16.229
 30
0.0
 10
-2.1541
 20
16.1021
 30
0.0
 10
-2.1541
 20
16.1021
 30
0.0
 10
-2.0723
 20
15.9752
 30
0.0
 10
-2.0077
 20
15.8208
 30
0.0
 10
-1.9613
 20
15.6387
 30
0.0
 10
-1.9613
 20
15.6387
 30
0.0
 10
-1.9141
 20
15.4569
 30
0.0
 10
-1.891
 20
15.2118
 30
0.0
 10
-1.891
 20
14.9029
 30
0.0
 10
-1.891
 20
14.9029
 30
0.0
 10
-1.891
 20
14.5376
 30
0.0
 10
-1.9288
 20
14.2432
 30
0.0
 10
-2.0034
 20
14.0184
 30
0.0
 10
-2.0034
 20
14.0184
 30
0.0
 10
-2.0787
 20
13.7937
 30
0.0
 10
-2.1911
 20
13.6203
 30
0.0
 10
-2.3405
 20
13.4979
 30
0.0
 10
-2.3405
 20
13.4979
 30
0.0
 10
-2.4898
 20
13.3753
 30
0.0
 10
-2.6784
 20
13.3145
 30
0.0
 10
-2.9068
 20
13.3145
 30
0.0
 10
-2.9068
 20
13.3145
 30
0.0
 10
-3.2069
 20
13.3145
 30
0.0
 10
-3.4426
 20
13.4217
 30
0.0
 10
-3.6137
 20
13.6371
 30
0.0
 10
-3.6137
 20
13.6371
 30
0.0
 10
-3.8188
 20
13.8959
 30
0.0
 10
-3.9218
 20
14.3185
 30
0.0
 10
-3.9218
 20
14.9029
 30
0.0
  0
SPLINE
  5
45
330
1F
100
AcDbEntity
  8
ROUND
 62
   250
100
AcDbSpline
210
0.0
220
0.0
230
1.0
 70
    11
 71
     3
 72
    36
 73
    32
 74
     0
 42
0.0000000001
 43
0.0000000001
 40
0.0
 40
0.0
 40
0.0
 40
0.0
 40
0.1111111111111111
 40
0.1111111111111111
 40
0.1111111111111111
 40
0.1111111111111111
 40
0.2222222222222222
 40
0.2222222222222222
 40
0.2222222222222222
 40
0.2222222222222222
 40
0.3333333333333333
 40
0.3333333333333333
 40
0.3333333333333333
 40
0.3333333333333333
 40
0.4444444444444444
 40
0.4444444444444444
 40
0.4444444444444444
 40
0.4444444444444444
 40
0.5555555555555556
 40
0.5555555555555556
 40
0.5555555555555556
 40
0.5555555555555556
 40
0.6666666666666666
 40
0.6666666666666666
 40
0.6666666666666666
 40
0.6666666666666666
 40
0.7777777777777778
 40
0.7777777777777778
 40
0.7777777777777778
 40
0.7777777777777778
 40
1.0
 40
1.0
 40
1.0
 40
1.0
 10
-3.5288
 20
14.9029
 30
0.0
 10
-3.5288
 20
14.3917
 30
0.0
 10
-3.4686
 20
14.0517
 30
0.0
 10
-3.349
 20
13.8822
 30
0.0
 10
-3.349
 20
13.8822
 30
0.0
 10
-3.2294
 20
13.7132
 30
0.0
 10
-3.0822
 20
13.6283
 30
0.0
 10
-2.9068
 20
13.6283
 30
0.0
 10
-2.9068
 20
13.6283
 30
0.0
 10
-2.7306
 20
13.6283
 30
0.0
 10
-2.5834
 20
13.7138
 30
0.0
 10
-2.4638
 20
13.8835
 30
0.0
 10
-2.4638
 20
13.8835
 30
0.0
 10
-2.3442
 20
14.0533
 30
0.0
 10
-2.2839
 20
14.3933
 30
0.0
 10
-2.2839
 20
14.9029
 30
0.0
 10
-2.2839
 20
14.9029
 30
0.0
 10
-2.2839
 20
15.4156
 30
0.0
 10
-2.3442
 20
15.7562
 30
0.0
 10
-2.4638
 20
15.9245
 30
0.0
 10
-2.4638
 20
15.9245
 30
0.0
 10
-2.5834
 20
16.0935
 30
0.0
 10
-2.732
 20
16.1775
 30
0.0
 10
-2.9103
 20
16.1775
 30
0.0
 10
-2.9103
 20
16.1775
 30
0.0
 10
-3.0865
 20
16.1775
 30
0.0
 10
-3.2265
 20
16.1029
 30
0.0
 10
-3.3316
 20
15.9543
 30
0.0
 10
-3.3316
 20
15.9543
 30
0.0
 10
-3.4628
 20
15.765
 30
0.0
 10
-3.5288
 20
15.414
 30
0.0
 10
-3.5288
 20
14.9029
 30
0.0
  0
SPLINE
  5
46
330
1F
100
AcDbEntity
  8
ROUND
 62
   250
100
AcDbSpline
210
0.0
220
0.0
230
1.0
 70
    11
 71
     3
 72
    52
 73
    48
 74
     0
 42
0.0000000001
 43
0.0000000001
 40
0.0
 40
0.0
 40
0.0
 40
0.0
 40
0.0769230769230769
 40
0.0769230769230769
 40
0.0769230769230769
 40
0.0769230769230769
 40
0.1538461538461539
 40
0.1538461538461539
 40
0.1538461538461539
 40
0.1538461538461539
 40
0.2307692307692308
 40
0.2307692307692308
 40
0.2307692307692308
 40
0.2307692307692308
 40
0.3076923076923077
 40
0.3076923076923077
 40
0.3076923076923077
 40
0.3076923076923077
 40
0.3846153846153846
 40
0.3846153846153846
 40
0.3846153846153846
 40
0.3846153846153846
 40
0.4615384615384616
 40
0.4615384615384616
 40
0.4615384615384616
 40
0.4615384615384616
 40
0.5384615384615384
 40
0.5384615384615384
 40
0.5384615384615384
 40
0.5384615384615384
 40
0.6153846153846154
 40
0.6153846153846154
 40
0.6153846153846154
 40
0.6153846153846154
 40
0.6923076923076923
 40
0.6923076923076923
 40
0.6923076923076923
 40
0.6923076923076923
 40
0.7692307692307693
 40
0.7692307692307693
 40
0.7692307692307693
 40
0.7692307692307693
 40
0.8461538461538461
 40
0.8461538461538461
 40
0.8461538461538461
 40
0.8461538461538461
 40
1.0
 40
1.0
 40
1.0
 40
1.0
 10
-1.5024
 20
14.9029
 30
0.0
 10
-1.5024
 20
15.2713
 30
0.0
 10
-1.4647
 20
15.5678
 30
0.0
 10
-1.3885
 20
15.7918
 30
0.0
 10
-1.3885
 20
15.7918
 30
0.0
 10
-1.3131
 20
16.0165
 30
0.0
 10
-1.2
 20
16.1898
 30
0.0
 10
-1.0506
 20
16.3116
 30
0.0
 10
-1.0506
 20
16.3116
 30
0.0
 10
-0.9013
 20
16.4335
 30
0.0
 10
-0.7135
 20
16.4944
 30
0.0
 10
-0.4874
 20
16.4944
 30
0.0
 10
-0.4874
 20
16.4944
 30
0.0
 10
-0.3198
 20
16.4944
 30
0.0
 10
-0.1734
 20
16.4603
 30
0.0
 10
-0.0473
 20
16.3928
 30
0.0
 10
-0.0473
 20
16.3928
 30
0.0
 10
0.0789
 20
16.3261
 30
0.0
 10
0.1825
 20
16.229
 30
0.0
 10
0.2653
 20
16.1021
 30
0.0
 10
0.2653
 20
16.1021
 30
0.0
 10
0.3471
 20
15.9752
 30
0.0
 10
0.4117
 20
15.8208
 30
0.0
 10
0.4581
 20
15.6387
 30
0.0
 10
0.4581
 20
15.6387
 30
0.0
 10
0.5053
 20
15.4569
 30
0.0
 10
0.5284
 20
15.2118
 30
0.0
 10
0.5284
 20
14.9029
 30
0.0
 10
0.5284
 20
14.9029
 30
0.0
 10
0.5284
 20
14.5376
 30
0.0
 10
0.4906
 20
14.2432
 30
0.0
 10
0.416
 20
14.0184
 30
0.0
 10
0.416
 20
14.0184
 30
0.0
 10
0.3407
 20
13.7937
 30
0.0
 10
0.2283
 20
13.6203
 30
0.0
 10
0.0789
 20
13.4979
 30
0.0
 10
0.0789
 20
13.4979
 30
0.0
 10
-0.0704
 20
13.3753
 30
0.0
 10
-0.259
 20
13.3145
 30
0.0
 10
-0.4874
 20
13.3145
 30
0.0
 10
-0.4874
 20
13.3145
 30
0.0
 10
-0.7875
 20
13.3145
 30
0.0
 10
-1.0232
 20
13.4217
 30
0.0
 10
-1.1943
 20
13.6371
 30
0.0
 10
-1.1943
 20
13.6371
 30
0.0
 10
-1.3994
 20
13.8959
 30
0.0
 10
-1.5024
 20
14.3185
 30
0.0
 10
-1.5024
 20
14.9029
 30
0.0
  0
SPLINE
  5
47
330
1F
100
AcDbEntity
  8
ROUND
 62
   250
100
AcDbSpline
210
0.0
220
0.0
230
1.0
 70
    11
 71
     3
 72
    36
 73
    32
 74
     0
 42
0.0000000001
 43
0.0000000001
 40
0.0
 40
0.0
 40
0.0
 40
0.0
 40
0.1111111111111111
 40
0.1111111111111111
 40
0.1111111111111111
 40
0.1111111111111111
 40
0.2222222222222222
 40
0.2222222222222222
 40
0.2222222222222222
 40
0.2222222222222222
 40
0.3333333333333333
 40
0.3333333333333333
 40
0.3333333333333333
 40
0.3333333333333333
 40
0.4444444444444444
 40
0.4444444444444444
 40
0.4444444444444444
 40
0.4444444444444444
 40
0.5555555555555556
 40
0.5555555555555556
 40
0.5555555555555556
 40
0.5555555555555556
 40
0.6666666666666666
 40
0.6666666666666666
 40
0.6666666666666666
 40
0.6666666666666666
 40
0.7777777777777778
 40
0.7777777777777778
 40
0.7777777777777778
 40
0.7777777777777778
 40
1.0
 40
1.0
 40
1.0
 40
1.0
 10
-1.1094
 20
14.9029
 30
0.0
 10
-1.1094
 20
14.3917
 30
0.0
 10
-1.0492
 20
14.0517
 30
0.0
 10
-0.9296
 20
13.8822
 30
0.0
 10
-0.9296
 20
13.8822
 30
0.0
 10
-0.81
 20
13.7132
 30
0.0
 10
-0.6628
 20
13.6283
 30
0.0
 10
-0.4874
 20
13.6283
 30
0.0
 10
-0.4874
 20
13.6283
 30
0.0
 10
-0.3112
 20
13.6283
 30
0.0
 10
-0.164
 20
13.7138
 30
0.0
 10
-0.0444
 20
13.8835
 30
0.0
 10
-0.0444
 20
13.8835
 30
0.0
 10
0.0752
 20
14.0533
 30
0.0
 10
0.1355
 20
14.3933
 30
0.0
 10
0.1355
 20
14.9029
 30
0.0
 10
0.1355
 20
14.9029
 30
0.0
 10
0.1355
 20
15.4156
 30
0.0
 10
0.0752
 20
15.7562
 30
0.0
 10
-0.0444
 20
15.9245
 30
0.0
 10
-0.0444
 20
15.9245
 30
0.0
 10
-0.164
 20
16.0935
 30
0.0
 10
-0.3126
 20
16.1775
 30
0.0
 10
-0.4909
 20
16.1775
 30
0.0
 10
-0.4909
 20
16.1775
 30
0.0
 10
-0.6671
 20
16.1775
 30
0.0
 10
-0.8071
 20
16.1029
 30
0.0
 10
-0.9122
 20
15.9543
 30
0.0
 10
-0.9122
 20
15.9543
 30
0.0
 10
-1.0434
 20
15.765
 30
0.0
 10
-1.1094
 20
15.414
 30
0.0
 10
-1.1094
 20
14.9029
 30
0.0
  0
SPLINE
  5
48
330
1F
100
AcDbEntity
  8
ROUND
 62
   250
100
AcDbSpline
210
0.0
220
0.0
230
1.0
 70
    24
 71
     3
 72
     8
 73
     4
 74
     0
 42
0.0000000001
 43
0.0000000001
 40
0.0
 40
0.0
 40
0.0
 40
0.0
 40
1.0
 40
1.0
 40
1.0
 40
1.0
 10
-34.652
 20
12.7925
 30
0.0
 10
-34.652
 20
12.7925
 30
0.0
 10
27.6608
 20
12.7925
 30
0.0
 10
27.6608
 20
12.7925
 30
0.0
  0
SPLINE
  5
49
330
1F
100
AcDbEntity
  8
ROUND
 62
   250
100
AcDbSpline
210
0.0
220
0.0
230
1.0
 70
    24
 71
     3
 72
     8
 73
     4
 74
     0
 42
0.0000000001
 43
0.0000000001
 40
0.0
 40
0.0
 40
0.0
 40
0.0
 40
1.0
 40
1.0
 40
1.0
 40
1.0
 10
-13.285
 20
-16.4943
 30
0.0
 10
-13.285
 20
-16.4943
 30
0.0
 10
-13.285
 20
11.712
 30
0.0
 10
-13.285
 20
11.712
 30
0.0
  0
SPLINE
  5
4A
330
1F
100
AcDbEntity
  8
ROUND
 62
   250
100
AcDbSpline
210
0.0
220
0.0
230
1.0
 70
    11
 71
     3
 72
    20
 73
    16
 74
     0
 42
0.0000000001
 43
0.0000000001
 40
0.0
 40
0.0
 40
0.0
 40
0.0
 40
0.2
 40
0.2
 40
0.2
 40
0.2
 40
0.4
 40
0.4
 40
0.4
 40
0.4
 40
0.6
 40
0.6
 40
0.6
 40
0.6
 40
1.0
 40
1.0
 40
1.0
 40
1.0
 10
23.2732
 20
13.5282
 30
0.0
 10
23.2732
 20
13.5282
 30
0.0
 10
27.898
 20
12.8756
 30
0.0
 10
27.898
 20
12.8756
 30
0.0
 10
27.898
 20
12.8756
 30
0.0
 10
27.898
 20
12.8756
 30
0.0
 10
27.898
 20
12.7307
 30
0.0
 10
27.898
 20
12.7307
 30
0.0
 10
27.898
 20
12.7307
 30
0.0
 10
27.898
 20
12.7307
 30
0.0
 10
23.2732
 20
12.0346
 30
0.0
 10
23.2732
 20
12.0346
 30
0.0
 10
23.2732
 20
12.0346
 30
0.0
 10
23.2732
 20
12.0346
 30
0.0
 10
23.2732
 20
13.5282
 30
0.0
 10
23.2732
 20
13.5282
 30
0.0
  0
SPLINE
  5
4B
330
1F
100
AcDbEntity
  8
ROUND
 62
   250
100
AcDbSpline
210
0.0
220
0.0
230
1.0
 70
    11
 71
     3
 72
    20
 73
    16
 74
     0
 42
0.0000000001
 43
0.0000000001
 40
0.0
 40
0.0
 40
0.0
 40
0.0
 40
0.2
 40
0.2
 40
0.2
 40
0.2
 40
0.4
 40
0.4
 40
0.4
 40
0.4
 40
0.6
 40
0.6
 40
0.6
 40
0.6
 40
1.0
 40
1.0
 40
1.0
 40
1.0
 10
-30.0868
 20
12.0554
 30
0.0
 10
-30.0868
 20
12.0554
 30
0.0
 10
-34.71
 20
12.7079
 30
0.0
 10
-34.71
 20
12.7079
 30
0.0
 10
-34.71
 20
12.7079
 30
0.0
 10
-34.71
 20
12.7079
 30
0.0
 10
-34.71
 20
12.8528
 30
0.0
 10
-34.71
 20
12.8528
 30
0.0
 10
-34.71
 20
12.8528
 30
0.0
 10
-34.71
 20
12.8528
 30
0.0
 10
-30.0868
 20
13.5486
 30
0.0
 10
-30.0868
 20
13.5486
 30
0.0
 10
-30.0868
 20
13.5486
 30
0.0
 10
-30.0868
 20
13.5486
 30
0.0
 10
-30.0868
 20
12.0554
 30
0.0
 10
-30.0868
 20
12.0554
 30
0.0
  0
SPLINE
  5
4C
330
1F
100
AcDbEntity
  8
ROUND
 62
   250
100
AcDbSpline
210
0.0
220
0.0
230
1.0
 70
    11
 71
     3
 72
    20
 73
    16
 74
     0
 42
0.0000000001
 43
0.0000000001
 40
0.0
 40
0.0
 40
0.0
 40
0.0
 40
0.2
 40
0.2
 40
0.2
 40
0.2
 40
0.4
 40
0.4
 40
0.4
 40
0.4
 40
0.6
 40
0.6
 40
0.6
 40
0.6
 40
1.0
 40
1.0
 40
1.0
 40
1.0
 10
-12.5892
 20
9.3493
 30
0.0
 10
-12.5892
 20
9.3493
 30
0.0
 10
-13.2418
 20
4.7237
 30
0.0
 10
-13.2418
 20
4.7237
 30
0.0
 10
-13.2418
 20
4.7237
 30
0.0
 10
-13.2418
 20
4.7237
 30
0.0
 10
-13.3869
 20
4.7237
 30
0.0
 10
-13.3869
 20
4.7237
 30
0.0
 10
-13.3869
 20
4.7237
 30
0.0
 10
-13.3869
 20
4.7237
 30
0.0
 10
-14.083
 20
9.3493
 30
0.0
 10
-14.083
 20
9.3493
 30
0.0
 10
-14.083
 20
9.3493
 30
0.0
 10
-14.083
 20
9.3493
 30
0.0
 10
-12.5892
 20
9.3493
 30
0.0
 10
-12.5892
 20
9.3493
 30
0.0
  0
SPLINE
  5
4D
330
1F
100
AcDbEntity
  8
ROUND
 62
   250
100
AcDbSpline
210
0.0
220
0.0
230
1.0
 70
    11
 71
     3
 72
    20
 73
    16
 74
     0
 42
0.0000000001
 43
0.0000000001
 40
0.0
 40
0.0
 40
0.0
 40
0.0
 40
0.2
 40
0.2
 40
0.2
 40
0.2
 40
0.4
 40
0.4
 40
0.4
 40
0.4
 40
0.6
 40
0.6
 40
0.6
 40
0.6
 40
1.0
 40
1.0
 40
1.0
 40
1.0
 10
-14.0256
 20
-14.5352
 30
0.0
 10
-14.0256
 20
-14.5352
 30
0.0
 10
-13.3731
 20
-9.9117
 30
0.0
 10
-13.3731
 20
-9.9117
 30
0.0
 10
-13.3731
 20
-9.9117
 30
0.0
 10
-13.3731
 20
-9.9117
 30
0.0
 10
-13.2281
 20
-9.9117
 30
0.0
 10
-13.2281
 20
-9.9117
 30
0.0
 10
-13.2281
 20
-9.9117
 30
0.0
 10
-13.2281
 20
-9.9117
 30
0.0
 10
-12.5321
 20
-14.5352
 30
0.0
 10
-12.5321
 20
-14.5352
 30
0.0
 10
-12.5321
 20
-14.5352
 30
0.0
 10
-12.5321
 20
-14.5352
 30
0.0
 10
-14.0256
 20
-14.5352
 30
0.0
 10
-14.0256
 20
-14.5352
 30
0.0
  0
SPLINE
  5
4E
330
1F
100
AcDbEntity
  8
ROUND
 62
   250
100
AcDbSpline
210
0.0
220
0.0
230
1.0
 70
    11
 71
     3
 72
    84
 73
    80
 74
     0
 42
0.0000000001
 43
0.0000000001
 40
0.0
 40
0.0
 40
0.0
 40
0.0
 40
0.0476190476190476
 40
0.0476190476190476
 40
0.0476190476190476
 40
0.0476190476190476
 40
0.0952380952380952
 40
0.0952380952380952
 40
0.0952380952380952
 40
0.0952380952380952
 40
0.1428571428571428
 40
0.1428571428571428
 40
0.1428571428571428
 40
0.1428571428571428
 40
0.1904761904761905
 40
0.1904761904761905
 40
0.1904761904761905
 40
0.1904761904761905
 40
0.2380952380952381
 40
0.2380952380952381
 40
0.2380952380952381
 40
0.2380952380952381
 40
0.2857142857142857
 40
0.2857142857142857
 40
0.2857142857142857
 40
0.2857142857142857
 40
0.3333333333333333
 40
0.3333333333333333
 40
0.3333333333333333
 40
0.3333333333333333
 40
0.3809523809523809
 40
0.3809523809523809
 40
0.3809523809523809
 40
0.3809523809523809
 40
0.4285714285714285
 40
0.4285714285714285
 40
0.4285714285714285
 40
0.4285714285714285
 40
0.4761904761904762
 40
0.4761904761904762
 40
0.4761904761904762
 40
0.4761904761904762
 40
0.5238095238095238
 40
0.5238095238095238
 40
0.5238095238095238
 40
0.5238095238095238
 40
0.5714285714285714
 40
0.5714285714285714
 40
0.5714285714285714
 40
0.5714285714285714
 40
0.6190476190476191
 40
0.6190476190476191
 40
0.6190476190476191
 40
0.6190476190476191
 40
0.6666666666666666
 40
0.6666666666666666
 40
0.6666666666666666
 40
0.6666666666666666
 40
0.7142857142857143
 40
0.7142857142857143
 40
0.7142857142857143
 40
0.7142857142857143
 40
0.7619047619047619
 40
0.7619047619047619
 40
0.7619047619047619
 40
0.7619047619047619
 40
0.8095238095238095
 40
0.8095238095238095
 40
0.8095238095238095
 40
0.8095238095238095
 40
0.8571428571428571
 40
0.8571428571428571
 40
0.8571428571428571
 40
0.8571428571428571
 40
0.9047619047619048
 40
0.9047619047619048
 40
0.9047619047619048
 40
0.9047619047619048
 40
1.0
 40
1.0
 40
1.0
 40
1.0
 10
-16.6842
 20
-2.6834
 30
0.0
 10
-16.6842
 20
-2.6834
 30
0.0
 10
-17.0836
 20
-2.3267
 30
0.0
 10
-17.0836
 20
-2.3267
 30
0.0
 10
-17.0836
 20
-2.3267
 30
0.0
 10
-17.0836
 20
-2.3267
 30
0.0
 10
-16.9053
 20
-2.1165
 30
0.0
 10
-16.9053
 20
-2.1165
 30
0.0
 10
-16.9053
 20
-2.1165
 30
0.0
 10
-16.9053
 20
-2.1165
 30
0.0
 10
-16.4848
 20
-2.49
 30
0.0
 10
-16.4848
 20
-2.49
 30
0.0
 10
-16.4848
 20
-2.49
 30
0.0
 10
-16.3035
 20
-2.368
 30
0.0
 10
-16.1448
 20
-2.2862
 30
0.0
 10
-16.0093
 20
-2.2433
 30
0.0
 10
-16.0093
 20
-2.2433
 30
0.0
 10
-15.8308
 20
-2.1868
 30
0.0
 10
-15.6307
 20
-2.1586
 30
0.0
 10
-15.4103
 20
-2.1586
 30
0.0
 10
-15.4103
 20
-2.1586
 30
0.0
 10
-15.0914
 20
-2.1586
 30
0.0
 10
-14.8071
 20
-2.2231
 30
0.0
 10
-14.5583
 20
-2.3522
 30
0.0
 10
-14.5583
 20
-2.3522
 30
0.0
 10
-14.3089
 20
-2.4812
 30
0.0
 10
-14.1204
 20
-2.6617
 30
0.0
 10
-13.9929
 20
-2.8944
 30
0.0
 10
-13.9929
 20
-2.8944
 30
0.0
 10
-13.8659
 20
-3.1279
 30
0.0
 10
-13.8023
 20
-3.3752
 30
0.0
 10
-13.8023
 20
-3.6369
 30
0.0
 10
-13.8023
 20
-3.6369
 30
0.0
 10
-13.8023
 20
-3.8327
 30
0.0
 10
-13.8297
 20
-4.0095
 30
0.0
 10
-13.8849
 20
-4.1682
 30
0.0
 10
-13.8849
 20
-4.1682
 30
0.0
 10
-13.9276
 20
-4.2902
 30
0.0
 10
-14.0088
 20
-4.4321
 30
0.0
 10
-14.1292
 20
-4.5954
 30
0.0
 10
-14.1292
 20
-4.5954
 30
0.0
 10
-14.1292
 20
-4.5954
 30
0.0
 10
-13.7297
 20
-4.9521
 30
0.0
 10
-13.7297
 20
-4.9521
 30
0.0
 10
-13.7297
 20
-4.9521
 30
0.0
 10
-13.7297
 20
-4.9521
 30
0.0
 10
-13.908
 20
-5.1623
 30
0.0
 10
-13.908
 20
-5.1623
 30
0.0
 10
-13.908
 20
-5.1623
 30
0.0
 10
-13.908
 20
-5.1623
 30
0.0
 10
-14.3263
 20
-4.7882
 30
0.0
 10
-14.3263
 20
-4.7882
 30
0.0
 10
-14.3263
 20
-4.7882
 30
0.0
 10
-14.5374
 20
-4.9274
 30
0.0
 10
-14.7179
 20
-5.0202
 30
0.0
 10
-14.8672
 20
-5.0666
 30
0.0
 10
-14.8672
 20
-5.0666
 30
0.0
 10
-15.0166
 20
-5.113
 30
0.0
 10
-15.1965
 20
-5.137
 30
0.0
 10
-15.406
 20
-5.137
 30
0.0
 10
-15.406
 20
-5.137
 30
0.0
 10
-15.7256
 20
-5.137
 30
0.0
 10
-16.0106
 20
-5.0732
 30
0.0
 10
-16.2608
 20
-4.9456
 30
0.0
 10
-16.2608
 20
-4.9456
 30
0.0
 10
-16.5108
 20
-4.8179
 30
0.0
 10
-16.7001
 20
-4.6396
 30
0.0
 10
-16.8291
 20
-4.409
 30
0.0
 10
-16.8291
 20
-4.409
 30
0.0
 10
-16.9575
 20
-4.1792
 30
0.0
 10
-17.022
 20
-3.9232
 30
0.0
 10
-17.022
 20
-3.6412
 30
0.0
 10
-17.022
 20
-3.6412
 30
0.0
 10
-17.022
 20
-3.4513
 30
0.0
 10
-16.9973
 20
-3.2852
 30
0.0
 10
-16.9466
 20
-3.1431
 30
0.0
 10
-16.9466
 20
-3.1431
 30
0.0
 10
-16.8967
 20
-3.0011
 30
0.0
 10
-16.8088
 20
-2.8473
 30
0.0
 10
-16.6842
 20
-2.6834
 30
0.0
  0
SPLINE
  5
4F
330
1F
100
AcDbEntity
  8
ROUND
 62
   250
100
AcDbSpline
210
0.0
220
0.0
230
1.0
 70
    11
 71
     3
 72
    32
 73
    28
 74
     0
 42
0.0000000001
 43
0.0000000001
 40
0.0
 40
0.0
 40
0.0
 40
0.0
 40
0.125
 40
0.125
 40
0.125
 40
0.125
 40
0.25
 40
0.25
 40
0.25
 40
0.25
 40
0.375
 40
0.375
 40
0.375
 40
0.375
 40
0.5
 40
0.5
 40
0.5
 40
0.5
 40
0.625
 40
0.625
 40
0.625
 40
0.625
 40
0.75
 40
0.75
 40
0.75
 40
0.75
 40
1.0
 40
1.0
 40
1.0
 40
1.0
 10
-16.3979
 20
-2.9379
 30
0.0
 10
-16.5022
 20
-3.0714
 30
0.0
 10
-16.574
 20
-3.1881
 30
0.0
 10
-16.6124
 20
-3.2873
 30
0.0
 10
-16.6124
 20
-3.2873
 30
0.0
 10
-16.65
 20
-3.3875
 30
0.0
 10
-16.6696
 20
-3.505
 30
0.0
 10
-16.6696
 20
-3.6391
 30
0.0
 10
-16.6696
 20
-3.6391
 30
0.0
 10
-16.6696
 20
-3.9494
 30
0.0
 10
-16.5645
 20
-4.2052
 30
0.0
 10
-16.3542
 20
-4.4082
 30
0.0
 10
-16.3542
 20
-4.4082
 30
0.0
 10
-16.144
 20
-4.6105
 30
0.0
 10
-15.8301
 20
-4.7121
 30
0.0
 10
-15.4118
 20
-4.7121
 30
0.0
 10
-15.4118
 20
-4.7121
 30
0.0
 10
-15.248
 20
-4.7121
 30
0.0
 10
-15.1021
 20
-4.6962
 30
0.0
 10
-14.9745
 20
-4.6649
 30
0.0
 10
-14.9745
 20
-4.6649
 30
0.0
 10
-14.8796
 20
-4.6425
 30
0.0
 10
-14.7629
 20
-4.5954
 30
0.0
 10
-14.6245
 20
-4.5228
 30
0.0
 10
-14.6245
 20
-4.5228
 30
0.0
 10
-14.6245
 20
-4.5228
 30
0.0
 10
-16.3979
 20
-2.9379
 30
0.0
 10
-16.3979
 20
-2.9379
 30
0.0
  0
SPLINE
  5
50
330
1F
100
AcDbEntity
  8
ROUND
 62
   250
100
AcDbSpline
210
0.0
220
0.0
230
1.0
 70
    11
 71
     3
 72
    28
 73
    24
 74
     0
 42
0.0000000001
 43
0.0000000001
 40
0.0
 40
0.0
 40
0.0
 40
0.0
 40
0.1428571428571428
 40
0.1428571428571428
 40
0.1428571428571428
 40
0.1428571428571428
 40
0.2857142857142857
 40
0.2857142857142857
 40
0.2857142857142857
 40
0.2857142857142857
 40
0.4285714285714285
 40
0.4285714285714285
 40
0.4285714285714285
 40
0.4285714285714285
 40
0.5714285714285714
 40
0.5714285714285714
 40
0.5714285714285714
 40
0.5714285714285714
 40
0.7142857142857143
 40
0.7142857142857143
 40
0.7142857142857143
 40
0.7142857142857143
 40
1.0
 40
1.0
 40
1.0
 40
1.0
 10
-16.1788
 20
-2.7639
 30
0.0
 10
-16.1788
 20
-2.7639
 30
0.0
 10
-14.4119
 20
-4.3423
 30
0.0
 10
-14.4119
 20
-4.3423
 30
0.0
 10
-14.4119
 20
-4.3423
 30
0.0
 10
-14.3228
 20
-4.2336
 30
0.0
 10
-14.2604
 20
-4.1328
 30
0.0
 10
-14.2249
 20
-4.0408
 30
0.0
 10
-14.2249
 20
-4.0408
 30
0.0
 10
-14.1778
 20
-3.9204
 30
0.0
 10
-14.1545
 20
-3.7898
 30
0.0
 10
-14.1545
 20
-3.6499
 30
0.0
 10
-14.1545
 20
-3.6499
 30
0.0
 10
-14.1545
 20
-3.341
 30
0.0
 10
-14.2633
 20
-3.0865
 30
0.0
 10
-14.4816
 20
-2.885
 30
0.0
 10
-14.4816
 20
-2.885
 30
0.0
 10
-14.6998
 20
-2.6842
 30
0.0
 10
-15.0058
 20
-2.5834
 30
0.0
 10
-15.3995
 20
-2.5834
 30
0.0
 10
-15.3995
 20
-2.5834
 30
0.0
 10
-15.6937
 20
-2.5834
 30
0.0
 10
-15.9541
 20
-2.6436
 30
0.0
 10
-16.1788
 20
-2.7639
 30
0.0
  0
SPLINE
  5
51
330
1F
100
AcDbEntity
  8
ROUND
 62
   250
100
AcDbSpline
210
0.0
220
0.0
230
1.0
 70
    11
 71
     3
 72
    48
 73
    44
 74
     0
 42
0.0000000001
 43
0.0000000001
 40
0.0
 40
0.0
 40
0.0
 40
0.0
 40
0.0833333333333333
 40
0.0833333333333333
 40
0.0833333333333333
 40
0.0833333333333333
 40
0.1666666666666667
 40
0.1666666666666667
 40
0.1666666666666667
 40
0.1666666666666667
 40
0.25
 40
0.25
 40
0.25
 40
0.25
 40
0.3333333333333333
 40
0.3333333333333333
 40
0.3333333333333333
 40
0.3333333333333333
 40
0.4166666666666667
 40
0.4166666666666667
 40
0.4166666666666667
 40
0.4166666666666667
 40
0.5
 40
0.5
 40
0.5
 40
0.5
 40
0.5833333333333334
 40
0.5833333333333334
 40
0.5833333333333334
 40
0.5833333333333334
 40
0.6666666666666666
 40
0.6666666666666666
 40
0.6666666666666666
 40
0.6666666666666666
 40
0.75
 40
0.75
 40
0.75
 40
0.75
 40
0.8333333333333334
 40
0.8333333333333334
 40
0.8333333333333334
 40
0.8333333333333334
 40
1.0
 40
1.0
 40
1.0
 40
1.0
 10
-13.8551
 20
-0.549
 30
0.0
 10
-13.8551
 20
-0.549
 30
0.0
 10
-14.6004
 20
-0.549
 30
0.0
 10
-14.6004
 20
-0.549
 30
0.0
 10
-14.6004
 20
-0.549
 30
0.0
 10
-14.6004
 20
-0.549
 30
0.0
 10
-14.6004
 20
-1.8997
 30
0.0
 10
-14.6004
 20
-1.8997
 30
0.0
 10
-14.6004
 20
-1.8997
 30
0.0
 10
-14.6004
 20
-1.8997
 30
0.0
 10
-14.9514
 20
-1.8997
 30
0.0
 10
-14.9514
 20
-1.8997
 30
0.0
 10
-14.9514
 20
-1.8997
 30
0.0
 10
-14.9514
 20
-1.8997
 30
0.0
 10
-16.9691
 20
-0.4787
 30
0.0
 10
-16.9691
 20
-0.4787
 30
0.0
 10
-16.9691
 20
-0.4787
 30
0.0
 10
-16.9691
 20
-0.4787
 30
0.0
 10
-16.9691
 20
-0.1661
 30
0.0
 10
-16.9691
 20
-0.1661
 30
0.0
 10
-16.9691
 20
-0.1661
 30
0.0
 10
-16.9691
 20
-0.1661
 30
0.0
 10
-14.9514
 20
-0.1661
 30
0.0
 10
-14.9514
 20
-0.1661
 30
0.0
 10
-14.9514
 20
-0.1661
 30
0.0
 10
-14.9514
 20
-0.1661
 30
0.0
 10
-14.9514
 20
0.2544
 30
0.0
 10
-14.9514
 20
0.2544
 30
0.0
 10
-14.9514
 20
0.2544
 30
0.0
 10
-14.9514
 20
0.2544
 30
0.0
 10
-14.6004
 20
0.2544
 30
0.0
 10
-14.6004
 20
0.2544
 30
0.0
 10
-14.6004
 20
0.2544
 30
0.0
 10
-14.6004
 20
0.2544
 30
0.0
 10
-14.6004
 20
-0.1661
 30
0.0
 10
-14.6004
 20
-0.1661
 30
0.0
 10
-14.6004
 20
-0.1661
 30
0.0
 10
-14.6004
 20
-0.1661
 30
0.0
 10
-13.8551
 20
-0.1661
 30
0.0
 10
-13.8551
 20
-0.1661
 30
0.0
 10
-13.8551
 20
-0.1661
 30
0.0
 10
-13.8551
 20
-0.1661
 30
0.0
 10
-13.8551
 20
-0.549
 30
0.0
 10
-13.8551
 20
-0.549
 30
0.0
  0
SPLINE
  5
52
330
1F
100
AcDbEntity
  8
ROUND
 62
   250
100
AcDbSpline
210
0.0
220
0.0
230
1.0
 70
    11
 71
     3
 72
    16
 73
    12
 74
     0
 42
0.0000000001
 43
0.0000000001
 40
0.0
 40
0.0
 40
0.0
 40
0.0
 40
0.25
 40
0.25
 40
0.25
 40
0.25
 40
0.5
 40
0.5
 40
0.5
 40
0.5
 40
1.0
 40
1.0
 40
1.0
 40
1.0
 10
-14.9514
 20
-0.549
 30
0.0
 10
-14.9514
 20
-0.549
 30
0.0
 10
-16.355
 20
-0.549
 30
0.0
 10
-16.355
 20
-0.549
 30
0.0
 10
-16.355
 20
-0.549
 30
0.0
 10
-16.355
 20
-0.549
 30
0.0
 10
-14.9514
 20
-1.5235
 30
0.0
 10
-14.9514
 20
-1.5235
 30
0.0
 10
-14.9514
 20
-1.5235
 30
0.0
 10
-14.9514
 20
-1.5235
 30
0.0
 10
-14.9514
 20
-0.549
 30
0.0
 10
-14.9514
 20
-0.549
 30
0.0
  0
SPLINE
  5
53
330
1F
100
AcDbEntity
  8
ROUND
 62
   250
100
AcDbSpline
210
0.0
220
0.0
230
1.0
 70
    11
 71
     3
 72
    92
 73
    88
 74
     0
 42
0.0000000001
 43
0.0000000001
 40
0.0
 40
0.0
 40
0.0
 40
0.0
 40
0.0434782608695652
 40
0.0434782608695652
 40
0.0434782608695652
 40
0.0434782608695652
 40
0.0869565217391304
 40
0.0869565217391304
 40
0.0869565217391304
 40
0.0869565217391304
 40
0.1304347826086956
 40
0.1304347826086956
 40
0.1304347826086956
 40
0.1304347826086956
 40
0.1739130434782609
 40
0.1739130434782609
 40
0.1739130434782609
 40
0.1739130434782609
 40
0.2173913043478261
 40
0.2173913043478261
 40
0.2173913043478261
 40
0.2173913043478261
 40
0.2608695652173913
 40
0.2608695652173913
 40
0.2608695652173913
 40
0.2608695652173913
 40
0.3043478260869565
 40
0.3043478260869565
 40
0.3043478260869565
 40
0.3043478260869565
 40
0.3478260869565217
 40
0.3478260869565217
 40
0.3478260869565217
 40
0.3478260869565217
 40
0.391304347826087
 40
0.391304347826087
 40
0.391304347826087
 40
0.391304347826087
 40
0.4347826086956522
 40
0.4347826086956522
 40
0.4347826086956522
 40
0.4347826086956522
 40
0.4782608695652174
 40
0.4782608695652174
 40
0.4782608695652174
 40
0.4782608695652174
 40
0.5217391304347826
 40
0.5217391304347826
 40
0.5217391304347826
 40
0.5217391304347826
 40
0.5652173913043478
 40
0.5652173913043478
 40
0.5652173913043478
 40
0.5652173913043478
 40
0.6086956521739131
 40
0.6086956521739131
 40
0.6086956521739131
 40
0.6086956521739131
 40
0.6521739130434783
 40
0.6521739130434783
 40
0.6521739130434783
 40
0.6521739130434783
 40
0.6956521739130435
 40
0.6956521739130435
 40
0.6956521739130435
 40
0.6956521739130435
 40
0.7391304347826086
 40
0.7391304347826086
 40
0.7391304347826086
 40
0.7391304347826086
 40
0.782608695652174
 40
0.782608695652174
 40
0.782608695652174
 40
0.782608695652174
 40
0.8260869565217391
 40
0.8260869565217391
 40
0.8260869565217391
 40
0.8260869565217391
 40
0.8695652173913043
 40
0.8695652173913043
 40
0.8695652173913043
 40
0.8695652173913043
 40
0.9130434782608695
 40
0.9130434782608695
 40
0.9130434782608695
 40
0.9130434782608695
 40
1.0
 40
1.0
 40
1.0
 40
1.0
 10
-14.6709
 20
0.6451
 30
0.0
 10
-14.6709
 20
0.6451
 30
0.0
 10
-14.7049
 20
1.0468
 30
0.0
 10
-14.7049
 20
1.0468
 30
0.0
 10
-14.7049
 20
1.0468
 30
0.0
 10
-14.5092
 20
1.0766
 30
0.0
 10
-14.3626
 20
1.1455
 30
0.0
 10
-14.2641
 20
1.2534
 30
0.0
 10
-14.2641
 20
1.2534
 30
0.0
 10
-14.1654
 20
1.3622
 30
0.0
 10
-14.1161
 20
1.4927
 30
0.0
 10
-14.1161
 20
1.6457
 30
0.0
 10
-14.1161
 20
1.6457
 30
0.0
 10
-14.1161
 20
1.8299
 30
0.0
 10
-14.1858
 20
1.9857
 30
0.0
 10
-14.3242
 20
2.1125
 30
0.0
 10
-14.3242
 20
2.1125
 30
0.0
 10
-14.4634
 20
2.2402
 30
0.0
 10
-14.6476
 20
2.304
 30
0.0
 10
-14.8766
 20
2.304
 30
0.0
 10
-14.8766
 20
2.304
 30
0.0
 10
-15.0949
 20
2.304
 30
0.0
 10
-15.2668
 20
2.2431
 30
0.0
 10
-15.3929
 20
2.1206
 30
0.0
 10
-15.3929
 20
2.1206
 30
0.0
 10
-15.5191
 20
1.998
 30
0.0
 10
-15.5821
 20
1.8379
 30
0.0
 10
-15.5821
 20
1.6392
 30
0.0
 10
-15.5821
 20
1.6392
 30
0.0
 10
-15.5821
 20
1.5159
 30
0.0
 10
-15.5539
 20
1.4049
 30
0.0
 10
-15.498
 20
1.3056
 30
0.0
 10
-15.498
 20
1.3056
 30
0.0
 10
-15.4422
 20
1.2064
 30
0.0
 10
-15.3697
 20
1.1287
 30
0.0
 10
-15.2805
 20
1.0721
 30
0.0
 10
-15.2805
 20
1.0721
 30
0.0
 10
-15.2805
 20
1.0721
 30
0.0
 10
-15.3269
 20
0.7133
 30
0.0
 10
-15.3269
 20
0.7133
 30
0.0
 10
-15.3269
 20
0.7133
 30
0.0
 10
-15.3269
 20
0.7133
 30
0.0
 10
-16.9264
 20
1.0149
 30
0.0
 10
-16.9264
 20
1.0149
 30
0.0
 10
-16.9264
 20
1.0149
 30
0.0
 10
-16.9264
 20
1.0149
 30
0.0
 10
-16.9264
 20
2.5636
 30
0.0
 10
-16.9264
 20
2.5636
 30
0.0
 10
-16.9264
 20
2.5636
 30
0.0
 10
-16.9264
 20
2.5636
 30
0.0
 10
-16.5609
 20
2.5636
 30
0.0
 10
-16.5609
 20
2.5636
 30
0.0
 10
-16.5609
 20
2.5636
 30
0.0
 10
-16.5609
 20
2.5636
 30
0.0
 10
-16.5609
 20
1.3209
 30
0.0
 10
-16.5609
 20
1.3209
 30
0.0
 10
-16.5609
 20
1.3209
 30
0.0
 10
-16.5609
 20
1.3209
 30
0.0
 10
-15.7243
 20
1.1527
 30
0.0
 10
-15.7243
 20
1.1527
 30
0.0
 10
-15.7243
 20
1.1527
 30
0.0
 10
-15.8548
 20
1.3397
 30
0.0
 10
-15.92
 20
1.5362
 30
0.0
 10
-15.92
 20
1.7414
 30
0.0
 10
-15.92
 20
1.7414
 30
0.0
 10
-15.92
 20
2.0133
 30
0.0
 10
-15.8257
 20
2.2423
 30
0.0
 10
-15.6372
 20
2.4295
 30
0.0
 10
-15.6372
 20
2.4295
 30
0.0
 10
-15.4488
 20
2.6164
 30
0.0
 10
-15.2066
 20
2.71
 30
0.0
 10
-14.9107
 20
2.71
 30
0.0
 10
-14.9107
 20
2.71
 30
0.0
 10
-14.6288
 20
2.71
 30
0.0
 10
-14.3851
 20
2.6274
 30
0.0
 10
-14.1799
 20
2.4635
 30
0.0
 10
-14.1799
 20
2.4635
 30
0.0
 10
-13.9284
 20
2.2633
 30
0.0
 10
-13.8023
 20
1.9908
 30
0.0
 10
-13.8023
 20
1.6457
 30
0.0
 10
-13.8023
 20
1.6457
 30
0.0
 10
-13.8023
 20
1.3622
 30
0.0
 10
-13.8812
 20
1.1308
 30
0.0
 10
-14.04
 20
0.9519
 30
0.0
 10
-14.04
 20
0.9519
 30
0.0
 10
-14.1989
 20
0.7728
 30
0.0
 10
-14.409
 20
0.6706
 30
0.0
 10
-14.6709
 20
0.6451
 30
0.0
  0
SPLINE
  5
54
330
1F
100
AcDbEntity
  8
ROUND
 62
   250
100
AcDbSpline
210
0.0
220
0.0
230
1.0
 70
    24
 71
     3
 72
     8
 73
     4
 74
     0
 42
0.0000000001
 43
0.0000000001
 40
0.0
 40
0.0
 40
0.0
 40
0.0
 40
1.0
 40
1.0
 40
1.0
 40
1.0
 10
34.7889
 20
6.4823
 30
0.0
 10
34.7889
 20
6.4823
 30
0.0
 10
34.4738
 20
6.7974
 30
0.0
 10
34.4738
 20
6.7974
 30
0.0
  0
SPLINE
  5
55
330
1F
100
AcDbEntity
  8
ROUND
 62
   250
100
AcDbSpline
210
0.0
220
0.0
230
1.0
 70
    24
 71
     3
 72
     8
 73
     4
 74
     0
 42
0.0000000001
 43
0.0000000001
 40
0.0
 40
0.0
 40
0.0
 40
0.0
 40
1.0
 40
1.0
 40
1.0
 40
1.0
 10
36.6799
 20
6.4823
 30
0.0
 10
36.6799
 20
6.4823
 30
0.0
 10
36.3647
 20
6.7974
 30
0.0
 10
36.3647
 20
6.7974
 30
0.0
  0
SPLINE
  5
56
330
1F
100
AcDbEntity
  8
ROUND
 62
   250
100
AcDbSpline
210
0.0
220
0.0
230
1.0
 70
    24
 71
     3
 72
     8
 73
     4
 74
     0
 42
0.0000000001
 43
0.0000000001
 40
0.0
 40
0.0
 40
0.0
 40
0.0
 40
1.0
 40
1.0
 40
1.0
 40
1.0
 10
38.5708
 20
6.4823
 30
0.0
 10
38.5708
 20
6.4823
 30
0.0
 10
38.2557
 20
6.7974
 30
0.0
 10
38.2557
 20
6.7974
 30
0.0
  0
SPLINE
  5
57
330
1F
100
AcDbEntity
  8
ROUND
 62
   250
100
AcDbSpline
210
0.0
220
0.0
230
1.0
 70
    24
 71
     3
 72
     8
 73
     4
 74
     0
 42
0.0000000001
 43
0.0000000001
 40
0.0
 40
0.0
 40
0.0
 40
0.0
 40
1.0
 40
1.0
 40
1.0
 40
1.0
 10
40.4618
 20
6.4823
 30
0.0
 10
40.4618
 20
6.4823
 30
0.0
 10
40.1465
 20
6.7974
 30
0.0
 10
40.1465
 20
6.7974
 30
0.0
  0
SPLINE
  5
58
330
1F
100
AcDbEntity
  8
ROUND
 62
   250
100
AcDbSpline
210
0.0
220
0.0
230
1.0
 70
    24
 71
     3
 72
     8
 73
     4
 74
     0
 42
0.0000000001
 43
0.0000000001
 40
0.0
 40
0.0
 40
0.0
 40
0.0
 40
1.0
 40
1.0
 40
1.0
 40
1.0
 10
34.7889
 20
-11.4815
 30
0.0
 10
34.7889
 20
-11.4815
 30
0.0
 10
34.7889
 20
6.4821
 30
0.0
 10
34.7889
 20
6.4821
 30
0.0
  0
SPLINE
  5
59
330
1F
100
AcDbEntity
  8
ROUND
 62
   250
100
AcDbSpline
210
0.0
220
0.0
230
1.0
 70
    24
 71
     3
 72
     8
 73
     4
 74
     0
 42
0.0000000001
 43
0.0000000001
 40
0.0
 40
0.0
 40
0.0
 40
0.0
 40
1.0
 40
1.0
 40
1.0
 40
1.0
 10
36.6799
 20
-11.4815
 30
0.0
 10
36.6799
 20
-11.4815
 30
0.0
 10
36.6799
 20
6.4821
 30
0.0
 10
36.6799
 20
6.4821
 30
0.0
  0
SPLINE
  5
5A
330
1F
100
AcDbEntity
  8
ROUND
 62
   250
100
AcDbSpline
210
0.0
220
0.0
230
1.0
 70
    24
 71
     3
 72
     8
 73
     4
 74
     0
 42
0.0000000001
 43
0.0000000001
 40
0.0
 40
0.0
 40
0.0
 40
0.0
 40
1.0
 40
1.0
 40
1.0
 40
1.0
 10
38.5708
 20
-11.4815
 30
0.0
 10
38.5708
 20
-11.4815
 30
0.0
 10
38.5708
 20
6.4821
 30
0.0
 10
38.5708
 20
6.4821
 30
0.0
  0
SPLINE
  5
5B
330
1F
100
AcDbEntity
  8
ROUND
 62
   250
100
AcDbSpline
210
0.0
220
0.0
230
1.0
 70
    24
 71
     3
 72
     8
 73
     4
 74
     0
 42
0.0000000001
 43
0.0000000001
 40
0.0
 40
0.0
 40
0.0
 40
0.0
 40
1.0
 40
1.0
 40
1.0
 40
1.0
 10
40.4618
 20
-11.4815
 30
0.0
 10
40.4618
 20
-11.4815
 30
0.0
 10
40.4618
 20
6.4821
 30
0.0
 10
40.4618
 20
6.4821
 30
0.0
  0
SPLINE
  5
5C
330
1F
100
AcDbEntity
  8
ROUND
 62
   250
100
AcDbSpline
210
0.0
220
0.0
230
1.0
 70
    24
 71
     3
 72
     8
 73
     4
 74
     0
 42
0.0000000001
 43
0.0000000001
 40
0.0
 40
0.0
 40
0.0
 40
0.0
 40
1.0
 40
1.0
 40
1.0
 40
1.0
 10
34.7889
 20
-11.4815
 30
0.0
 10
34.7889
 20
-11.4815
 30
0.0
 10
34.4738
 20
-11.7967
 30
0.0
 10
34.4738
 20
-11.7967
 30
0.0
  0
SPLINE
  5
5D
330
1F
100
AcDbEntity
  8
ROUND
 62
   250
100
AcDbSpline
210
0.0
220
0.0
230
1.0
 70
    24
 71
     3
 72
     8
 73
     4
 74
     0
 42
0.0000000001
 43
0.0000000001
 40
0.0
 40
0.0
 40
0.0
 40
0.0
 40
1.0
 40
1.0
 40
1.0
 40
1.0
 10
36.6799
 20
-11.4815
 30
0.0
 10
36.6799
 20
-11.4815
 30
0.0
 10
36.3647
 20
-11.7967
 30
0.0
 10
36.3647
 20
-11.7967
 30
0.0
  0
SPLINE
  5
5E
330
1F
100
AcDbEntity
  8
ROUND
 62
   250
100
AcDbSpline
210
0.0
220
0.0
230
1.0
 70
    24
 71
     3
 72
     8
 73
     4
 74
     0
 42
0.0000000001
 43
0.0000000001
 40
0.0
 40
0.0
 40
0.0
 40
0.0
 40
1.0
 40
1.0
 40
1.0
 40
1.0
 10
38.5708
 20
-11.4815
 30
0.0
 10
38.5708
 20
-11.4815
 30
0.0
 10
38.2557
 20
-11.7967
 30
0.0
 10
38.2557
 20
-11.7967
 30
0.0
  0
SPLINE
  5
5F
330
1F
100
AcDbEntity
  8
ROUND
 62
   250
100
AcDbSpline
210
0.0
220
0.0
230
1.0
 70
    24
 71
     3
 72
     8
 73
     4
 74
     0
 42
0.0000000001
 43
0.0000000001
 40
0.0
 40
0.0
 40
0.0
 40
0.0
 40
1.0
 40
1.0
 40
1.0
 40
1.0
 10
40.4618
 20
-11.4815
 30
0.0
 10
40.4618
 20
-11.4815
 30
0.0
 10
40.1465
 20
-11.7967
 30
0.0
 10
40.1465
 20
-11.7967
 30
0.0
  0
SPLINE
  5
60
330
1F
100
AcDbEntity
  8
ROUND
 62
   250
100
AcDbSpline
210
0.0
220
0.0
230
1.0
 70
    24
 71
     3
 72
     8
 73
     4
 74
     0
 42
0.0000000001
 43
0.0000000001
 40
0.0
 40
0.0
 40
0.0
 40
0.0
 40
1.0
 40
1.0
 40
1.0
 40
1.0
 10
34.1586
 20
-11.7967
 30
0.0
 10
34.1586
 20
-11.7967
 30
0.0
 10
34.4738
 20
-11.7967
 30
0.0
 10
34.4738
 20
-11.7967
 30
0.0
  0
SPLINE
  5
61
330
1F
100
AcDbEntity
  8
ROUND
 62
   250
100
AcDbSpline
210
0.0
220
0.0
230
1.0
 70
    24
 71
     3
 72
     8
 73
     4
 74
     0
 42
0.0000000001
 43
0.0000000001
 40
0.0
 40
0.0
 40
0.0
 40
0.0
 40
1.0
 40
1.0
 40
1.0
 40
1.0
 10
36.0496
 20
-11.7967
 30
0.0
 10
36.0496
 20
-11.7967
 30
0.0
 10
36.3647
 20
-11.7967
 30
0.0
 10
36.3647
 20
-11.7967
 30
0.0
  0
SPLINE
  5
62
330
1F
100
AcDbEntity
  8
ROUND
 62
   250
100
AcDbSpline
210
0.0
220
0.0
230
1.0
 70
    24
 71
     3
 72
     8
 73
     4
 74
     0
 42
0.0000000001
 43
0.0000000001
 40
0.0
 40
0.0
 40
0.0
 40
0.0
 40
1.0
 40
1.0
 40
1.0
 40
1.0
 10
37.9405
 20
-11.7967
 30
0.0
 10
37.9405
 20
-11.7967
 30
0.0
 10
38.2557
 20
-11.7967
 30
0.0
 10
38.2557
 20
-11.7967
 30
0.0
  0
SPLINE
  5
63
330
1F
100
AcDbEntity
  8
ROUND
 62
   250
100
AcDbSpline
210
0.0
220
0.0
230
1.0
 70
    24
 71
     3
 72
     8
 73
     4
 74
     0
 42
0.0000000001
 43
0.0000000001
 40
0.0
 40
0.0
 40
0.0
 40
0.0
 40
1.0
 40
1.0
 40
1.0
 40
1.0
 10
39.8315
 20
-11.7967
 30
0.0
 10
39.8315
 20
-11.7967
 30
0.0
 10
40.1465
 20
-11.7967
 30
0.0
 10
40.1465
 20
-11.7967
 30
0.0
  0
SPLINE
  5
64
330
1F
100
AcDbEntity
  8
ROUND
 62
   250
100
AcDbSpline
210
0.0
220
0.0
230
1.0
 70
    24
 71
     3
 72
     8
 73
     4
 74
     0
 42
0.0000000001
 43
0.0000000001
 40
0.0
 40
0.0
 40
0.0
 40
0.0
 40
1.0
 40
1.0
 40
1.0
 40
1.0
 10
33.5283
 20
-10.2209
 30
0.0
 10
33.5283
 20
-10.2209
 30
0.0
 10
34.1586
 20
-10.2209
 30
0.0
 10
34.1586
 20
-10.2209
 30
0.0
  0
SPLINE
  5
65
330
1F
100
AcDbEntity
  8
ROUND
 62
   250
100
AcDbSpline
210
0.0
220
0.0
230
1.0
 70
    24
 71
     3
 72
     8
 73
     4
 74
     0
 42
0.0000000001
 43
0.0000000001
 40
0.0
 40
0.0
 40
0.0
 40
0.0
 40
1.0
 40
1.0
 40
1.0
 40
1.0
 10
34.7889
 20
-10.2209
 30
0.0
 10
34.7889
 20
-10.2209
 30
0.0
 10
36.0496
 20
-10.2209
 30
0.0
 10
36.0496
 20
-10.2209
 30
0.0
  0
SPLINE
  5
66
330
1F
100
AcDbEntity
  8
ROUND
 62
   250
100
AcDbSpline
210
0.0
220
0.0
230
1.0
 70
    24
 71
     3
 72
     8
 73
     4
 74
     0
 42
0.0000000001
 43
0.0000000001
 40
0.0
 40
0.0
 40
0.0
 40
0.0
 40
1.0
 40
1.0
 40
1.0
 40
1.0
 10
36.6799
 20
-10.2209
 30
0.0
 10
36.6799
 20
-10.2209
 30
0.0
 10
37.9405
 20
-10.2209
 30
0.0
 10
37.9405
 20
-10.2209
 30
0.0
  0
SPLINE
  5
67
330
1F
100
AcDbEntity
  8
ROUND
 62
   250
100
AcDbSpline
210
0.0
220
0.0
230
1.0
 70
    24
 71
     3
 72
     8
 73
     4
 74
     0
 42
0.0000000001
 43
0.0000000001
 40
0.0
 40
0.0
 40
0.0
 40
0.0
 40
1.0
 40
1.0
 40
1.0
 40
1.0
 10
38.5708
 20
-10.2209
 30
0.0
 10
38.5708
 20
-10.2209
 30
0.0
 10
39.8315
 20
-10.2209
 30
0.0
 10
39.8315
 20
-10.2209
 30
0.0
  0
SPLINE
  5
68
330
1F
100
AcDbEntity
  8
ROUND
 62
   250
100
AcDbSpline
210
0.0
220
0.0
230
1.0
 70
    24
 71
     3
 72
     8
 73
     4
 74
     0
 42
0.0000000001
 43
0.0000000001
 40
0.0
 40
0.0
 40
0.0
 40
0.0
 40
1.0
 40
1.0
 40
1.0
 40
1.0
 10
40.4618
 20
-10.2209
 30
0.0
 10
40.4618
 20
-10.2209
 30
0.0
 10
41.4071
 20
-10.2209
 30
0.0
 10
41.4071
 20
-10.2209
 30
0.0
  0
SPLINE
  5
69
330
1F
100
AcDbEntity
  8
ROUND
 62
   250
100
AcDbSpline
210
0.0
220
0.0
230
1.0
 70
    24
 71
     3
 72
     8
 73
     4
 74
     0
 42
0.0000000001
 43
0.0000000001
 40
0.0
 40
0.0
 40
0.0
 40
0.0
 40
1.0
 40
1.0
 40
1.0
 40
1.0
 10
33.5283
 20
5.2216
 30
0.0
 10
33.5283
 20
5.2216
 30
0.0
 10
34.1586
 20
5.2216
 30
0.0
 10
34.1586
 20
5.2216
 30
0.0
  0
SPLINE
  5
6A
330
1F
100
AcDbEntity
  8
ROUND
 62
   250
100
AcDbSpline
210
0.0
220
0.0
230
1.0
 70
    24
 71
     3
 72
     8
 73
     4
 74
     0
 42
0.0000000001
 43
0.0000000001
 40
0.0
 40
0.0
 40
0.0
 40
0.0
 40
1.0
 40
1.0
 40
1.0
 40
1.0
 10
34.7889
 20
5.2216
 30
0.0
 10
34.7889
 20
5.2216
 30
0.0
 10
36.0496
 20
5.2216
 30
0.0
 10
36.0496
 20
5.2216
 30
0.0
  0
SPLINE
  5
6B
330
1F
100
AcDbEntity
  8
ROUND
 62
   250
100
AcDbSpline
210
0.0
220
0.0
230
1.0
 70
    24
 71
     3
 72
     8
 73
     4
 74
     0
 42
0.0000000001
 43
0.0000000001
 40
0.0
 40
0.0
 40
0.0
 40
0.0
 40
1.0
 40
1.0
 40
1.0
 40
1.0
 10
36.6799
 20
5.2216
 30
0.0
 10
36.6799
 20
5.2216
 30
0.0
 10
37.9405
 20
5.2216
 30
0.0
 10
37.9405
 20
5.2216
 30
0.0
  0
SPLINE
  5
6C
330
1F
100
AcDbEntity
  8
ROUND
 62
   250
100
AcDbSpline
210
0.0
220
0.0
230
1.0
 70
    24
 71
     3
 72
     8
 73
     4
 74
     0
 42
0.0000000001
 43
0.0000000001
 40
0.0
 40
0.0
 40
0.0
 40
0.0
 40
1.0
 40
1.0
 40
1.0
 40
1.0
 10
38.5708
 20
5.2216
 30
0.0
 10
38.5708
 20
5.2216
 30
0.0
 10
39.8315
 20
5.2216
 30
0.0
 10
39.8315
 20
5.2216
 30
0.0
  0
SPLINE
  5
6D
330
1F
100
AcDbEntity
  8
ROUND
 62
   250
100
AcDbSpline
210
0.0
220
0.0
230
1.0
 70
    24
 71
     3
 72
     8
 73
     4
 74
     0
 42
0.0000000001
 43
0.0000000001
 40
0.0
 40
0.0
 40
0.0
 40
0.0
 40
1.0
 40
1.0
 40
1.0
 40
1.0
 10
40.4618
 20
5.2216
 30
0.0
 10
40.4618
 20
5.2216
 30
0.0
 10
41.4071
 20
5.2216
 30
0.0
 10
41.4071
 20
5.2216
 30
0.0
  0
SPLINE
  5
6E
330
1F
100
AcDbEntity
  8
ROUND
 62
   250
100
AcDbSpline
210
0.0
220
0.0
230
1.0
 70
    24
 71
     3
 72
     8
 73
     4
 74
     0
 42
0.0000000001
 43
0.0000000001
 40
0.0
 40
0.0
 40
0.0
 40
0.0
 40
1.0
 40
1.0
 40
1.0
 40
1.0
 10
34.1586
 20
6.7974
 30
0.0
 10
34.1586
 20
6.7974
 30
0.0
 10
34.4738
 20
6.7974
 30
0.0
 10
34.4738
 20
6.7974
 30
0.0
  0
SPLINE
  5
6F
330
1F
100
AcDbEntity
  8
ROUND
 62
   250
100
AcDbSpline
210
0.0
220
0.0
230
1.0
 70
    24
 71
     3
 72
     8
 73
     4
 74
     0
 42
0.0000000001
 43
0.0000000001
 40
0.0
 40
0.0
 40
0.0
 40
0.0
 40
1.0
 40
1.0
 40
1.0
 40
1.0
 10
36.0496
 20
6.7974
 30
0.0
 10
36.0496
 20
6.7974
 30
0.0
 10
36.3647
 20
6.7974
 30
0.0
 10
36.3647
 20
6.7974
 30
0.0
  0
SPLINE
  5
70
330
1F
100
AcDbEntity
  8
ROUND
 62
   250
100
AcDbSpline
210
0.0
220
0.0
230
1.0
 70
    24
 71
     3
 72
     8
 73
     4
 74
     0
 42
0.0000000001
 43
0.0000000001
 40
0.0
 40
0.0
 40
0.0
 40
0.0
 40
1.0
 40
1.0
 40
1.0
 40
1.0
 10
37.9405
 20
6.7974
 30
0.0
 10
37.9405
 20
6.7974
 30
0.0
 10
38.2557
 20
6.7974
 30
0.0
 10
38.2557
 20
6.7974
 30
0.0
  0
SPLINE
  5
71
330
1F
100
AcDbEntity
  8
ROUND
 62
   250
100
AcDbSpline
210
0.0
220
0.0
230
1.0
 70
    24
 71
     3
 72
     8
 73
     4
 74
     0
 42
0.0000000001
 43
0.0000000001
 40
0.0
 40
0.0
 40
0.0
 40
0.0
 40
1.0
 40
1.0
 40
1.0
 40
1.0
 10
39.8315
 20
6.7974
 30
0.0
 10
39.8315
 20
6.7974
 30
0.0
 10
40.1465
 20
6.7974
 30
0.0
 10
40.1465
 20
6.7974
 30
0.0
  0
SPLINE
  5
72
330
1F
100
AcDbEntity
  8
ROUND
 62
   250
100
AcDbSpline
210
0.0
220
0.0
230
1.0
 70
    24
 71
     3
 72
     8
 73
     4
 74
     0
 42
0.0000000001
 43
0.0000000001
 40
0.0
 40
0.0
 40
0.0
 40
0.0
 40
1.0
 40
1.0
 40
1.0
 40
1.0
 10
33.5283
 20
-10.2209
 30
0.0
 10
33.5283
 20
-10.2209
 30
0.0
 10
33.5283
 20
5.2216
 30
0.0
 10
33.5283
 20
5.2216
 30
0.0
  0
SPLINE
  5
73
330
1F
100
AcDbEntity
  8
ROUND
 62
   250
100
AcDbSpline
210
0.0
220
0.0
230
1.0
 70
    24
 71
     3
 72
     8
 73
     4
 74
     0
 42
0.0000000001
 43
0.0000000001
 40
0.0
 40
0.0
 40
0.0
 40
0.0
 40
1.0
 40
1.0
 40
1.0
 40
1.0
 10
34.1586
 20
-11.7967
 30
0.0
 10
34.1586
 20
-11.7967
 30
0.0
 10
34.1586
 20
6.7974
 30
0.0
 10
34.1586
 20
6.7974
 30
0.0
  0
SPLINE
  5
74
330
1F
100
AcDbEntity
  8
ROUND
 62
   250
100
AcDbSpline
210
0.0
220
0.0
230
1.0
 70
    24
 71
     3
 72
     8
 73
     4
 74
     0
 42
0.0000000001
 43
0.0000000001
 40
0.0
 40
0.0
 40
0.0
 40
0.0
 40
1.0
 40
1.0
 40
1.0
 40
1.0
 10
36.0496
 20
-11.7967
 30
0.0
 10
36.0496
 20
-11.7967
 30
0.0
 10
36.0496
 20
6.7974
 30
0.0
 10
36.0496
 20
6.7974
 30
0.0
  0
SPLINE
  5
75
330
1F
100
AcDbEntity
  8
ROUND
 62
   250
100
AcDbSpline
210
0.0
220
0.0
230
1.0
 70
    24
 71
     3
 72
     8
 73
     4
 74
     0
 42
0.0000000001
 43
0.0000000001
 40
0.0
 40
0.0
 40
0.0
 40
0.0
 40
1.0
 40
1.0
 40
1.0
 40
1.0
 10
37.9405
 20
-11.7967
 30
0.0
 10
37.9405
 20
-11.7967
 30
0.0
 10
37.9405
 20
6.7974
 30
0.0
 10
37.9405
 20
6.7974
 30
0.0
  0
SPLINE
  5
76
330
1F
100
AcDbEntity
  8
ROUND
 62
   250
100
AcDbSpline
210
0.0
220
0.0
230
1.0
 70
    24
 71
     3
 72
     8
 73
     4
 74
     0
 42
0.0000000001
 43
0.0000000001
 40
0.0
 40
0.0
 40
0.0
 40
0.0
 40
1.0
 40
1.0
 40
1.0
 40
1.0
 10
39.8315
 20
-11.7965
 30
0.0
 10
39.8315
 20
-11.7965
 30
0.0
 10
39.8315
 20
6.7974
 30
0.0
 10
39.8315
 20
6.7974
 30
0.0
  0
SPLINE
  5
77
330
1F
100
AcDbEntity
  8
ROUND
 62
   250
100
AcDbSpline
210
0.0
220
0.0
230
1.0
 70
    24
 71
     3
 72
     8
 73
     4
 74
     0
 42
0.0000000001
 43
0.0000000001
 40
0.0
 40
0.0
 40
0.0
 40
0.0
 40
1.0
 40
1.0
 40
1.0
 40
1.0
 10
41.4071
 20
-10.2209
 30
0.0
 10
41.4071
 20
-10.2209
 30
0.0
 10
41.4071
 20
5.2216
 30
0.0
 10
41.4071
 20
5.2216
 30
0.0
  0
SPLINE
  5
78
330
1F
100
AcDbEntity
  8
ROUND
 62
   250
100
AcDbSpline
210
0.0
220
0.0
230
1.0
 70
    24
 71
     3
 72
     8
 73
     4
 74
     0
 42
0.0000000001
 43
0.0000000001
 40
0.0
 40
0.0
 40
0.0
 40
0.0
 40
1.0
 40
1.0
 40
1.0
 40
1.0
 10
-34.8963
 20
-9.5906
 30
0.0
 10
-34.8963
 20
-9.5906
 30
0.0
 10
-34.8963
 20
4.5913
 30
0.0
 10
-34.8963
 20
4.5913
 30
0.0
  0
SPLINE
  5
79
330
1F
100
AcDbEntity
  8
ROUND
 62
   250
100
AcDbSpline
210
0.0
220
0.0
230
1.0
 70
    24
 71
     3
 72
     8
 73
     4
 74
     0
 42
0.0000000001
 43
0.0000000001
 40
0.0
 40
0.0
 40
0.0
 40
0.0
 40
1.0
 40
1.0
 40
1.0
 40
1.0
 10
21.516
 20
-10.3784
 30
0.0
 10
21.516
 20
-10.3784
 30
0.0
 10
20.728
 20
-10.3784
 30
0.0
 10
20.728
 20
-10.3784
 30
0.0
  0
SPLINE
  5
7A
330
1F
100
AcDbEntity
  8
ROUND
 62
   250
100
AcDbSpline
210
0.0
220
0.0
230
1.0
 70
    24
 71
     3
 72
     8
 73
     4
 74
     0
 42
0.0000000001
 43
0.0000000001
 40
0.0
 40
0.0
 40
0.0
 40
0.0
 40
1.0
 40
1.0
 40
1.0
 40
1.0
 10
28.1342
 20
-9.5906
 30
0.0
 10
28.1342
 20
-9.5906
 30
0.0
 10
21.516
 20
-9.5906
 30
0.0
 10
21.516
 20
-9.5906
 30
0.0
  0
SPLINE
  5
7B
330
1F
100
AcDbEntity
  8
ROUND
 62
   250
100
AcDbSpline
210
0.0
220
0.0
230
1.0
 70
    24
 71
     3
 72
     8
 73
     4
 74
     0
 42
0.0000000001
 43
0.0000000001
 40
0.0
 40
0.0
 40
0.0
 40
0.0
 40
1.0
 40
1.0
 40
1.0
 40
1.0
 10
20.728
 20
-9.5906
 30
0.0
 10
20.728
 20
-9.5906
 30
0.0
 10
-34.8963
 20
-9.5906
 30
0.0
 10
-34.8963
 20
-9.5906
 30
0.0
  0
SPLINE
  5
7C
330
1F
100
AcDbEntity
  8
ROUND
 62
   250
100
AcDbSpline
210
0.0
220
0.0
230
1.0
 70
    24
 71
     3
 72
     8
 73
     4
 74
     0
 42
0.0000000001
 43
0.0000000001
 40
0.0
 40
0.0
 40
0.0
 40
0.0
 40
1.0
 40
1.0
 40
1.0
 40
1.0
 10
28.1342
 20
4.5913
 30
0.0
 10
28.1342
 20
4.5913
 30
0.0
 10
21.516
 20
4.5913
 30
0.0
 10
21.516
 20
4.5913
 30
0.0
  0
SPLINE
  5
7D
330
1F
100
AcDbEntity
  8
ROUND
 62
   250
100
AcDbSpline
210
0.0
220
0.0
230
1.0
 70
    24
 71
     3
 72
     8
 73
     4
 74
     0
 42
0.0000000001
 43
0.0000000001
 40
0.0
 40
0.0
 40
0.0
 40
0.0
 40
1.0
 40
1.0
 40
1.0
 40
1.0
 10
20.728
 20
4.5913
 30
0.0
 10
20.728
 20
4.5913
 30
0.0
 10
-34.8963
 20
4.5913
 30
0.0
 10
-34.8963
 20
4.5913
 30
0.0
  0
SPLINE
  5
7E
330
1F
100
AcDbEntity
  8
ROUND
 62
   250
100
AcDbSpline
210
0.0
220
0.0
230
1.0
 70
    24
 71
     3
 72
     8
 73
     4
 74
     0
 42
0.0000000001
 43
0.0000000001
 40
0.0
 40
0.0
 40
0.0
 40
0.0
 40
1.0
 40
1.0
 40
1.0
 40
1.0
 10
21.516
 20
5.3793
 30
0.0
 10
21.516
 20
5.3793
 30
0.0
 10
20.728
 20
5.3793
 30
0.0
 10
20.728
 20
5.3793
 30
0.0
  0
SPLINE
  5
7F
330
1F
100
AcDbEntity
  8
ROUND
 62
   250
100
AcDbSpline
210
0.0
220
0.0
230
1.0
 70
    24
 71
     3
 72
     8
 73
     4
 74
     0
 42
0.0000000001
 43
0.0000000001
 40
0.0
 40
0.0
 40
0.0
 40
0.0
 40
1.0
 40
1.0
 40
1.0
 40
1.0
 10
20.728
 20
-10.3784
 30
0.0
 10
20.728
 20
-10.3784
 30
0.0
 10
20.728
 20
5.3793
 30
0.0
 10
20.728
 20
5.3793
 30
0.0
  0
SPLINE
  5
80
330
1F
100
AcDbEntity
  8
ROUND
 62
   250
100
AcDbSpline
210
0.0
220
0.0
230
1.0
 70
    24
 71
     3
 72
     8
 73
     4
 74
     0
 42
0.0000000001
 43
0.0000000001
 40
0.0
 40
0.0
 40
0.0
 40
0.0
 40
1.0
 40
1.0
 40
1.0
 40
1.0
 10
21.516
 20
-10.3784
 30
0.0
 10
21.516
 20
-10.3784
 30
0.0
 10
21.516
 20
5.3793
 30
0.0
 10
21.516
 20
5.3793
 30
0.0
  0
SPLINE
  5
81
330
1F
100
AcDbEntity
  8
ROUND
 62
   250
100
AcDbSpline
210
0.0
220
0.0
230
1.0
 70
    24
 71
     3
 72
     8
 73
     4
 74
     0
 42
0.0000000001
 43
0.0000000001
 40
0.0
 40
0.0
 40
0.0
 40
0.0
 40
1.0
 40
1.0
 40
1.0
 40
1.0
 10
28.1342
 20
-9.5906
 30
0.0
 10
28.1342
 20
-9.5906
 30
0.0
 10
28.1342
 20
4.5913
 30
0.0
 10
28.1342
 20
4.5913
 30
0.0
  0
SPLINE
  5
82
330
1F
100
AcDbEntity
  8
ROUND
 62
   250
100
AcDbSpline
210
0.0
220
0.0
230
1.0
 70
    24
 71
     3
 72
     8
 73
     4
 74
     0
 42
0.0000000001
 43
0.0000000001
 40
0.0
 40
0.0
 40
0.0
 40
0.0
 40
1.0
 40
1.0
 40
1.0
 40
1.0
 10
-40.9473
 20
-10.2209
 30
0.0
 10
-40.9473
 20
-10.2209
 30
0.0
 10
-40.8784
 20
-11.0087
 30
0.0
 10
-40.8784
 20
-11.0087
 30
0.0
  0
SPLINE
  5
83
330
1F
100
AcDbEntity
  8
ROUND
 62
   250
100
AcDbSpline
210
0.0
220
0.0
230
1.0
 70
    24
 71
     3
 72
     8
 73
     4
 74
     0
 42
0.0000000001
 43
0.0000000001
 40
0.0
 40
0.0
 40
0.0
 40
0.0
 40
1.0
 40
1.0
 40
1.0
 40
1.0
 10
-38.8299
 20
6.0095
 30
0.0
 10
-38.8299
 20
6.0095
 30
0.0
 10
-38.761
 20
5.2216
 30
0.0
 10
-38.761
 20
5.2216
 30
0.0
  0
SPLINE
  5
84
330
1F
100
AcDbEntity
  8
ROUND
 62
   250
100
AcDbSpline
210
0.0
220
0.0
230
1.0
 70
    24
 71
     3
 72
     8
 73
     4
 74
     0
 42
0.0000000001
 43
0.0000000001
 40
0.0
 40
0.0
 40
0.0
 40
0.0
 40
1.0
 40
1.0
 40
1.0
 40
1.0
 10
-40.9473
 20
-10.2209
 30
0.0
 10
-40.9473
 20
-10.2209
 30
0.0
 10
-40.9473
 20
5.2216
 30
0.0
 10
-40.9473
 20
5.2216
 30
0.0
  0
SPLINE
  5
85
330
1F
100
AcDbEntity
  8
ROUND
 62
   250
100
AcDbSpline
210
0.0
220
0.0
230
1.0
 70
    24
 71
     3
 72
     8
 73
     4
 74
     0
 42
0.0000000001
 43
0.0000000001
 40
0.0
 40
0.0
 40
0.0
 40
0.0
 40
1.0
 40
1.0
 40
1.0
 40
1.0
 10
-38.761
 20
-10.2209
 30
0.0
 10
-38.761
 20
-10.2209
 30
0.0
 10
-38.761
 20
5.2216
 30
0.0
 10
-38.761
 20
5.2216
 30
0.0
  0
SPLINE
  5
86
330
1F
100
AcDbEntity
  8
ROUND
 62
   250
100
AcDbSpline
210
0.0
220
0.0
230
1.0
 70
    24
 71
     3
 72
     8
 73
     4
 74
     0
 42
0.0000000001
 43
0.0000000001
 40
0.0
 40
0.0
 40
0.0
 40
0.0
 40
1.0
 40
1.0
 40
1.0
 40
1.0
 10
-40.9473
 20
5.2216
 30
0.0
 10
-40.9473
 20
5.2216
 30
0.0
 10
-40.8784
 20
6.0095
 30
0.0
 10
-40.8784
 20
6.0095
 30
0.0
  0
SPLINE
  5
87
330
1F
100
AcDbEntity
  8
ROUND
 62
   250
100
AcDbSpline
210
0.0
220
0.0
230
1.0
 70
    24
 71
     3
 72
     8
 73
     4
 74
     0
 42
0.0000000001
 43
0.0000000001
 40
0.0
 40
0.0
 40
0.0
 40
0.0
 40
1.0
 40
1.0
 40
1.0
 40
1.0
 10
-38.8299
 20
-11.0087
 30
0.0
 10
-38.8299
 20
-11.0087
 30
0.0
 10
-38.761
 20
-10.2209
 30
0.0
 10
-38.761
 20
-10.2209
 30
0.0
  0
SPLINE
  5
88
330
1F
100
AcDbEntity
  8
ROUND
 62
   250
100
AcDbSpline
210
0.0
220
0.0
230
1.0
 70
    24
 71
     3
 72
     8
 73
     4
 74
     0
 42
0.0000000001
 43
0.0000000001
 40
0.0
 40
0.0
 40
0.0
 40
0.0
 40
1.0
 40
1.0
 40
1.0
 40
1.0
 10
-40.8784
 20
-11.0087
 30
0.0
 10
-40.8784
 20
-11.0087
 30
0.0
 10
-38.8299
 20
-11.0087
 30
0.0
 10
-38.8299
 20
-11.0087
 30
0.0
  0
SPLINE
  5
89
330
1F
100
AcDbEntity
  8
ROUND
 62
   250
100
AcDbSpline
210
0.0
220
0.0
230
1.0
 70
    24
 71
     3
 72
     8
 73
     4
 74
     0
 42
0.0000000001
 43
0.0000000001
 40
0.0
 40
0.0
 40
0.0
 40
0.0
 40
1.0
 40
1.0
 40
1.0
 40
1.0
 10
-40.8784
 20
6.0095
 30
0.0
 10
-40.8784
 20
6.0095
 30
0.0
 10
-38.8299
 20
6.0095
 30
0.0
 10
-38.8299
 20
6.0095
 30
0.0
  0
SPLINE
  5
8A
330
1F
100
AcDbEntity
  8
ROUND
 62
   250
100
AcDbSpline
210
0.0
220
0.0
230
1.0
 70
    24
 71
     3
 72
     8
 73
     4
 74
     0
 42
0.0000000001
 43
0.0000000001
 40
0.0
 40
0.0
 40
0.0
 40
0.0
 40
1.0
 40
1.0
 40
1.0
 40
1.0
 10
-34.8043
 20
5.0973
 30
0.0
 10
-34.8043
 20
5.0973
 30
0.0
 10
-34.8043
 20
13.4792
 30
0.0
 10
-34.8043
 20
13.4792
 30
0.0
  0
SPLINE
  5
8B
330
1F
100
AcDbEntity
  8
ROUND
 62
   250
100
AcDbSpline
210
0.0
220
0.0
230
1.0
 70
    24
 71
     3
 72
     8
 73
     4
 74
     0
 42
0.0000000001
 43
0.0000000001
 40
0.0
 40
0.0
 40
0.0
 40
0.0
 40
1.0
 40
1.0
 40
1.0
 40
1.0
 10
28.0423
 20
5.0973
 30
0.0
 10
28.0423
 20
5.0973
 30
0.0
 10
28.0423
 20
13.4792
 30
0.0
 10
28.0423
 20
13.4792
 30
0.0
  0
SPLINE
  5
8C
330
1F
100
AcDbEntity
  8
ROUND
 62
   250
100
AcDbSpline
210
0.0
220
0.0
230
1.0
 70
    24
 71
     3
 72
     8
 73
     4
 74
     0
 42
0.0000000001
 43
0.0000000001
 40
0.0
 40
0.0
 40
0.0
 40
0.0
 40
1.0
 40
1.0
 40
1.0
 40
1.0
 10
-44.208
 20
-10.4185
 30
0.0
 10
-44.208
 20
-10.4185
 30
0.0
 10
-44.208
 20
5.3037
 30
0.0
 10
-44.208
 20
5.3037
 30
0.0
  0
SPLINE
  5
8D
330
1F
100
AcDbEntity
  8
ROUND
 62
   250
100
AcDbSpline
210
0.0
220
0.0
230
1.0
 70
    11
 71
     3
 72
    20
 73
    16
 74
     0
 42
0.0000000001
 43
0.0000000001
 40
0.0
 40
0.0
 40
0.0
 40
0.0
 40
0.2
 40
0.2
 40
0.2
 40
0.2
 40
0.4
 40
0.4
 40
0.4
 40
0.4
 40
0.6
 40
0.6
 40
0.6
 40
0.6
 40
1.0
 40
1.0
 40
1.0
 40
1.0
 10
-43.4891
 20
-6.0498
 30
0.0
 10
-43.4891
 20
-6.0498
 30
0.0
 10
-44.1414
 20
-10.6725
 30
0.0
 10
-44.1414
 20
-10.6725
 30
0.0
 10
-44.1414
 20
-10.6725
 30
0.0
 10
-44.1414
 20
-10.6725
 30
0.0
 10
-44.2863
 20
-10.6725
 30
0.0
 10
-44.2863
 20
-10.6725
 30
0.0
 10
-44.2863
 20
-10.6725
 30
0.0
 10
-44.2863
 20
-10.6725
 30
0.0
 10
-44.982
 20
-6.0498
 30
0.0
 10
-44.982
 20
-6.0498
 30
0.0
 10
-44.982
 20
-6.0498
 30
0.0
 10
-44.982
 20
-6.0498
 30
0.0
 10
-43.4891
 20
-6.0498
 30
0.0
 10
-43.4891
 20
-6.0498
 30
0.0
  0
SPLINE
  5
8E
330
1F
100
AcDbEntity
  8
ROUND
 62
   250
100
AcDbSpline
210
0.0
220
0.0
230
1.0
 70
    11
 71
     3
 72
    20
 73
    16
 74
     0
 42
0.0000000001
 43
0.0000000001
 40
0.0
 40
0.0
 40
0.0
 40
0.0
 40
0.2
 40
0.2
 40
0.2
 40
0.2
 40
0.4
 40
0.4
 40
0.4
 40
0.4
 40
0.6
 40
0.6
 40
0.6
 40
0.6
 40
1.0
 40
1.0
 40
1.0
 40
1.0
 10
-44.987
 20
1.2585
 30
0.0
 10
-44.987
 20
1.2585
 30
0.0
 10
-44.3346
 20
5.8818
 30
0.0
 10
-44.3346
 20
5.8818
 30
0.0
 10
-44.3346
 20
5.8818
 30
0.0
 10
-44.3346
 20
5.8818
 30
0.0
 10
-44.1897
 20
5.8818
 30
0.0
 10
-44.1897
 20
5.8818
 30
0.0
 10
-44.1897
 20
5.8818
 30
0.0
 10
-44.1897
 20
5.8818
 30
0.0
 10
-43.4939
 20
1.2585
 30
0.0
 10
-43.4939
 20
1.2585
 30
0.0
 10
-43.4939
 20
1.2585
 30
0.0
 10
-43.4939
 20
1.2585
 30
0.0
 10
-44.987
 20
1.2585
 30
0.0
 10
-44.987
 20
1.2585
 30
0.0
  0
SPLINE
  5
8F
330
1F
100
AcDbEntity
  8
ROUND
 62
   250
100
AcDbSpline
210
0.0
220
0.0
230
1.0
 70
    11
 71
     3
 72
    84
 73
    80
 74
     0
 42
0.0000000001
 43
0.0000000001
 40
0.0
 40
0.0
 40
0.0
 40
0.0
 40
0.0476190476190476
 40
0.0476190476190476
 40
0.0476190476190476
 40
0.0476190476190476
 40
0.0952380952380952
 40
0.0952380952380952
 40
0.0952380952380952
 40
0.0952380952380952
 40
0.1428571428571428
 40
0.1428571428571428
 40
0.1428571428571428
 40
0.1428571428571428
 40
0.1904761904761905
 40
0.1904761904761905
 40
0.1904761904761905
 40
0.1904761904761905
 40
0.2380952380952381
 40
0.2380952380952381
 40
0.2380952380952381
 40
0.2380952380952381
 40
0.2857142857142857
 40
0.2857142857142857
 40
0.2857142857142857
 40
0.2857142857142857
 40
0.3333333333333333
 40
0.3333333333333333
 40
0.3333333333333333
 40
0.3333333333333333
 40
0.3809523809523809
 40
0.3809523809523809
 40
0.3809523809523809
 40
0.3809523809523809
 40
0.4285714285714285
 40
0.4285714285714285
 40
0.4285714285714285
 40
0.4285714285714285
 40
0.4761904761904762
 40
0.4761904761904762
 40
0.4761904761904762
 40
0.4761904761904762
 40
0.5238095238095238
 40
0.5238095238095238
 40
0.5238095238095238
 40
0.5238095238095238
 40
0.5714285714285714
 40
0.5714285714285714
 40
0.5714285714285714
 40
0.5714285714285714
 40
0.6190476190476191
 40
0.6190476190476191
 40
0.6190476190476191
 40
0.6190476190476191
 40
0.6666666666666666
 40
0.6666666666666666
 40
0.6666666666666666
 40
0.6666666666666666
 40
0.7142857142857143
 40
0.7142857142857143
 40
0.7142857142857143
 40
0.7142857142857143
 40
0.7619047619047619
 40
0.7619047619047619
 40
0.7619047619047619
 40
0.7619047619047619
 40
0.8095238095238095
 40
0.8095238095238095
 40
0.8095238095238095
 40
0.8095238095238095
 40
0.8571428571428571
 40
0.8571428571428571
 40
0.8571428571428571
 40
0.8571428571428571
 40
0.9047619047619048
 40
0.9047619047619048
 40
0.9047619047619048
 40
0.9047619047619048
 40
1.0
 40
1.0
 40
1.0
 40
1.0
 10
-48.5782
 20
-3.5415
 30
0.0
 10
-48.5782
 20
-3.5415
 30
0.0
 10
-48.9776
 20
-3.1848
 30
0.0
 10
-48.9776
 20
-3.1848
 30
0.0
 10
-48.9776
 20
-3.1848
 30
0.0
 10
-48.9776
 20
-3.1848
 30
0.0
 10
-48.7993
 20
-2.9746
 30
0.0
 10
-48.7993
 20
-2.9746
 30
0.0
 10
-48.7993
 20
-2.9746
 30
0.0
 10
-48.7993
 20
-2.9746
 30
0.0
 10
-48.3788
 20
-3.3481
 30
0.0
 10
-48.3788
 20
-3.3481
 30
0.0
 10
-48.3788
 20
-3.3481
 30
0.0
 10
-48.1975
 20
-3.2261
 30
0.0
 10
-48.0387
 20
-3.1443
 30
0.0
 10
-47.9032
 20
-3.1014
 30
0.0
 10
-47.9032
 20
-3.1014
 30
0.0
 10
-47.7247
 20
-3.0449
 30
0.0
 10
-47.5247
 20
-3.0167
 30
0.0
 10
-47.3042
 20
-3.0167
 30
0.0
 10
-47.3042
 20
-3.0167
 30
0.0
 10
-46.9853
 20
-3.0167
 30
0.0
 10
-46.7011
 20
-3.0812
 30
0.0
 10
-46.4523
 20
-3.2103
 30
0.0
 10
-46.4523
 20
-3.2103
 30
0.0
 10
-46.2029
 20
-3.3393
 30
0.0
 10
-46.0144
 20
-3.5198
 30
0.0
 10
-45.8869
 20
-3.7525
 30
0.0
 10
-45.8869
 20
-3.7525
 30
0.0
 10
-45.7599
 20
-3.986
 30
0.0
 10
-45.6962
 20
-4.2333
 30
0.0
 10
-45.6962
 20
-4.495
 30
0.0
 10
-45.6962
 20
-4.495
 30
0.0
 10
-45.6962
 20
-4.6908
 30
0.0
 10
-45.7237
 20
-4.8676
 30
0.0
 10
-45.7789
 20
-5.0263
 30
0.0
 10
-45.7789
 20
-5.0263
 30
0.0
 10
-45.8216
 20
-5.1483
 30
0.0
 10
-45.9028
 20
-5.2902
 30
0.0
 10
-46.0232
 20
-5.4535
 30
0.0
 10
-46.0232
 20
-5.4535
 30
0.0
 10
-46.0232
 20
-5.4535
 30
0.0
 10
-45.6236
 20
-5.8102
 30
0.0
 10
-45.6236
 20
-5.8102
 30
0.0
 10
-45.6236
 20
-5.8102
 30
0.0
 10
-45.6236
 20
-5.8102
 30
0.0
 10
-45.802
 20
-6.0204
 30
0.0
 10
-45.802
 20
-6.0204
 30
0.0
 10
-45.802
 20
-6.0204
 30
0.0
 10
-45.802
 20
-6.0204
 30
0.0
 10
-46.2203
 20
-5.6463
 30
0.0
 10
-46.2203
 20
-5.6463
 30
0.0
 10
-46.2203
 20
-5.6463
 30
0.0
 10
-46.4313
 20
-5.7855
 30
0.0
 10
-46.6118
 20
-5.8783
 30
0.0
 10
-46.7612
 20
-5.9247
 30
0.0
 10
-46.7612
 20
-5.9247
 30
0.0
 10
-46.9106
 20
-5.9711
 30
0.0
 10
-47.0904
 20
-5.9951
 30
0.0
 10
-47.2999
 20
-5.9951
 30
0.0
 10
-47.2999
 20
-5.9951
 30
0.0
 10
-47.6196
 20
-5.9951
 30
0.0
 10
-47.9046
 20
-5.9313
 30
0.0
 10
-48.1548
 20
-5.8037
 30
0.0
 10
-48.1548
 20
-5.8037
 30
0.0
 10
-48.4048
 20
-5.6761
 30
0.0
 10
-48.5941
 20
-5.4977
 30
0.0
 10
-48.7231
 20
-5.2671
 30
0.0
 10
-48.7231
 20
-5.2671
 30
0.0
 10
-48.8515
 20
-5.0373
 30
0.0
 10
-48.9159
 20
-4.7813
 30
0.0
 10
-48.9159
 20
-4.4993
 30
0.0
 10
-48.9159
 20
-4.4993
 30
0.0
 10
-48.9159
 20
-4.3094
 30
0.0
 10
-48.8913
 20
-4.1433
 30
0.0
 10
-48.8406
 20
-4.0012
 30
0.0
 10
-48.8406
 20
-4.0012
 30
0.0
 10
-48.7906
 20
-3.8592
 30
0.0
 10
-48.7028
 20
-3.7054
 30
0.0
 10
-48.5782
 20
-3.5415
 30
0.0
  0
SPLINE
  5
90
330
1F
100
AcDbEntity
  8
ROUND
 62
   250
100
AcDbSpline
210
0.0
220
0.0
230
1.0
 70
    11
 71
     3
 72
    32
 73
    28
 74
     0
 42
0.0000000001
 43
0.0000000001
 40
0.0
 40
0.0
 40
0.0
 40
0.0
 40
0.125
 40
0.125
 40
0.125
 40
0.125
 40
0.25
 40
0.25
 40
0.25
 40
0.25
 40
0.375
 40
0.375
 40
0.375
 40
0.375
 40
0.5
 40
0.5
 40
0.5
 40
0.5
 40
0.625
 40
0.625
 40
0.625
 40
0.625
 40
0.75
 40
0.75
 40
0.75
 40
0.75
 40
1.0
 40
1.0
 40
1.0
 40
1.0
 10
-48.2918
 20
-3.796
 30
0.0
 10
-48.3962
 20
-3.9295
 30
0.0
 10
-48.468
 20
-4.0462
 30
0.0
 10
-48.5064
 20
-4.1454
 30
0.0
 10
-48.5064
 20
-4.1454
 30
0.0
 10
-48.544
 20
-4.2456
 30
0.0
 10
-48.5636
 20
-4.3631
 30
0.0
 10
-48.5636
 20
-4.4972
 30
0.0
 10
-48.5636
 20
-4.4972
 30
0.0
 10
-48.5636
 20
-4.8075
 30
0.0
 10
-48.4585
 20
-5.0633
 30
0.0
 10
-48.2482
 20
-5.2663
 30
0.0
 10
-48.2482
 20
-5.2663
 30
0.0
 10
-48.038
 20
-5.4686
 30
0.0
 10
-47.7241
 20
-5.5702
 30
0.0
 10
-47.3058
 20
-5.5702
 30
0.0
 10
-47.3058
 20
-5.5702
 30
0.0
 10
-47.1419
 20
-5.5702
 30
0.0
 10
-46.9961
 20
-5.5543
 30
0.0
 10
-46.8685
 20
-5.523
 30
0.0
 10
-46.8685
 20
-5.523
 30
0.0
 10
-46.7735
 20
-5.5006
 30
0.0
 10
-46.6568
 20
-5.4535
 30
0.0
 10
-46.5184
 20
-5.3809
 30
0.0
 10
-46.5184
 20
-5.3809
 30
0.0
 10
-46.5184
 20
-5.3809
 30
0.0
 10
-48.2918
 20
-3.796
 30
0.0
 10
-48.2918
 20
-3.796
 30
0.0
  0
SPLINE
  5
91
330
1F
100
AcDbEntity
  8
ROUND
 62
   250
100
AcDbSpline
210
0.0
220
0.0
230
1.0
 70
    11
 71
     3
 72
    28
 73
    24
 74
     0
 42
0.0000000001
 43
0.0000000001
 40
0.0
 40
0.0
 40
0.0
 40
0.0
 40
0.1428571428571428
 40
0.1428571428571428
 40
0.1428571428571428
 40
0.1428571428571428
 40
0.2857142857142857
 40
0.2857142857142857
 40
0.2857142857142857
 40
0.2857142857142857
 40
0.4285714285714285
 40
0.4285714285714285
 40
0.4285714285714285
 40
0.4285714285714285
 40
0.5714285714285714
 40
0.5714285714285714
 40
0.5714285714285714
 40
0.5714285714285714
 40
0.7142857142857143
 40
0.7142857142857143
 40
0.7142857142857143
 40
0.7142857142857143
 40
1.0
 40
1.0
 40
1.0
 40
1.0
 10
-48.0728
 20
-3.622
 30
0.0
 10
-48.0728
 20
-3.622
 30
0.0
 10
-46.3059
 20
-5.2004
 30
0.0
 10
-46.3059
 20
-5.2004
 30
0.0
 10
-46.3059
 20
-5.2004
 30
0.0
 10
-46.2168
 20
-5.0917
 30
0.0
 10
-46.1543
 20
-4.9909
 30
0.0
 10
-46.1189
 20
-4.8989
 30
0.0
 10
-46.1189
 20
-4.8989
 30
0.0
 10
-46.0717
 20
-4.7785
 30
0.0
 10
-46.0485
 20
-4.6479
 30
0.0
 10
-46.0485
 20
-4.508
 30
0.0
 10
-46.0485
 20
-4.508
 30
0.0
 10
-46.0485
 20
-4.1991
 30
0.0
 10
-46.1573
 20
-3.9446
 30
0.0
 10
-46.3755
 20
-3.7431
 30
0.0
 10
-46.3755
 20
-3.7431
 30
0.0
 10
-46.5938
 20
-3.5423
 30
0.0
 10
-46.8998
 20
-3.4415
 30
0.0
 10
-47.2935
 20
-3.4415
 30
0.0
 10
-47.2935
 20
-3.4415
 30
0.0
 10
-47.5877
 20
-3.4415
 30
0.0
 10
-47.8481
 20
-3.5017
 30
0.0
 10
-48.0728
 20
-3.622
 30
0.0
  0
SPLINE
  5
92
330
1F
100
AcDbEntity
  8
ROUND
 62
   250
100
AcDbSpline
210
0.0
220
0.0
230
1.0
 70
    11
 71
     3
 72
    92
 73
    88
 74
     0
 42
0.0000000001
 43
0.0000000001
 40
0.0
 40
0.0
 40
0.0
 40
0.0
 40
0.0434782608695652
 40
0.0434782608695652
 40
0.0434782608695652
 40
0.0434782608695652
 40
0.0869565217391304
 40
0.0869565217391304
 40
0.0869565217391304
 40
0.0869565217391304
 40
0.1304347826086956
 40
0.1304347826086956
 40
0.1304347826086956
 40
0.1304347826086956
 40
0.1739130434782609
 40
0.1739130434782609
 40
0.1739130434782609
 40
0.1739130434782609
 40
0.2173913043478261
 40
0.2173913043478261
 40
0.2173913043478261
 40
0.2173913043478261
 40
0.2608695652173913
 40
0.2608695652173913
 40
0.2608695652173913
 40
0.2608695652173913
 40
0.3043478260869565
 40
0.3043478260869565
 40
0.3043478260869565
 40
0.3043478260869565
 40
0.3478260869565217
 40
0.3478260869565217
 40
0.3478260869565217
 40
0.3478260869565217
 40
0.391304347826087
 40
0.391304347826087
 40
0.391304347826087
 40
0.391304347826087
 40
0.4347826086956522
 40
0.4347826086956522
 40
0.4347826086956522
 40
0.4347826086956522
 40
0.4782608695652174
 40
0.4782608695652174
 40
0.4782608695652174
 40
0.4782608695652174
 40
0.5217391304347826
 40
0.5217391304347826
 40
0.5217391304347826
 40
0.5217391304347826
 40
0.5652173913043478
 40
0.5652173913043478
 40
0.5652173913043478
 40
0.5652173913043478
 40
0.6086956521739131
 40
0.6086956521739131
 40
0.6086956521739131
 40
0.6086956521739131
 40
0.6521739130434783
 40
0.6521739130434783
 40
0.6521739130434783
 40
0.6521739130434783
 40
0.6956521739130435
 40
0.6956521739130435
 40
0.6956521739130435
 40
0.6956521739130435
 40
0.7391304347826086
 40
0.7391304347826086
 40
0.7391304347826086
 40
0.7391304347826086
 40
0.782608695652174
 40
0.782608695652174
 40
0.782608695652174
 40
0.782608695652174
 40
0.8260869565217391
 40
0.8260869565217391
 40
0.8260869565217391
 40
0.8260869565217391
 40
0.8695652173913043
 40
0.8695652173913043
 40
0.8695652173913043
 40
0.8695652173913043
 40
0.9130434782608695
 40
0.9130434782608695
 40
0.9130434782608695
 40
0.9130434782608695
 40
1.0
 40
1.0
 40
1.0
 40
1.0
 10
-46.5648
 20
-2.6324
 30
0.0
 10
-46.5648
 20
-2.6324
 30
0.0
 10
-46.5989
 20
-2.2307
 30
0.0
 10
-46.5989
 20
-2.2307
 30
0.0
 10
-46.5989
 20
-2.2307
 30
0.0
 10
-46.4031
 20
-2.2009
 30
0.0
 10
-46.2565
 20
-2.132
 30
0.0
 10
-46.158
 20
-2.0241
 30
0.0
 10
-46.158
 20
-2.0241
 30
0.0
 10
-46.0594
 20
-1.9153
 30
0.0
 10
-46.0101
 20
-1.7848
 30
0.0
 10
-46.0101
 20
-1.6319
 30
0.0
 10
-46.0101
 20
-1.6319
 30
0.0
 10
-46.0101
 20
-1.4477
 30
0.0
 10
-46.0797
 20
-1.2918
 30
0.0
 10
-46.2182
 20
-1.165
 30
0.0
 10
-46.2182
 20
-1.165
 30
0.0
 10
-46.3574
 20
-1.0373
 30
0.0
 10
-46.5416
 20
-0.9735
 30
0.0
 10
-46.7706
 20
-0.9735
 30
0.0
 10
-46.7706
 20
-0.9735
 30
0.0
 10
-46.9889
 20
-0.9735
 30
0.0
 10
-47.1607
 20
-1.0344
 30
0.0
 10
-47.2868
 20
-1.1569
 30
0.0
 10
-47.2868
 20
-1.1569
 30
0.0
 10
-47.4131
 20
-1.2795
 30
0.0
 10
-47.4761
 20
-1.4396
 30
0.0
 10
-47.4761
 20
-1.6383
 30
0.0
 10
-47.4761
 20
-1.6383
 30
0.0
 10
-47.4761
 20
-1.7616
 30
0.0
 10
-47.4479
 20
-1.8726
 30
0.0
 10
-47.3919
 20
-1.9719
 30
0.0
 10
-47.3919
 20
-1.9719
 30
0.0
 10
-47.3362
 20
-2.0712
 30
0.0
 10
-47.2637
 20
-2.1488
 30
0.0
 10
-47.1745
 20
-2.2054
 30
0.0
 10
-47.1745
 20
-2.2054
 30
0.0
 10
-47.1745
 20
-2.2054
 30
0.0
 10
-47.2209
 20
-2.5643
 30
0.0
 10
-47.2209
 20
-2.5643
 30
0.0
 10
-47.2209
 20
-2.5643
 30
0.0
 10
-47.2209
 20
-2.5643
 30
0.0
 10
-48.8204
 20
-2.2626
 30
0.0
 10
-48.8204
 20
-2.2626
 30
0.0
 10
-48.8204
 20
-2.2626
 30
0.0
 10
-48.8204
 20
-2.2626
 30
0.0
 10
-48.8204
 20
-0.7139
 30
0.0
 10
-48.8204
 20
-0.7139
 30
0.0
 10
-48.8204
 20
-0.7139
 30
0.0
 10
-48.8204
 20
-0.7139
 30
0.0
 10
-48.4549
 20
-0.7139
 30
0.0
 10
-48.4549
 20
-0.7139
 30
0.0
 10
-48.4549
 20
-0.7139
 30
0.0
 10
-48.4549
 20
-0.7139
 30
0.0
 10
-48.4549
 20
-1.9566
 30
0.0
 10
-48.4549
 20
-1.9566
 30
0.0
 10
-48.4549
 20
-1.9566
 30
0.0
 10
-48.4549
 20
-1.9566
 30
0.0
 10
-47.6182
 20
-2.1248
 30
0.0
 10
-47.6182
 20
-2.1248
 30
0.0
 10
-47.6182
 20
-2.1248
 30
0.0
 10
-47.7488
 20
-1.9378
 30
0.0
 10
-47.814
 20
-1.7413
 30
0.0
 10
-47.814
 20
-1.5361
 30
0.0
 10
-47.814
 20
-1.5361
 30
0.0
 10
-47.814
 20
-1.2642
 30
0.0
 10
-47.7197
 20
-1.0352
 30
0.0
 10
-47.5311
 20
-0.848
 30
0.0
 10
-47.5311
 20
-0.848
 30
0.0
 10
-47.3428
 20
-0.6611
 30
0.0
 10
-47.1006
 20
-0.5675
 30
0.0
 10
-46.8047
 20
-0.5675
 30
0.0
 10
-46.8047
 20
-0.5675
 30
0.0
 10
-46.5227
 20
-0.5675
 30
0.0
 10
-46.279
 20
-0.6501
 30
0.0
 10
-46.0739
 20
-0.814
 30
0.0
 10
-46.0739
 20
-0.814
 30
0.0
 10
-45.8223
 20
-1.0142
 30
0.0
 10
-45.6962
 20
-1.2867
 30
0.0
 10
-45.6962
 20
-1.6319
 30
0.0
 10
-45.6962
 20
-1.6319
 30
0.0
 10
-45.6962
 20
-1.9153
 30
0.0
 10
-45.7752
 20
-2.1467
 30
0.0
 10
-45.9339
 20
-2.3256
 30
0.0
 10
-45.9339
 20
-2.3256
 30
0.0
 10
-46.0928
 20
-2.5048
 30
0.0
 10
-46.3029
 20
-2.6069
 30
0.0
 10
-46.5648
 20
-2.6324
 30
0.0
  0
SPLINE
  5
93
330
1F
100
AcDbEntity
  8
ROUND
 62
   250
100
AcDbSpline
210
0.0
220
0.0
230
1.0
 70
    11
 71
     3
 72
    48
 73
    44
 74
     0
 42
0.0000000001
 43
0.0000000001
 40
0.0
 40
0.0
 40
0.0
 40
0.0
 40
0.0833333333333333
 40
0.0833333333333333
 40
0.0833333333333333
 40
0.0833333333333333
 40
0.1666666666666667
 40
0.1666666666666667
 40
0.1666666666666667
 40
0.1666666666666667
 40
0.25
 40
0.25
 40
0.25
 40
0.25
 40
0.3333333333333333
 40
0.3333333333333333
 40
0.3333333333333333
 40
0.3333333333333333
 40
0.4166666666666667
 40
0.4166666666666667
 40
0.4166666666666667
 40
0.4166666666666667
 40
0.5
 40
0.5
 40
0.5
 40
0.5
 40
0.5833333333333334
 40
0.5833333333333334
 40
0.5833333333333334
 40
0.5833333333333334
 40
0.6666666666666666
 40
0.6666666666666666
 40
0.6666666666666666
 40
0.6666666666666666
 40
0.75
 40
0.75
 40
0.75
 40
0.75
 40
0.8333333333333334
 40
0.8333333333333334
 40
0.8333333333333334
 40
0.8333333333333334
 40
1.0
 40
1.0
 40
1.0
 40
1.0
 10
-45.7491
 20
1.0123
 30
0.0
 10
-45.7491
 20
1.0123
 30
0.0
 10
-46.4944
 20
1.0123
 30
0.0
 10
-46.4944
 20
1.0123
 30
0.0
 10
-46.4944
 20
1.0123
 30
0.0
 10
-46.4944
 20
1.0123
 30
0.0
 10
-46.4944
 20
-0.3385
 30
0.0
 10
-46.4944
 20
-0.3385
 30
0.0
 10
-46.4944
 20
-0.3385
 30
0.0
 10
-46.4944
 20
-0.3385
 30
0.0
 10
-46.8454
 20
-0.3385
 30
0.0
 10
-46.8454
 20
-0.3385
 30
0.0
 10
-46.8454
 20
-0.3385
 30
0.0
 10
-46.8454
 20
-0.3385
 30
0.0
 10
-48.8631
 20
1.0826
 30
0.0
 10
-48.8631
 20
1.0826
 30
0.0
 10
-48.8631
 20
1.0826
 30
0.0
 10
-48.8631
 20
1.0826
 30
0.0
 10
-48.8631
 20
1.3952
 30
0.0
 10
-48.8631
 20
1.3952
 30
0.0
 10
-48.8631
 20
1.3952
 30
0.0
 10
-48.8631
 20
1.3952
 30
0.0
 10
-46.8454
 20
1.3952
 30
0.0
 10
-46.8454
 20
1.3952
 30
0.0
 10
-46.8454
 20
1.3952
 30
0.0
 10
-46.8454
 20
1.3952
 30
0.0
 10
-46.8454
 20
1.8157
 30
0.0
 10
-46.8454
 20
1.8157
 30
0.0
 10
-46.8454
 20
1.8157
 30
0.0
 10
-46.8454
 20
1.8157
 30
0.0
 10
-46.4944
 20
1.8157
 30
0.0
 10
-46.4944
 20
1.8157
 30
0.0
 10
-46.4944
 20
1.8157
 30
0.0
 10
-46.4944
 20
1.8157
 30
0.0
 10
-46.4944
 20
1.3952
 30
0.0
 10
-46.4944
 20
1.3952
 30
0.0
 10
-46.4944
 20
1.3952
 30
0.0
 10
-46.4944
 20
1.3952
 30
0.0
 10
-45.7491
 20
1.3952
 30
0.0
 10
-45.7491
 20
1.3952
 30
0.0
 10
-45.7491
 20
1.3952
 30
0.0
 10
-45.7491
 20
1.3952
 30
0.0
 10
-45.7491
 20
1.0123
 30
0.0
 10
-45.7491
 20
1.0123
 30
0.0
  0
SPLINE
  5
94
330
1F
100
AcDbEntity
  8
ROUND
 62
   250
100
AcDbSpline
210
0.0
220
0.0
230
1.0
 70
    11
 71
     3
 72
    16
 73
    12
 74
     0
 42
0.0000000001
 43
0.0000000001
 40
0.0
 40
0.0
 40
0.0
 40
0.0
 40
0.25
 40
0.25
 40
0.25
 40
0.25
 40
0.5
 40
0.5
 40
0.5
 40
0.5
 40
1.0
 40
1.0
 40
1.0
 40
1.0
 10
-46.8454
 20
1.0123
 30
0.0
 10
-46.8454
 20
1.0123
 30
0.0
 10
-48.249
 20
1.0123
 30
0.0
 10
-48.249
 20
1.0123
 30
0.0
 10
-48.249
 20
1.0123
 30
0.0
 10
-48.249
 20
1.0123
 30
0.0
 10
-46.8454
 20
0.0378
 30
0.0
 10
-46.8454
 20
0.0378
 30
0.0
 10
-46.8454
 20
0.0378
 30
0.0
 10
-46.8454
 20
0.0378
 30
0.0
 10
-46.8454
 20
1.0123
 30
0.0
 10
-46.8454
 20
1.0123
 30
0.0
  0
SPLINE
  5
95
330
1F
100
AcDbEntity
  8
ROUND
 62
   250
100
AcDbSpline
210
0.0
220
0.0
230
1.0
 70
    24
 71
     3
 72
     8
 73
     4
 74
     0
 42
0.0000000001
 43
0.0000000001
 40
0.0
 40
0.0
 40
0.0
 40
0.0
 40
1.0
 40
1.0
 40
1.0
 40
1.0
 10
-44.7913
 20
5.9664
 30
0.0
 10
-44.7913
 20
5.9664
 30
0.0
 10
-41.3381
 20
5.9664
 30
0.0
 10
-41.3381
 20
5.9664
 30
0.0
  0
SPLINE
  5
96
330
1F
100
AcDbEntity
  8
ROUND
 62
   250
100
AcDbSpline
210
0.0
220
0.0
230
1.0
 70
    24
 71
     3
 72
     8
 73
     4
 74
     0
 42
0.0000000001
 43
0.0000000001
 40
0.0
 40
0.0
 40
0.0
 40
0.0
 40
1.0
 40
1.0
 40
1.0
 40
1.0
 10
-44.7498
 20
-10.8879
 30
0.0
 10
-44.7498
 20
-10.8879
 30
0.0
 10
-41.3381
 20
-10.8879
 30
0.0
 10
-41.3381
 20
-10.8879
 30
0.0
  0
SPLINE
  5
97
330
1F
100
AcDbEntity
  8
ROUND
 62
   250
100
AcDbSpline
210
0.0
220
0.0
230
1.0
 70
    24
 71
     3
 72
     8
 73
     4
 74
     0
 42
0.0000000001
 43
0.0000000001
 40
0.0
 40
0.0
 40
0.0
 40
0.0
 40
1.0
 40
1.0
 40
1.0
 40
1.0
 10
48.1092
 20
-11.5592
 30
0.0
 10
48.1092
 20
-11.5592
 30
0.0
 10
48.1092
 20
6.3755
 30
0.0
 10
48.1092
 20
6.3755
 30
0.0
  0
SPLINE
  5
98
330
1F
100
AcDbEntity
  8
ROUND
 62
   250
100
AcDbSpline
210
0.0
220
0.0
230
1.0
 70
    11
 71
     3
 72
    20
 73
    16
 74
     0
 42
0.0000000001
 43
0.0000000001
 40
0.0
 40
0.0
 40
0.0
 40
0.0
 40
0.2
 40
0.2
 40
0.2
 40
0.2
 40
0.4
 40
0.4
 40
0.4
 40
0.4
 40
0.6
 40
0.6
 40
0.6
 40
0.6
 40
1.0
 40
1.0
 40
1.0
 40
1.0
 10
48.8793
 20
-7.2731
 30
0.0
 10
48.8793
 20
-7.2731
 30
0.0
 10
48.2269
 20
-11.8963
 30
0.0
 10
48.2269
 20
-11.8963
 30
0.0
 10
48.2269
 20
-11.8963
 30
0.0
 10
48.2269
 20
-11.8963
 30
0.0
 10
48.082
 20
-11.8963
 30
0.0
 10
48.082
 20
-11.8963
 30
0.0
 10
48.082
 20
-11.8963
 30
0.0
 10
48.082
 20
-11.8963
 30
0.0
 10
47.3862
 20
-7.2731
 30
0.0
 10
47.3862
 20
-7.2731
 30
0.0
 10
47.3862
 20
-7.2731
 30
0.0
 10
47.3862
 20
-7.2731
 30
0.0
 10
48.8793
 20
-7.2731
 30
0.0
 10
48.8793
 20
-7.2731
 30
0.0
  0
SPLINE
  5
99
330
1F
100
AcDbEntity
  8
ROUND
 62
   250
100
AcDbSpline
210
0.0
220
0.0
230
1.0
 70
    11
 71
     3
 72
    20
 73
    16
 74
     0
 42
0.0000000001
 43
0.0000000001
 40
0.0
 40
0.0
 40
0.0
 40
0.0
 40
0.2
 40
0.2
 40
0.2
 40
0.2
 40
0.4
 40
0.4
 40
0.4
 40
0.4
 40
0.6
 40
0.6
 40
0.6
 40
0.6
 40
1.0
 40
1.0
 40
1.0
 40
1.0
 10
47.439
 20
2.012
 30
0.0
 10
47.439
 20
2.012
 30
0.0
 10
48.0916
 20
6.6366
 30
0.0
 10
48.0916
 20
6.6366
 30
0.0
 10
48.0916
 20
6.6366
 30
0.0
 10
48.0916
 20
6.6366
 30
0.0
 10
48.2366
 20
6.6366
 30
0.0
 10
48.2366
 20
6.6366
 30
0.0
 10
48.2366
 20
6.6366
 30
0.0
 10
48.2366
 20
6.6366
 30
0.0
 10
48.9326
 20
2.012
 30
0.0
 10
48.9326
 20
2.012
 30
0.0
 10
48.9326
 20
2.012
 30
0.0
 10
48.9326
 20
2.012
 30
0.0
 10
47.439
 20
2.012
 30
0.0
 10
47.439
 20
2.012
 30
0.0
  0
SPLINE
  5
9A
330
1F
100
AcDbEntity
  8
ROUND
 62
   250
100
AcDbSpline
210
0.0
220
0.0
230
1.0
 70
    11
 71
     3
 72
    84
 73
    80
 74
     0
 42
0.0000000001
 43
0.0000000001
 40
0.0
 40
0.0
 40
0.0
 40
0.0
 40
0.0476190476190476
 40
0.0476190476190476
 40
0.0476190476190476
 40
0.0476190476190476
 40
0.0952380952380952
 40
0.0952380952380952
 40
0.0952380952380952
 40
0.0952380952380952
 40
0.1428571428571428
 40
0.1428571428571428
 40
0.1428571428571428
 40
0.1428571428571428
 40
0.1904761904761905
 40
0.1904761904761905
 40
0.1904761904761905
 40
0.1904761904761905
 40
0.2380952380952381
 40
0.2380952380952381
 40
0.2380952380952381
 40
0.2380952380952381
 40
0.2857142857142857
 40
0.2857142857142857
 40
0.2857142857142857
 40
0.2857142857142857
 40
0.3333333333333333
 40
0.3333333333333333
 40
0.3333333333333333
 40
0.3333333333333333
 40
0.3809523809523809
 40
0.3809523809523809
 40
0.3809523809523809
 40
0.3809523809523809
 40
0.4285714285714285
 40
0.4285714285714285
 40
0.4285714285714285
 40
0.4285714285714285
 40
0.4761904761904762
 40
0.4761904761904762
 40
0.4761904761904762
 40
0.4761904761904762
 40
0.5238095238095238
 40
0.5238095238095238
 40
0.5238095238095238
 40
0.5238095238095238
 40
0.5714285714285714
 40
0.5714285714285714
 40
0.5714285714285714
 40
0.5714285714285714
 40
0.6190476190476191
 40
0.6190476190476191
 40
0.6190476190476191
 40
0.6190476190476191
 40
0.6666666666666666
 40
0.6666666666666666
 40
0.6666666666666666
 40
0.6666666666666666
 40
0.7142857142857143
 40
0.7142857142857143
 40
0.7142857142857143
 40
0.7142857142857143
 40
0.7619047619047619
 40
0.7619047619047619
 40
0.7619047619047619
 40
0.7619047619047619
 40
0.8095238095238095
 40
0.8095238095238095
 40
0.8095238095238095
 40
0.8095238095238095
 40
0.8571428571428571
 40
0.8571428571428571
 40
0.8571428571428571
 40
0.8571428571428571
 40
0.9047619047619048
 40
0.9047619047619048
 40
0.9047619047619048
 40
0.9047619047619048
 40
1.0
 40
1.0
 40
1.0
 40
1.0
 10
44.1143
 20
-3.7781
 30
0.0
 10
44.1143
 20
-3.7781
 30
0.0
 10
43.7149
 20
-3.4214
 30
0.0
 10
43.7149
 20
-3.4214
 30
0.0
 10
43.7149
 20
-3.4214
 30
0.0
 10
43.7149
 20
-3.4214
 30
0.0
 10
43.8933
 20
-3.2112
 30
0.0
 10
43.8933
 20
-3.2112
 30
0.0
 10
43.8933
 20
-3.2112
 30
0.0
 10
43.8933
 20
-3.2112
 30
0.0
 10
44.3137
 20
-3.5847
 30
0.0
 10
44.3137
 20
-3.5847
 30
0.0
 10
44.3137
 20
-3.5847
 30
0.0
 10
44.495
 20
-3.4627
 30
0.0
 10
44.6538
 20
-3.3809
 30
0.0
 10
44.7893
 20
-3.338
 30
0.0
 10
44.7893
 20
-3.338
 30
0.0
 10
44.9678
 20
-3.2815
 30
0.0
 10
45.1678
 20
-3.2533
 30
0.0
 10
45.3883
 20
-3.2533
 30
0.0
 10
45.3883
 20
-3.2533
 30
0.0
 10
45.7072
 20
-3.2533
 30
0.0
 10
45.9914
 20
-3.3178
 30
0.0
 10
46.2402
 20
-3.4469
 30
0.0
 10
46.2402
 20
-3.4469
 30
0.0
 10
46.4896
 20
-3.5759
 30
0.0
 10
46.6781
 20
-3.7564
 30
0.0
 10
46.8056
 20
-3.9891
 30
0.0
 10
46.8056
 20
-3.9891
 30
0.0
 10
46.9326
 20
-4.2227
 30
0.0
 10
46.9963
 20
-4.4699
 30
0.0
 10
46.9963
 20
-4.7316
 30
0.0
 10
46.9963
 20
-4.7316
 30
0.0
 10
46.9963
 20
-4.9274
 30
0.0
 10
46.9688
 20
-5.1042
 30
0.0
 10
46.9136
 20
-5.263
 30
0.0
 10
46.9136
 20
-5.263
 30
0.0
 10
46.871
 20
-5.3849
 30
0.0
 10
46.7897
 20
-5.5268
 30
0.0
 10
46.6693
 20
-5.6901
 30
0.0
 10
46.6693
 20
-5.6901
 30
0.0
 10
46.6693
 20
-5.6901
 30
0.0
 10
47.0689
 20
-6.0468
 30
0.0
 10
47.0689
 20
-6.0468
 30
0.0
 10
47.0689
 20
-6.0468
 30
0.0
 10
47.0689
 20
-6.0468
 30
0.0
 10
46.8905
 20
-6.257
 30
0.0
 10
46.8905
 20
-6.257
 30
0.0
 10
46.8905
 20
-6.257
 30
0.0
 10
46.8905
 20
-6.257
 30
0.0
 10
46.4722
 20
-5.8829
 30
0.0
 10
46.4722
 20
-5.8829
 30
0.0
 10
46.4722
 20
-5.8829
 30
0.0
 10
46.2612
 20
-6.0221
 30
0.0
 10
46.0807
 20
-6.1149
 30
0.0
 10
45.9313
 20
-6.1613
 30
0.0
 10
45.9313
 20
-6.1613
 30
0.0
 10
45.7819
 20
-6.2077
 30
0.0
 10
45.6021
 20
-6.2317
 30
0.0
 10
45.3926
 20
-6.2317
 30
0.0
 10
45.3926
 20
-6.2317
 30
0.0
 10
45.0729
 20
-6.2317
 30
0.0
 10
44.7879
 20
-6.1679
 30
0.0
 10
44.5377
 20
-6.0403
 30
0.0
 10
44.5377
 20
-6.0403
 30
0.0
 10
44.2877
 20
-5.9127
 30
0.0
 10
44.0984
 20
-5.7343
 30
0.0
 10
43.9694
 20
-5.5037
 30
0.0
 10
43.9694
 20
-5.5037
 30
0.0
 10
43.841
 20
-5.2739
 30
0.0
 10
43.7766
 20
-5.0179
 30
0.0
 10
43.7766
 20
-4.7359
 30
0.0
 10
43.7766
 20
-4.7359
 30
0.0
 10
43.7766
 20
-4.546
 30
0.0
 10
43.8012
 20
-4.3799
 30
0.0
 10
43.8519
 20
-4.2378
 30
0.0
 10
43.8519
 20
-4.2378
 30
0.0
 10
43.9019
 20
-4.0958
 30
0.0
 10
43.9897
 20
-3.942
 30
0.0
 10
44.1143
 20
-3.7781
 30
0.0
  0
SPLINE
  5
9B
330
1F
100
AcDbEntity
  8
ROUND
 62
   250
100
AcDbSpline
210
0.0
220
0.0
230
1.0
 70
    11
 71
     3
 72
    32
 73
    28
 74
     0
 42
0.0000000001
 43
0.0000000001
 40
0.0
 40
0.0
 40
0.0
 40
0.0
 40
0.125
 40
0.125
 40
0.125
 40
0.125
 40
0.25
 40
0.25
 40
0.25
 40
0.25
 40
0.375
 40
0.375
 40
0.375
 40
0.375
 40
0.5
 40
0.5
 40
0.5
 40
0.5
 40
0.625
 40
0.625
 40
0.625
 40
0.625
 40
0.75
 40
0.75
 40
0.75
 40
0.75
 40
1.0
 40
1.0
 40
1.0
 40
1.0
 10
44.4007
 20
-4.0326
 30
0.0
 10
44.2963
 20
-4.1661
 30
0.0
 10
44.2245
 20
-4.2828
 30
0.0
 10
44.1861
 20
-4.382
 30
0.0
 10
44.1861
 20
-4.382
 30
0.0
 10
44.1485
 20
-4.4822
 30
0.0
 10
44.1289
 20
-4.5997
 30
0.0
 10
44.1289
 20
-4.7338
 30
0.0
 10
44.1289
 20
-4.7338
 30
0.0
 10
44.1289
 20
-5.0441
 30
0.0
 10
44.2341
 20
-5.2999
 30
0.0
 10
44.4443
 20
-5.503
 30
0.0
 10
44.4443
 20
-5.503
 30
0.0
 10
44.6546
 20
-5.7052
 30
0.0
 10
44.9684
 20
-5.8068
 30
0.0
 10
45.3867
 20
-5.8068
 30
0.0
 10
45.3867
 20
-5.8068
 30
0.0
 10
45.5506
 20
-5.8068
 30
0.0
 10
45.6964
 20
-5.7909
 30
0.0
 10
45.824
 20
-5.7596
 30
0.0
 10
45.824
 20
-5.7596
 30
0.0
 10
45.919
 20
-5.7372
 30
0.0
 10
46.0357
 20
-5.6901
 30
0.0
 10
46.1741
 20
-5.6175
 30
0.0
 10
46.1741
 20
-5.6175
 30
0.0
 10
46.1741
 20
-5.6175
 30
0.0
 10
44.4007
 20
-4.0326
 30
0.0
 10
44.4007
 20
-4.0326
 30
0.0
  0
SPLINE
  5
9C
330
1F
100
AcDbEntity
  8
ROUND
 62
   250
100
AcDbSpline
210
0.0
220
0.0
230
1.0
 70
    11
 71
     3
 72
    28
 73
    24
 74
     0
 42
0.0000000001
 43
0.0000000001
 40
0.0
 40
0.0
 40
0.0
 40
0.0
 40
0.1428571428571428
 40
0.1428571428571428
 40
0.1428571428571428
 40
0.1428571428571428
 40
0.2857142857142857
 40
0.2857142857142857
 40
0.2857142857142857
 40
0.2857142857142857
 40
0.4285714285714285
 40
0.4285714285714285
 40
0.4285714285714285
 40
0.4285714285714285
 40
0.5714285714285714
 40
0.5714285714285714
 40
0.5714285714285714
 40
0.5714285714285714
 40
0.7142857142857143
 40
0.7142857142857143
 40
0.7142857142857143
 40
0.7142857142857143
 40
1.0
 40
1.0
 40
1.0
 40
1.0
 10
44.6197
 20
-3.8586
 30
0.0
 10
44.6197
 20
-3.8586
 30
0.0
 10
46.3866
 20
-5.437
 30
0.0
 10
46.3866
 20
-5.437
 30
0.0
 10
46.3866
 20
-5.437
 30
0.0
 10
46.4757
 20
-5.3283
 30
0.0
 10
46.5382
 20
-5.2275
 30
0.0
 10
46.5736
 20
-5.1355
 30
0.0
 10
46.5736
 20
-5.1355
 30
0.0
 10
46.6208
 20
-5.0151
 30
0.0
 10
46.6441
 20
-4.8845
 30
0.0
 10
46.6441
 20
-4.7446
 30
0.0
 10
46.6441
 20
-4.7446
 30
0.0
 10
46.6441
 20
-4.4357
 30
0.0
 10
46.5352
 20
-4.1812
 30
0.0
 10
46.317
 20
-3.9797
 30
0.0
 10
46.317
 20
-3.9797
 30
0.0
 10
46.0987
 20
-3.7789
 30
0.0
 10
45.7927
 20
-3.6781
 30
0.0
 10
45.3991
 20
-3.6781
 30
0.0
 10
45.3991
 20
-3.6781
 30
0.0
 10
45.1048
 20
-3.6781
 30
0.0
 10
44.8445
 20
-3.7383
 30
0.0
 10
44.6197
 20
-3.8586
 30
0.0
  0
SPLINE
  5
9D
330
1F
100
AcDbEntity
  8
ROUND
 62
   250
100
AcDbSpline
210
0.0
220
0.0
230
1.0
 70
    11
 71
     3
 72
    92
 73
    88
 74
     0
 42
0.0000000001
 43
0.0000000001
 40
0.0
 40
0.0
 40
0.0
 40
0.0
 40
0.0434782608695652
 40
0.0434782608695652
 40
0.0434782608695652
 40
0.0434782608695652
 40
0.0869565217391304
 40
0.0869565217391304
 40
0.0869565217391304
 40
0.0869565217391304
 40
0.1304347826086956
 40
0.1304347826086956
 40
0.1304347826086956
 40
0.1304347826086956
 40
0.1739130434782609
 40
0.1739130434782609
 40
0.1739130434782609
 40
0.1739130434782609
 40
0.2173913043478261
 40
0.2173913043478261
 40
0.2173913043478261
 40
0.2173913043478261
 40
0.2608695652173913
 40
0.2608695652173913
 40
0.2608695652173913
 40
0.2608695652173913
 40
0.3043478260869565
 40
0.3043478260869565
 40
0.3043478260869565
 40
0.3043478260869565
 40
0.3478260869565217
 40
0.3478260869565217
 40
0.3478260869565217
 40
0.3478260869565217
 40
0.391304347826087
 40
0.391304347826087
 40
0.391304347826087
 40
0.391304347826087
 40
0.4347826086956522
 40
0.4347826086956522
 40
0.4347826086956522
 40
0.4347826086956522
 40
0.4782608695652174
 40
0.4782608695652174
 40
0.4782608695652174
 40
0.4782608695652174
 40
0.5217391304347826
 40
0.5217391304347826
 40
0.5217391304347826
 40
0.5217391304347826
 40
0.5652173913043478
 40
0.5652173913043478
 40
0.5652173913043478
 40
0.5652173913043478
 40
0.6086956521739131
 40
0.6086956521739131
 40
0.6086956521739131
 40
0.6086956521739131
 40
0.6521739130434783
 40
0.6521739130434783
 40
0.6521739130434783
 40
0.6521739130434783
 40
0.6956521739130435
 40
0.6956521739130435
 40
0.6956521739130435
 40
0.6956521739130435
 40
0.7391304347826086
 40
0.7391304347826086
 40
0.7391304347826086
 40
0.7391304347826086
 40
0.782608695652174
 40
0.782608695652174
 40
0.782608695652174
 40
0.782608695652174
 40
0.8260869565217391
 40
0.8260869565217391
 40
0.8260869565217391
 40
0.8260869565217391
 40
0.8695652173913043
 40
0.8695652173913043
 40
0.8695652173913043
 40
0.8695652173913043
 40
0.9130434782608695
 40
0.9130434782608695
 40
0.9130434782608695
 40
0.9130434782608695
 40
1.0
 40
1.0
 40
1.0
 40
1.0
 10
46.1277
 20
-2.869
 30
0.0
 10
46.1277
 20
-2.869
 30
0.0
 10
46.0936
 20
-2.4673
 30
0.0
 10
46.0936
 20
-2.4673
 30
0.0
 10
46.0936
 20
-2.4673
 30
0.0
 10
46.2894
 20
-2.4375
 30
0.0
 10
46.436
 20
-2.3686
 30
0.0
 10
46.5345
 20
-2.2607
 30
0.0
 10
46.5345
 20
-2.2607
 30
0.0
 10
46.6331
 20
-2.1519
 30
0.0
 10
46.6824
 20
-2.0214
 30
0.0
 10
46.6824
 20
-1.8685
 30
0.0
 10
46.6824
 20
-1.8685
 30
0.0
 10
46.6824
 20
-1.6843
 30
0.0
 10
46.6128
 20
-1.5284
 30
0.0
 10
46.4743
 20
-1.4016
 30
0.0
 10
46.4743
 20
-1.4016
 30
0.0
 10
46.3352
 20
-1.2739
 30
0.0
 10
46.151
 20
-1.2101
 30
0.0
 10
45.9219
 20
-1.2101
 30
0.0
 10
45.9219
 20
-1.2101
 30
0.0
 10
45.7036
 20
-1.2101
 30
0.0
 10
45.5318
 20
-1.271
 30
0.0
 10
45.4057
 20
-1.3935
 30
0.0
 10
45.4057
 20
-1.3935
 30
0.0
 10
45.2794
 20
-1.5161
 30
0.0
 10
45.2164
 20
-1.6762
 30
0.0
 10
45.2164
 20
-1.8749
 30
0.0
 10
45.2164
 20
-1.8749
 30
0.0
 10
45.2164
 20
-1.9982
 30
0.0
 10
45.2446
 20
-2.1092
 30
0.0
 10
45.3006
 20
-2.2085
 30
0.0
 10
45.3006
 20
-2.2085
 30
0.0
 10
45.3564
 20
-2.3078
 30
0.0
 10
45.4288
 20
-2.3854
 30
0.0
 10
45.5181
 20
-2.442
 30
0.0
 10
45.5181
 20
-2.442
 30
0.0
 10
45.5181
 20
-2.442
 30
0.0
 10
45.4717
 20
-2.8009
 30
0.0
 10
45.4717
 20
-2.8009
 30
0.0
 10
45.4717
 20
-2.8009
 30
0.0
 10
45.4717
 20
-2.8009
 30
0.0
 10
43.8721
 20
-2.4992
 30
0.0
 10
43.8721
 20
-2.4992
 30
0.0
 10
43.8721
 20
-2.4992
 30
0.0
 10
43.8721
 20
-2.4992
 30
0.0
 10
43.8721
 20
-0.9505
 30
0.0
 10
43.8721
 20
-0.9505
 30
0.0
 10
43.8721
 20
-0.9505
 30
0.0
 10
43.8721
 20
-0.9505
 30
0.0
 10
44.2376
 20
-0.9505
 30
0.0
 10
44.2376
 20
-0.9505
 30
0.0
 10
44.2376
 20
-0.9505
 30
0.0
 10
44.2376
 20
-0.9505
 30
0.0
 10
44.2376
 20
-2.1932
 30
0.0
 10
44.2376
 20
-2.1932
 30
0.0
 10
44.2376
 20
-2.1932
 30
0.0
 10
44.2376
 20
-2.1932
 30
0.0
 10
45.0743
 20
-2.3614
 30
0.0
 10
45.0743
 20
-2.3614
 30
0.0
 10
45.0743
 20
-2.3614
 30
0.0
 10
44.9437
 20
-2.1744
 30
0.0
 10
44.8785
 20
-1.9779
 30
0.0
 10
44.8785
 20
-1.7727
 30
0.0
 10
44.8785
 20
-1.7727
 30
0.0
 10
44.8785
 20
-1.5008
 30
0.0
 10
44.9729
 20
-1.2718
 30
0.0
 10
45.1614
 20
-1.0846
 30
0.0
 10
45.1614
 20
-1.0846
 30
0.0
 10
45.3497
 20
-0.8977
 30
0.0
 10
45.5919
 20
-0.8041
 30
0.0
 10
45.8878
 20
-0.8041
 30
0.0
 10
45.8878
 20
-0.8041
 30
0.0
 10
46.1698
 20
-0.8041
 30
0.0
 10
46.4135
 20
-0.8867
 30
0.0
 10
46.6186
 20
-1.0506
 30
0.0
 10
46.6186
 20
-1.0506
 30
0.0
 10
46.8702
 20
-1.2508
 30
0.0
 10
46.9963
 20
-1.5233
 30
0.0
 10
46.9963
 20
-1.8685
 30
0.0
 10
46.9963
 20
-1.8685
 30
0.0
 10
46.9963
 20
-2.1519
 30
0.0
 10
46.9173
 20
-2.3833
 30
0.0
 10
46.7586
 20
-2.5622
 30
0.0
 10
46.7586
 20
-2.5622
 30
0.0
 10
46.5997
 20
-2.7414
 30
0.0
 10
46.3896
 20
-2.8436
 30
0.0
 10
46.1277
 20
-2.869
 30
0.0
  0
SPLINE
  5
9E
330
1F
100
AcDbEntity
  8
ROUND
 62
   250
100
AcDbSpline
210
0.0
220
0.0
230
1.0
 70
    11
 71
     3
 72
    68
 73
    64
 74
     0
 42
0.0000000001
 43
0.0000000001
 40
0.0
 40
0.0
 40
0.0
 40
0.0
 40
0.0588235294117647
 40
0.0588235294117647
 40
0.0588235294117647
 40
0.0588235294117647
 40
0.1176470588235294
 40
0.1176470588235294
 40
0.1176470588235294
 40
0.1176470588235294
 40
0.1764705882352941
 40
0.1764705882352941
 40
0.1764705882352941
 40
0.1764705882352941
 40
0.2352941176470588
 40
0.2352941176470588
 40
0.2352941176470588
 40
0.2352941176470588
 40
0.2941176470588235
 40
0.2941176470588235
 40
0.2941176470588235
 40
0.2941176470588235
 40
0.3529411764705883
 40
0.3529411764705883
 40
0.3529411764705883
 40
0.3529411764705883
 40
0.4117647058823529
 40
0.4117647058823529
 40
0.4117647058823529
 40
0.4117647058823529
 40
0.4705882352941176
 40
0.4705882352941176
 40
0.4705882352941176
 40
0.4705882352941176
 40
0.5294117647058824
 40
0.5294117647058824
 40
0.5294117647058824
 40
0.5294117647058824
 40
0.5882352941176471
 40
0.5882352941176471
 40
0.5882352941176471
 40
0.5882352941176471
 40
0.6470588235294118
 40
0.6470588235294118
 40
0.6470588235294118
 40
0.6470588235294118
 40
0.7058823529411765
 40
0.7058823529411765
 40
0.7058823529411765
 40
0.7058823529411765
 40
0.7647058823529411
 40
0.7647058823529411
 40
0.7647058823529411
 40
0.7647058823529411
 40
0.8235294117647058
 40
0.8235294117647058
 40
0.8235294117647058
 40
0.8235294117647058
 40
0.8823529411764706
 40
0.8823529411764706
 40
0.8823529411764706
 40
0.8823529411764706
 40
1.0
 40
1.0
 40
1.0
 40
1.0
 10
45.2548
 20
0.1391
 30
0.0
 10
45.1968
 20
-0.0197
 30
0.0
 10
45.1142
 20
-0.1371
 30
0.0
 10
45.0062
 20
-0.2139
 30
0.0
 10
45.0062
 20
-0.2139
 30
0.0
 10
44.8989
 20
-0.2901
 30
0.0
 10
44.7699
 20
-0.3284
 30
0.0
 10
44.6197
 20
-0.3284
 30
0.0
 10
44.6197
 20
-0.3284
 30
0.0
 10
44.3928
 20
-0.3284
 30
0.0
 10
44.2028
 20
-0.2474
 30
0.0
 10
44.0483
 20
-0.0841
 30
0.0
 10
44.0483
 20
-0.0841
 30
0.0
 10
43.894
 20
0.079
 30
0.0
 10
43.8163
 20
0.2951
 30
0.0
 10
43.8163
 20
0.5654
 30
0.0
 10
43.8163
 20
0.5654
 30
0.0
 10
43.8163
 20
0.8373
 30
0.0
 10
43.8954
 20
1.0562
 30
0.0
 10
44.0534
 20
1.2224
 30
0.0
 10
44.0534
 20
1.2224
 30
0.0
 10
44.2116
 20
1.3876
 30
0.0
 10
44.4036
 20
1.4702
 30
0.0
 10
44.6307
 20
1.4702
 30
0.0
 10
44.6307
 20
1.4702
 30
0.0
 10
44.7749
 20
1.4702
 30
0.0
 10
44.9003
 20
1.4326
 30
0.0
 10
45.0075
 20
1.3571
 30
0.0
 10
45.0075
 20
1.3571
 30
0.0
 10
45.1142
 20
1.2811
 30
0.0
 10
45.1968
 20
1.1664
 30
0.0
 10
45.2548
 20
1.012
 30
0.0
 10
45.2548
 20
1.012
 30
0.0
 10
45.3172
 20
1.2027
 30
0.0
 10
45.4172
 20
1.3485
 30
0.0
 10
45.5564
 20
1.4485
 30
0.0
 10
45.5564
 20
1.4485
 30
0.0
 10
45.6949
 20
1.5478
 30
0.0
 10
45.861
 20
1.5979
 30
0.0
 10
46.0531
 20
1.5979
 30
0.0
 10
46.0531
 20
1.5979
 30
0.0
 10
46.3199
 20
1.5979
 30
0.0
 10
46.5432
 20
1.5035
 30
0.0
 10
46.7245
 20
1.3158
 30
0.0
 10
46.7245
 20
1.3158
 30
0.0
 10
46.9056
 20
1.1273
 30
0.0
 10
46.9963
 20
0.8794
 30
0.0
 10
46.9963
 20
0.5719
 30
0.0
 10
46.9963
 20
0.5719
 30
0.0
 10
46.9963
 20
0.2645
 30
0.0
 10
46.9056
 20
0.0173
 30
0.0
 10
46.7237
 20
-0.1712
 30
0.0
 10
46.7237
 20
-0.1712
 30
0.0
 10
46.5417
 20
-0.3597
 30
0.0
 10
46.3148
 20
-0.4539
 30
0.0
 10
46.0429
 20
-0.4539
 30
0.0
 10
46.0429
 20
-0.4539
 30
0.0
 10
45.8407
 20
-0.4539
 30
0.0
 10
45.671
 20
-0.4024
 30
0.0
 10
45.5339
 20
-0.2995
 30
0.0
 10
45.5339
 20
-0.2995
 30
0.0
 10
45.3977
 20
-0.1973
 30
0.0
 10
45.3041
 20
-0.0508
 30
0.0
 10
45.2548
 20
0.1391
 30
0.0
  0
SPLINE
  5
9F
330
1F
100
AcDbEntity
  8
ROUND
 62
   250
100
AcDbSpline
210
0.0
220
0.0
230
1.0
 70
    11
 71
     3
 72
    36
 73
    32
 74
     0
 42
0.0000000001
 43
0.0000000001
 40
0.0
 40
0.0
 40
0.0
 40
0.0
 40
0.1111111111111111
 40
0.1111111111111111
 40
0.1111111111111111
 40
0.1111111111111111
 40
0.2222222222222222
 40
0.2222222222222222
 40
0.2222222222222222
 40
0.2222222222222222
 40
0.3333333333333333
 40
0.3333333333333333
 40
0.3333333333333333
 40
0.3333333333333333
 40
0.4444444444444444
 40
0.4444444444444444
 40
0.4444444444444444
 40
0.4444444444444444
 40
0.5555555555555556
 40
0.5555555555555556
 40
0.5555555555555556
 40
0.5555555555555556
 40
0.6666666666666666
 40
0.6666666666666666
 40
0.6666666666666666
 40
0.6666666666666666
 40
0.7777777777777778
 40
0.7777777777777778
 40
0.7777777777777778
 40
0.7777777777777778
 40
1.0
 40
1.0
 40
1.0
 40
1.0
 10
44.6066
 20
0.0623
 30
0.0
 10
44.7538
 20
0.0623
 30
0.0
 10
44.8742
 20
0.1101
 30
0.0
 10
44.9678
 20
0.2044
 30
0.0
 10
44.9678
 20
0.2044
 30
0.0
 10
45.0612
 20
0.2994
 30
0.0
 10
45.1083
 20
0.4225
 30
0.0
 10
45.1083
 20
0.5741
 30
0.0
 10
45.1083
 20
0.5741
 30
0.0
 10
45.1083
 20
0.7213
 30
0.0
 10
45.0619
 20
0.8424
 30
0.0
 10
44.9692
 20
0.9366
 30
0.0
 10
44.9692
 20
0.9366
 30
0.0
 10
44.8764
 20
1.0309
 30
0.0
 10
44.7626
 20
1.0773
 30
0.0
 10
44.6284
 20
1.0773
 30
0.0
 10
44.6284
 20
1.0773
 30
0.0
 10
44.4878
 20
1.0773
 30
0.0
 10
44.3703
 20
1.0294
 30
0.0
 10
44.2746
 20
0.9323
 30
0.0
 10
44.2746
 20
0.9323
 30
0.0
 10
44.1789
 20
0.8352
 30
0.0
 10
44.1311
 20
0.7148
 30
0.0
 10
44.1311
 20
0.5697
 30
0.0
 10
44.1311
 20
0.5697
 30
0.0
 10
44.1311
 20
0.4241
 30
0.0
 10
44.1781
 20
0.3029
 30
0.0
 10
44.2711
 20
0.2066
 30
0.0
 10
44.2711
 20
0.2066
 30
0.0
 10
44.3645
 20
0.1101
 30
0.0
 10
44.4768
 20
0.0623
 30
0.0
 10
44.6066
 20
0.0623
 30
0.0
  0
SPLINE
  5
A0
330
1F
100
AcDbEntity
  8
ROUND
 62
   250
100
AcDbSpline
210
0.0
220
0.0
230
1.0
 70
    11
 71
     3
 72
    40
 73
    36
 74
     0
 42
0.0000000001
 43
0.0000000001
 40
0.0
 40
0.0
 40
0.0
 40
0.0
 40
0.1
 40
0.1
 40
0.1
 40
0.1
 40
0.2
 40
0.2
 40
0.2
 40
0.2
 40
0.3
 40
0.3
 40
0.3
 40
0.3
 40
0.4
 40
0.4
 40
0.4
 40
0.4
 40
0.5
 40
0.5
 40
0.5
 40
0.5
 40
0.6
 40
0.6
 40
0.6
 40
0.6
 40
0.7
 40
0.7
 40
0.7
 40
0.7
 40
0.8
 40
0.8
 40
0.8
 40
0.8
 40
1.0
 40
1.0
 40
1.0
 40
1.0
 10
46.0451
 20
-0.061
 30
0.0
 10
46.1539
 20
-0.061
 30
0.0
 10
46.2596
 20
-0.0348
 30
0.0
 10
46.3612
 20
0.0165
 30
0.0
 10
46.3612
 20
0.0165
 30
0.0
 10
46.4634
 20
0.068
 30
0.0
 10
46.5425
 20
0.1449
 30
0.0
 10
46.5983
 20
0.2471
 30
0.0
 10
46.5983
 20
0.2471
 30
0.0
 10
46.6541
 20
0.3493
 30
0.0
 10
46.6824
 20
0.4589
 30
0.0
 10
46.6824
 20
0.5764
 30
0.0
 10
46.6824
 20
0.5764
 30
0.0
 10
46.6824
 20
0.759
 30
0.0
 10
46.6237
 20
0.9098
 30
0.0
 10
46.5055
 20
1.0288
 30
0.0
 10
46.5055
 20
1.0288
 30
0.0
 10
46.388
 20
1.1476
 30
0.0
 10
46.2387
 20
1.2071
 30
0.0
 10
46.0574
 20
1.2071
 30
0.0
 10
46.0574
 20
1.2071
 30
0.0
 10
45.8732
 20
1.2071
 30
0.0
 10
45.7211
 20
1.1462
 30
0.0
 10
45.6007
 20
1.0237
 30
0.0
 10
45.6007
 20
1.0237
 30
0.0
 10
45.4803
 20
0.9012
 30
0.0
 10
45.4202
 20
0.7475
 30
0.0
 10
45.4202
 20
0.5633
 30
0.0
 10
45.4202
 20
0.5633
 30
0.0
 10
45.4202
 20
0.3834
 30
0.0
 10
45.4795
 20
0.2348
 30
0.0
 10
45.5985
 20
0.1166
 30
0.0
 10
45.5985
 20
0.1166
 30
0.0
 10
45.7181
 20
-0.0015
 30
0.0
 10
45.8667
 20
-0.061
 30
0.0
 10
46.0451
 20
-0.061
 30
0.0
  0
SPLINE
  5
A1
330
1F
100
AcDbEntity
  8
ROUND
 62
   250
100
AcDbSpline
210
0.0
220
0.0
230
1.0
 70
    24
 71
     3
 72
     8
 73
     4
 74
     0
 42
0.0000000001
 43
0.0000000001
 40
0.0
 40
0.0
 40
0.0
 40
0.0
 40
1.0
 40
1.0
 40
1.0
 40
1.0
 10
40.5558
 20
6.787
 30
0.0
 10
40.5558
 20
6.787
 30
0.0
 10
48.9776
 20
6.787
 30
0.0
 10
48.9776
 20
6.787
 30
0.0
  0
SPLINE
  5
A2
330
1F
100
AcDbEntity
  8
ROUND
 62
   250
100
AcDbSpline
210
0.0
220
0.0
230
1.0
 70
    24
 71
     3
 72
     8
 73
     4
 74
     0
 42
0.0000000001
 43
0.0000000001
 40
0.0
 40
0.0
 40
0.0
 40
0.0
 40
1.0
 40
1.0
 40
1.0
 40
1.0
 10
40.5045
 20
-11.9325
 30
0.0
 10
40.5045
 20
-11.9325
 30
0.0
 10
48.9269
 20
-11.9325
 30
0.0
 10
48.9269
 20
-11.9325
 30
0.0
  0
SPLINE
  5
A3
330
1F
100
AcDbEntity
  8
ROUND
  6
NEW_LINE2
 62
   250
100
AcDbSpline
210
0.0
220
0.0
230
1.0
 70
    24
 71
     3
 72
     8
 73
     4
 74
     0
 42
0.0000000001
 43
0.0000000001
 40
0.0
 40
0.0
 40
0.0
 40
0.0
 40
1.0
 40
1.0
 40
1.0
 40
1.0
 10
-11.9726
 20
-2.4997
 30
0.0
 10
-11.9726
 20
-2.4997
 30
0.0
 10
42.6177
 20
-2.4997
 30
0.0
 10
42.6177
 20
-2.4997
 30
0.0
  0
ENDSEC
  0
SECTION
  2
OBJECTS
  0
DICTIONARY
  5
C
330
0
100
AcDbDictionary
  3
ACAD_GROUP
350
D
  3
ACAD_LAYOUT
350
1A
  3
ACAD_MATERIAL
350
3B
  3
ACAD_MLEADERSTYLE
350
C7
  3
ACAD_MLINESTYLE
350
17
  3
ACAD_PLOTSETTINGS
350
19
  3
ACAD_VISUALSTYLE
350
2A
  3
ACDBHEADERROUNDTRIPXREC
350
A5
  3
ACDBVARIABLEDICTIONARY
350
C5
  0
DICTIONARY
  5
D
102
{ACAD_REACTORS
330
C
102
}
330
C
100
AcDbDictionary
  0
DICTIONARY
  5
1A
102
{ACAD_REACTORS
330
C
102
}
330
C
100
AcDbDictionary
  0
DICTIONARY
  5
3B
102
{ACAD_REACTORS
330
C
102
}
330
C
100
AcDbDictionary
  3
BYBLOCK
350
3D
  3
BYLAYER
350
3C
  3
GLOBAL
350
3E
  0
DICTIONARY
  5
C7
102
{ACAD_REACTORS
330
C
102
}
330
C
100
AcDbDictionary
  0
DICTIONARY
  5
17
102
{ACAD_REACTORS
330
C
102
}
330
C
100
AcDbDictionary
  3
STANDARD
350
18
  0
DICTIONARY
  5
19
102
{ACAD_REACTORS
330
C
102
}
330
C
100
AcDbDictionary
  0
DICTIONARY
  5
2A
102
{ACAD_REACTORS
330
C
102
}
330
C
100
AcDbDictionary
  3
2DWIREFRAME
350
2F
  3
3D_HIDDEN
350
31
  3
3DWIREFRAME
350
30
  3
BASIC
350
32
  3
BRIGHTEN
350
36
  3
COLORCHANGE
350
3A
  3
CONCEPTUAL
350
34
  3
DIM
350
35
  3
FACEPATTERN
350
39
  3
FLAT
350
2B
  3
FLATWITHEDGES
350
2C
  3
GOURAUD
350
2D
  3
GOURAUDWITHEDGES
350
2E
  3
LINEPATTERN
350
38
  3
REALISTIC
350
33
  3
THICKEN
350
37
  0
DICTIONARY
  5
A5
102
{ACAD_REACTORS
330
C
102
}
330
C
100
AcDbDictionary
  3
CEPSNTYPE
350
AE
  3
DIMSTYLEDATA
350
C4
  3
FINGERPRINTGUID
350
AF
  3
HYPERLINKBASE
350
A8
  3
INSUNITS
350
AD
  3
LAYOUTDICT
350
AA
  3
LWETCUNION
350
AC
  3
PLOTSETDICT
350
AB
  3
PSVPSCALE
350
B1
  3
PUCSBASE
350
B4
  3
PUCSORGBACK
350
BA
  3
PUCSORGBOTTOM
350
B6
  3
PUCSORGFRONT
350
B9
  3
PUCSORGLEFT
350
B7
  3
PUCSORGRIGHT
350
B8
  3
PUCSORGTOP
350
B5
  3
PUCSORTHOREF
350
B2
  3
PUCSORTHOVIEW
350
B3
  3
STYLESHEET
350
A9
  3
TSTACKALIGN
350
A6
  3
TSTACKSIZE
350
A7
  3
UCSBASE
350
BD
  3
UCSORGBACK
350
C3
  3
UCSORGBOTTOM
350
BF
  3
UCSORGFRONT
350
C2
  3
UCSORGLEFT
350
C0
  3
UCSORGRIGHT
350
C1
  3
UCSORGTOP
350
BE
  3
UCSORTHOREF
350
BB
  3
UCSORTHOVIEW
350
BC
  3
VERSIONGUID
350
B0
  0
DICTIONARY
  5
C5
102
{ACAD_REACTORS
330
C
102
}
330
C
100
AcDbDictionary
  3
DIMASSOC
350
C8
  3
HIDETEXT
350
C9
  0
MATERIAL
  5
3D
102
{ACAD_REACTORS
330
3B
102
}
102
{ACAD_XDICTIONARY
360
CC
102
}
330
3B
100
AcDbMaterial
  1
ByBlock
  0
MATERIAL
  5
3C
102
{ACAD_REACTORS
330
3B
102
}
102
{ACAD_XDICTIONARY
360
CA
102
}
330
3B
100
AcDbMaterial
  1
ByLayer
  0
MATERIAL
  5
3E
102
{ACAD_REACTORS
330
3B
102
}
102
{ACAD_XDICTIONARY
360
CE
102
}
330
3B
100
AcDbMaterial
  1
Global
  0
MLINESTYLE
  5
18
102
{ACAD_REACTORS
330
17
102
}
330
17
100
AcDbMlineStyle
  2
Standard
 70
     0
  3

 62
   256
 51
90.0
 52
90.0
 71
     2
 49
0.5
 62
   256
  6
BYLAYER
 49
-0.5
 62
   256
  6
BYLAYER
  0
ACAD_PROXY_OBJECT
  5
2F
102
{ACAD_REACTORS
330
2A
102
}
330
2A
100
AcDbProxyObject
 90
      499
 91
      501
 93
      436
310
42CC9915DA5C99599C985B595049028333333333333E3BF0000000000000FB0107901411070040501600405405064090741402480A0340
1001
ACAD
1000
AcDbSavedByObjectVersion
1070
     0
  0
ACAD_PROXY_OBJECT
  5
31
102
{ACAD_REACTORS
330
2A
102
}
330
2A
100
AcDbProxyObject
 90
      499
 91
      501
 93
      500
310
424CD108121A5919195B90640502408333333333333E3BF0000000000000FB01079024090700405020000000000001110200405405064090740C02480A0340
1001
ACAD
1000
AcDbSavedByObjectVersion
1070
     0
  0
ACAD_PROXY_OBJECT
  5
30
102
{ACAD_REACTORS
330
2A
102
}
330
2A
100
AcDbProxyObject
 90
      499
 91
      501
 93
      436
310
42CCD915DA5C99599C985B595059028333333333333E3BF0000000000000FB0107901411070040501600405405064090741402480A0340
1001
ACAD
1000
AcDbSavedByObjectVersion
1070
     0
  0
ACAD_PROXY_OBJECT
  5
32
102
{ACAD_REACTORS
330
2A
102
}
330
2A
100
AcDbProxyObject
 90
      499
 91
      501
 93
      388
310
4150985CDA58D07406404333333333333E3BF0000000000000FB0107A41107004050150841D405064090741402480A0350
1001
ACAD
1000
AcDbSavedByObjectVersion
1070
     0
  0
ACAD_PROXY_OBJECT
  5
36
102
{ACAD_REACTORS
330
2A
102
}
330
2A
100
AcDbProxyObject
 90
      499
 91
      501
 93
      428
310
42109C9A59DA1D195B90C409028333333333333E3BF0000000000000FB010790141107004050150841D405064090741402480A029950
1001
ACAD
1000
AcDbSavedByObjectVersion
1070
     0
  0
ACAD_PROXY_OBJECT
  5
3A
102
{ACAD_REACTORS
330
2A
102
}
330
2A
100
AcDbProxyObject
 90
      499
 91
      501
 93
      452
310
42D0DBDB1BDC90DA185B99D95104090240C333333333333E3BF0000000000000FB0108901411070040501508421405064090741402480A0350
1001
ACAD
1000
AcDbSavedByObjectVersion
1070
     0
  0
ACAD_PROXY_OBJECT
  5
34
102
{ACAD_REACTORS
330
2A
102
}
330
2A
100
AcDbProxyObject
 90
      499
 91
      501
 93
      500
310
4290DBDB98D95C1D1D585B10940D028333333333333E3BF0000000000000FB0107902409070040501000000000000111010841D405064090740C02480A0340
1001
ACAD
1000
AcDbSavedByObjectVersion
1070
     0
  0
ACAD_PROXY_OBJECT
  5
35
102
{ACAD_REACTORS
330
2A
102
}
330
2A
100
AcDbProxyObject
 90
      499
 91
      501
 93
      412
310
40D11A5B50B409028333333333333E3BF0000000000000FB010790141107004050150841D405064090741402480A02677FFFFFD0
1001
ACAD
1000
AcDbSavedByObjectVersion
1070
     0
  0
ACAD_PROXY_OBJECT
  5
39
102
{ACAD_REACTORS
330
2A
102
}
330
2A
100
AcDbProxyObject
 90
      499
 91
      501
 93
      444
310
42D19858D95C185D1D195C9B90F409028333333333333E3BF0000000000000FB010790141107004050150841D405064090741402480A0350
1001
ACAD
1000
AcDbSavedByObjectVersion
1070
     0
  0
ACAD_PROXY_OBJECT
  5
2B
102
{ACAD_REACTORS
330
2A
102
}
330
2A
100
AcDbProxyObject
 90
      499
 91
      501
 93
      388
310
41119B185D240901404333333333333E3BF0000000000000F9010740A41107004050150841D405064090741402480A1B50
1001
ACAD
1000
AcDbSavedByObjectVersion
1070
     0
  0
ACAD_PROXY_OBJECT
  5
2C
102
{ACAD_REACTORS
330
2A
102
}
330
2A
100
AcDbProxyObject
 90
      499
 91
      501
 93
      476
310
43519B185D15DA5D1A115919D95CD0140901404333333333333E3BF0000000000000F9010740901411070040501600405405064090741402480A1B50
1001
ACAD
1000
AcDbSavedByObjectVersion
1070
     0
  0
ACAD_PROXY_OBJECT
  5
2D
102
{ACAD_REACTORS
330
2A
102
}
330
2A
100
AcDbProxyObject
 90
      499
 91
      501
 93
      412
310
41D1DBDD5C985D5910240902404333333333333E3BF0000000000000F9010740A411070040501641D405064090741402480A1B50
1001
ACAD
1000
AcDbSavedByObjectVersion
1070
     0
  0
ACAD_PROXY_OBJECT
  5
2E
102
{ACAD_REACTORS
330
2A
102
}
330
2A
100
AcDbProxyObject
 90
      499
 91
      501
 93
      500
310
4411DBDD5C985D5915DA5D1A115919D95CD0340902404333333333333E3BF0000000000000F9010740901411070040501600405405064090741402480A1B50
1001
ACAD
1000
AcDbSavedByObjectVersion
1070
     0
  0
ACAD_PROXY_OBJECT
  5
38
102
{ACAD_REACTORS
330
2A
102
}
330
2A
100
AcDbProxyObject
 90
      499
 91
      501
 93
      444
310
42D31A5B995C185D1D195C9B90E409028333333333333E3BF0000000000000FB010790141107004050750841D405064090741402483A0350
1001
ACAD
1000
AcDbSavedByObjectVersion
1070
     0
  0
ACAD_PROXY_OBJECT
  5
33
102
{ACAD_REACTORS
330
2A
102
}
330
2A
100
AcDbProxyObject
 90
      499
 91
      501
 93
      420
310
425499585B1A5CDD1A58D08409028333333333333E3BF0000000000000FB01079019070040501508421405064090741402480A1B40
1001
ACAD
1000
AcDbSavedByObjectVersion
1070
     0
  0
ACAD_PROXY_OBJECT
  5
37
102
{ACAD_REACTORS
330
2A
102
}
330
2A
100
AcDbProxyObject
 90
      499
 91
      501
 93
      412
310
41D51A1A58DAD95B90D409028333333333333E3BF0000000000000FB010790141107004050150C41D405064090741402480A0350
1001
ACAD
1000
AcDbSavedByObjectVersion
1070
     0
  0
XRECORD
  5
AE
102
{ACAD_REACTORS
330
A5
102
}
330
A5
100
AcDbXrecord
 90
        0
  0
XRECORD
  5
C4
102
{ACAD_REACTORS
330
A5
102
}
330
A5
100
AcDbXrecord
1000
DSTYLE
1002
{
1070
   340
340
11
1002
}
  0
XRECORD
  5
AF
102
{ACAD_REACTORS
330
A5
102
}
330
A5
100
AcDbXrecord
  1
{35477F2A-FA27-4224-90E6-0195FB6BEDA2}
  0
XRECORD
  5
A8
102
{ACAD_REACTORS
330
A5
102
}
330
A5
100
AcDbXrecord
  1

  0
XRECORD
  5
AD
102
{ACAD_REACTORS
330
A5
102
}
330
A5
100
AcDbXrecord
 90
        4
  0
XRECORD
  5
AA
102
{ACAD_REACTORS
330
A5
102
}
330
A5
100
AcDbXrecord
340
1A
  0
XRECORD
  5
AC
102
{ACAD_REACTORS
330
A5
102
}
330
A5
100
AcDbXrecord
 90
    10781
  0
XRECORD
  5
AB
102
{ACAD_REACTORS
330
A5
102
}
330
A5
100
AcDbXrecord
340
19
  0
XRECORD
  5
B1
102
{ACAD_REACTORS
330
A5
102
}
330
A5
100
AcDbXrecord
 40
0.0
  0
XRECORD
  5
B4
102
{ACAD_REACTORS
330
A5
102
}
330
A5
100
AcDbXrecord
340
0
  0
XRECORD
  5
BA
102
{ACAD_REACTORS
330
A5
102
}
330
A5
100
AcDbXrecord
 10
0.0
 20
0.0
 30
0.0
  0
XRECORD
  5
B6
102
{ACAD_REACTORS
330
A5
102
}
330
A5
100
AcDbXrecord
 10
0.0
 20
0.0
 30
0.0
  0
XRECORD
  5
B9
102
{ACAD_REACTORS
330
A5
102
}
330
A5
100
AcDbXrecord
 10
0.0
 20
0.0
 30
0.0
  0
XRECORD
  5
B7
102
{ACAD_REACTORS
330
A5
102
}
330
A5
100
AcDbXrecord
 10
0.0
 20
0.0
 30
0.0
  0
XRECORD
  5
B8
102
{ACAD_REACTORS
330
A5
102
}
330
A5
100
AcDbXrecord
 10
0.0
 20
0.0
 30
0.0
  0
XRECORD
  5
B5
102
{ACAD_REACTORS
330
A5
102
}
330
A5
100
AcDbXrecord
 10
0.0
 20
0.0
 30
0.0
  0
XRECORD
  5
B2
102
{ACAD_REACTORS
330
A5
102
}
330
A5
100
AcDbXrecord
340
0
  0
XRECORD
  5
B3
102
{ACAD_REACTORS
330
A5
102
}
330
A5
100
AcDbXrecord
 70
     0
  0
XRECORD
  5
A9
102
{ACAD_REACTORS
330
A5
102
}
330
A5
100
AcDbXrecord
  1

  0
XRECORD
  5
A6
102
{ACAD_REACTORS
330
A5
102
}
330
A5
100
AcDbXrecord
 90
        1
  0
XRECORD
  5
A7
102
{ACAD_REACTORS
330
A5
102
}
330
A5
100
AcDbXrecord
 90
       70
  0
XRECORD
  5
BD
102
{ACAD_REACTORS
330
A5
102
}
330
A5
100
AcDbXrecord
340
0
  0
XRECORD
  5
C3
102
{ACAD_REACTORS
330
A5
102
}
330
A5
100
AcDbXrecord
 10
0.0
 20
0.0
 30
0.0
  0
XRECORD
  5
BF
102
{ACAD_REACTORS
330
A5
102
}
330
A5
100
AcDbXrecord
 10
0.0
 20
0.0
 30
0.0
  0
XRECORD
  5
C2
102
{ACAD_REACTORS
330
A5
102
}
330
A5
100
AcDbXrecord
 10
0.0
 20
0.0
 30
0.0
  0
XRECORD
  5
C0
102
{ACAD_REACTORS
330
A5
102
}
330
A5
100
AcDbXrecord
 10
0.0
 20
0.0
 30
0.0
  0
XRECORD
  5
C1
102
{ACAD_REACTORS
330
A5
102
}
330
A5
100
AcDbXrecord
 10
0.0
 20
0.0
 30
0.0
  0
XRECORD
  5
BE
102
{ACAD_REACTORS
330
A5
102
}
330
A5
100
AcDbXrecord
 10
0.0
 20
0.0
 30
0.0
  0
XRECORD
  5
BB
102
{ACAD_REACTORS
330
A5
102
}
330
A5
100
AcDbXrecord
340
0
  0
XRECORD
  5
BC
102
{ACAD_REACTORS
330
A5
102
}
330
A5
100
AcDbXrecord
 70
     0
  0
XRECORD
  5
B0
102
{ACAD_REACTORS
330
A5
102
}
330
A5
100
AcDbXrecord
  1
{FAEB1C32-E019-11D5-929B-00C0DF256EC4}
  0
DICTIONARYVAR
  5
C8
102
{ACAD_REACTORS
330
C5
102
}
330
C5
100
DictionaryVariables
280
     0
  1
2
  0
DICTIONARYVAR
  5
C9
102
{ACAD_REACTORS
330
C5
102
}
330
C5
100
DictionaryVariables
280
     0
  1
1
  0
DICTIONARY
  5
CC
330
3D
100
AcDbDictionary
280
     1
  3
ACAD_XREC_ROUNDTRIP
360
CD
  0
DICTIONARY
  5
CA
330
3C
100
AcDbDictionary
280
     1
  3
ACAD_XREC_ROUNDTRIP
360
CB
  0
DICTIONARY
  5
CE
330
3E
100
AcDbDictionary
280
     1
  3
ACAD_XREC_ROUNDTRIP
360
CF
  0
XRECORD
  5
CD
102
{ACAD_REACTORS
330
CC
102
}
330
CC
100
AcDbXrecord
102
MATERIAL
148
0.0
149
0.0
149
0.0
 93
        0
 94
      127
282
     0
 72
     1
 77
     1
171
     1
175
     1
179
     1
273
     0
  0
XRECORD
  5
CB
102
{ACAD_REACTORS
330
CA
102
}
330
CA
100
AcDbXrecord
102
MATERIAL
148
0.0
149
0.0
149
0.0
 93
        0
 94
      127
282
     0
 72
     1
 77
     1
171
     1
175
     1
179
     1
273
     0
  0
XRECORD
  5
CF
102
{ACAD_REACTORS
330
CE
102
}
330
CE
100
AcDbXrecord
102
MATERIAL
148
0.0
149
0.0
149
0.0
 93
        0
 94
      127
282
     0
 72
     1
 77
     1
171
     1
175
     1
179
     1
273
     0
  0
ENDSEC
  0
EOF
