  0
SECTION
  2
HEADER
  9
$ACADVER
  1
AC1014
  9
$ACADMAINTVER
 70
     9
  9
$DWGCODEPAGE
  3
ANSI_1250
  9
$INSBASE
 10
0.0
 20
0.0
 30
0.0
  9
$EXTMIN
 10
-30.6109
 20
-34.4995
 30
0.0
  9
$EXTMAX
 10
30.6109
 20
34.4995
 30
0.0
  9
$LIMMIN
 10
0.0
 20
0.0
  9
$LIMMAX
 10
12.0
 20
9.0
  9
$ORTHOMODE
 70
     0
  9
$REGENMODE
 70
     1
  9
$FILLMODE
 70
     1
  9
$QTEXTMODE
 70
     0
  9
$MIRRTEXT
 70
     1
  9
$DRAGMODE
 70
     2
  9
$LTSCALE
 40
1.0
  9
$OSMODE
 70
    37
  9
$ATTMODE
 70
     1
  9
$TEXTSIZE
 40
0.2
  9
$TRACEWID
 40
0.05
  9
$TEXTSTYLE
  7
STANDARD
  9
$CLAYER
  8
0
  9
$CELTYPE
  6
BYLAYER
  9
$CECOLOR
 62
   256
  9
$CELTSCALE
 40
1.0
  9
$DELOBJ
 70
     1
  9
$DISPSILH
 70
     0
  9
$DIMSCALE
 40
1.0
  9
$DIMASZ
 40
0.18
  9
$DIMEXO
 40
0.0625
  9
$DIMDLI
 40
0.38
  9
$DIMRND
 40
0.0
  9
$DIMDLE
 40
0.0
  9
$DIMEXE
 40
0.18
  9
$DIMTP
 40
0.0
  9
$DIMTM
 40
0.0
  9
$DIMTXT
 40
0.18
  9
$DIMCEN
 40
0.09
  9
$DIMTSZ
 40
0.0
  9
$DIMTOL
 70
     0
  9
$DIMLIM
 70
     0
  9
$DIMTIH
 70
     1
  9
$DIMTOH
 70
     1
  9
$DIMSE1
 70
     0
  9
$DIMSE2
 70
     0
  9
$DIMTAD
 70
     0
  9
$DIMZIN
 70
     0
  9
$DIMBLK
  1

  9
$DIMASO
 70
     1
  9
$DIMSHO
 70
     1
  9
$DIMPOST
  1

  9
$DIMAPOST
  1

  9
$DIMALT
 70
     0
  9
$DIMALTD
 70
     2
  9
$DIMALTF
 40
25.4
  9
$DIMLFAC
 40
1.0
  9
$DIMTOFL
 70
     0
  9
$DIMTVP
 40
0.0
  9
$DIMTIX
 70
     0
  9
$DIMSOXD
 70
     0
  9
$DIMSAH
 70
     0
  9
$DIMBLK1
  1

  9
$DIMBLK2
  1

  9
$DIMSTYLE
  2
STANDARD
  9
$DIMCLRD
 70
     0
  9
$DIMCLRE
 70
     0
  9
$DIMCLRT
 70
     0
  9
$DIMTFAC
 40
1.0
  9
$DIMGAP
 40
0.09
  9
$DIMJUST
 70
     0
  9
$DIMSD1
 70
     0
  9
$DIMSD2
 70
     0
  9
$DIMTOLJ
 70
     1
  9
$DIMTZIN
 70
     0
  9
$DIMALTZ
 70
     0
  9
$DIMALTTZ
 70
     0
  9
$DIMFIT
 70
     3
  9
$DIMUPT
 70
     0
  9
$DIMUNIT
 70
     2
  9
$DIMDEC
 70
     4
  9
$DIMTDEC
 70
     4
  9
$DIMALTU
 70
     2
  9
$DIMALTTD
 70
     2
  9
$DIMTXSTY
  7
STANDARD
  9
$DIMAUNIT
 70
     0
  9
$LUNITS
 70
     2
  9
$LUPREC
 70
     4
  9
$SKETCHINC
 40
0.1
  9
$FILLETRAD
 40
0.5
  9
$AUNITS
 70
     0
  9
$AUPREC
 70
     0
  9
$MENU
  1
.
  9
$ELEVATION
 40
0.0
  9
$PELEVATION
 40
0.0
  9
$THICKNESS
 40
0.0
  9
$LIMCHECK
 70
     0
  9
$CHAMFERA
 40
0.5
  9
$CHAMFERB
 40
0.5
  9
$CHAMFERC
 40
1.0
  9
$CHAMFERD
 40
0.0
  9
$SKPOLY
 70
     0
  9
$TDCREATE
 40
2456272.429592674
  9
$TDUPDATE
 40
2456272.429592685
  9
$TDINDWG
 40
0.0000000116
  9
$TDUSRTIMER
 40
0.0000000116
  9
$USRTIMER
 70
     1
  9
$ANGBASE
 50
0.0
  9
$ANGDIR
 70
     0
  9
$PDMODE
 70
     0
  9
$PDSIZE
 40
0.0
  9
$PLINEWID
 40
0.0
  9
$COORDS
 70
     1
  9
$SPLFRAME
 70
     0
  9
$SPLINETYPE
 70
     6
  9
$SPLINESEGS
 70
     8
  9
$ATTDIA
 70
     0
  9
$ATTREQ
 70
     1
  9
$HANDLING
 70
     1
  9
$HANDSEED
  5
BC
  9
$SURFTAB1
 70
     6
  9
$SURFTAB2
 70
     6
  9
$SURFTYPE
 70
     6
  9
$SURFU
 70
     6
  9
$SURFV
 70
     6
  9
$UCSNAME
  2

  9
$UCSORG
 10
0.0
 20
0.0
 30
0.0
  9
$UCSXDIR
 10
1.0
 20
0.0
 30
0.0
  9
$UCSYDIR
 10
0.0
 20
1.0
 30
0.0
  9
$PUCSNAME
  2

  9
$PUCSORG
 10
0.0
 20
0.0
 30
0.0
  9
$PUCSXDIR
 10
1.0
 20
0.0
 30
0.0
  9
$PUCSYDIR
 10
0.0
 20
1.0
 30
0.0
  9
$USERI1
 70
     0
  9
$USERI2
 70
     0
  9
$USERI3
 70
     0
  9
$USERI4
 70
     0
  9
$USERI5
 70
     0
  9
$USERR1
 40
0.0
  9
$USERR2
 40
0.0
  9
$USERR3
 40
0.0
  9
$USERR4
 40
0.0
  9
$USERR5
 40
0.0
  9
$WORLDVIEW
 70
     1
  9
$SHADEDGE
 70
     3
  9
$SHADEDIF
 70
    70
  9
$TILEMODE
 70
     1
  9
$MAXACTVP
 70
    64
  9
$PINSBASE
 10
0.0
 20
0.0
 30
0.0
  9
$PLIMCHECK
 70
     0
  9
$PEXTMIN
 10
1.000000000000000E+20
 20
1.000000000000000E+20
 30
1.000000000000000E+20
  9
$PEXTMAX
 10
-1.000000000000000E+20
 20
-1.000000000000000E+20
 30
-1.000000000000000E+20
  9
$PLIMMIN
 10
0.0
 20
0.0
  9
$PLIMMAX
 10
12.0
 20
9.0
  9
$UNITMODE
 70
     0
  9
$VISRETAIN
 70
     1
  9
$PLINEGEN
 70
     0
  9
$PSLTSCALE
 70
     1
  9
$TREEDEPTH
 70
  3020
  9
$PICKSTYLE
 70
     1
  9
$CMLSTYLE
  2
STANDARD
  9
$CMLJUST
 70
     0
  9
$CMLSCALE
 40
1.0
  9
$PROXYGRAPHICS
 70
     1
  9
$MEASUREMENT
 70
     0
  0
ENDSEC
  0
SECTION
  2
CLASSES
  0
CLASS
  1
ACDBDICTIONARYWDFLT
  2
AcDbDictionaryWithDefault
  3
ObjectDBX Classes
 90
        0
280
     0
281
     0
  0
CLASS
  1
VISUALSTYLE
  2
AcDbVisualStyle
  3
ObjectDBX Classes
 90
     4095
280
     0
281
     0
  0
CLASS
  1
MATERIAL
  2
AcDbMaterial
  3
ObjectDBX Classes
 90
     1153
280
     0
281
     0
  0
CLASS
  1
DICTIONARYVAR
  2
AcDbDictionaryVar
  3
ObjectDBX Classes
 90
        0
280
     0
281
     0
  0
CLASS
  1
XRECORD
  2
AcDbXrecord
  3
AutoCAD 2000
 90
        0
280
     0
281
     0
  0
CLASS
  1
LWPOLYLINE
  2
AcDbPolyline
  3
AutoCAD 2000
 90
        0
280
     0
281
     1
  0
CLASS
  1
HATCH
  2
AcDbHatch
  3
AutoCAD 2000
 90
        0
280
     0
281
     1
  0
CLASS
  1
ACDBPLACEHOLDER
  2
AcDbPlaceHolder
  3
ObjectDBX Classes
 90
        0
280
     0
281
     0
  0
CLASS
  1
LAYOUT
  2
AcDbLayout
  3
ObjectDBX Classes
 90
        0
280
     0
281
     0
  0
ENDSEC
  0
SECTION
  2
TABLES
  0
TABLE
  2
VPORT
  5
8
330
0
100
AcDbSymbolTable
 70
     1
  0
VPORT
  5
29
330
8
100
AcDbSymbolTableRecord
100
AcDbViewportTableRecord
  2
*ACTIVE
 70
     0
 10
0.0
 20
0.0
 11
1.0
 21
1.0
 12
10.42990654205607
 22
4.5
 13
0.0
 23
0.0
 14
0.5
 24
0.5
 15
0.5
 25
0.5
 16
0.0
 26
0.0
 36
1.0
 17
0.0
 27
0.0
 37
0.0
 40
9.0
 41
1.972972972850329
 42
50.0
 43
0.0
 44
0.0
 50
0.0
 51
0.0
 71
     0
 72
   100
 73
     1
 74
     3
 75
     0
 76
     0
 77
     0
 78
     0
  0
ENDTAB
  0
TABLE
  2
LTYPE
  5
5
330
0
100
AcDbSymbolTable
 70
     3
  0
LTYPE
  5
14
330
5
100
AcDbSymbolTableRecord
100
AcDbLinetypeTableRecord
  2
BYBLOCK
 70
     0
  3

 72
    65
 73
     0
 40
0.0
  0
LTYPE
  5
15
330
5
100
AcDbSymbolTableRecord
100
AcDbLinetypeTableRecord
  2
BYLAYER
 70
     0
  3

 72
    65
 73
     0
 40
0.0
  0
LTYPE
  5
16
330
5
100
AcDbSymbolTableRecord
100
AcDbLinetypeTableRecord
  2
CONTINUOUS
 70
     0
  3
Solid line
 72
    65
 73
     0
 40
0.0
  0
LTYPE
  5
42
330
5
100
AcDbSymbolTableRecord
100
AcDbLinetypeTableRecord
  2
NEW_LINE1
 70
     0
  3

 72
    65
 73
     4
 40
1.2
 49
0.5
 74
     4
 75
     0
340
0
 46
1.0
 50
0.0
 44
0.0
 45
0.0
 49
-0.3
 74
     4
 75
     0
340
0
 46
1.0
 50
0.0
 44
0.0
 45
0.0
 49
0.1
 74
     4
 75
     0
340
0
 46
1.0
 50
0.0
 44
0.0
 45
0.0
 49
-0.3
 74
     4
 75
     0
340
0
 46
1.0
 50
0.0
 44
0.0
 45
0.0
  0
LTYPE
  5
5D
330
5
100
AcDbSymbolTableRecord
100
AcDbLinetypeTableRecord
  2
NEW_LINE2
 70
     0
  3

 72
    65
 73
     4
 40
1.2
 49
0.5
 74
     4
 75
     0
340
0
 46
1.0
 50
0.0
 44
0.0
 45
0.0
 49
-0.3
 74
     4
 75
     0
340
0
 46
1.0
 50
0.0
 44
0.0
 45
0.0
 49
0.1
 74
     4
 75
     0
340
0
 46
1.0
 50
0.0
 44
0.0
 45
0.0
 49
-0.3
 74
     4
 75
     0
340
0
 46
1.0
 50
0.0
 44
0.0
 45
0.0
  0
ENDTAB
  0
TABLE
  2
LAYER
  5
2
330
0
100
AcDbSymbolTable
 70
     2
  0
LAYER
  5
10
330
2
100
AcDbSymbolTableRecord
100
AcDbLayerTableRecord
  2
0
 70
     0
 62
     7
  6
CONTINUOUS
  0
LAYER
  5
40
330
2
100
AcDbSymbolTableRecord
100
AcDbLayerTableRecord
  2
ROUND
 70
     0
 62
     7
  6
CONTINUOUS
  0
ENDTAB
  0
TABLE
  2
STYLE
  5
3
330
0
100
AcDbSymbolTable
 70
     1
  0
STYLE
  5
11
330
3
100
AcDbSymbolTableRecord
100
AcDbTextStyleTableRecord
  2
STANDARD
 70
     0
 40
0.0
 41
1.0
 50
0.0
 71
     0
 42
0.2
  3
txt
  4

  0
ENDTAB
  0
TABLE
  2
VIEW
  5
6
330
0
100
AcDbSymbolTable
 70
     0
  0
ENDTAB
  0
TABLE
  2
UCS
  5
7
330
0
100
AcDbSymbolTable
 70
     0
  0
ENDTAB
  0
TABLE
  2
APPID
  5
9
330
0
100
AcDbSymbolTable
 70
     2
  0
APPID
  5
12
330
9
100
AcDbSymbolTableRecord
100
AcDbRegAppTableRecord
  2
ACAD
 70
     0
  0
APPID
  5
3F
330
9
100
AcDbSymbolTableRecord
100
AcDbRegAppTableRecord
  2
ODA
 70
     0
  0
ENDTAB
  0
TABLE
  2
DIMSTYLE
  5
A
330
0
100
AcDbSymbolTable
 70
     1
  0
DIMSTYLE
105
27
330
A
100
AcDbSymbolTableRecord
100
AcDbDimStyleTableRecord
  2
STANDARD
 70
     0
  3

  4

  5

  6

  7

 40
1.0
 41
0.18
 42
0.0625
 43
0.38
 44
0.18
 45
0.0
 46
0.0
 47
0.0
 48
0.0
140
0.18
141
0.09
142
0.0
143
25.4
144
1.0
145
0.0
146
1.0
147
0.09
 71
     0
 72
     0
 73
     1
 74
     1
 75
     0
 76
     0
 77
     0
 78
     0
170
     0
171
     2
172
     0
173
     0
174
     0
175
     0
176
     0
177
     0
178
     0
270
     2
271
     4
272
     4
273
     2
274
     2
340
11
275
     0
280
     0
281
     0
282
     0
283
     1
284
     0
285
     0
286
     0
287
     3
288
     0
  0
ENDTAB
  0
TABLE
  2
BLOCK_RECORD
  5
1
330
0
100
AcDbSymbolTable
 70
     1
  0
BLOCK_RECORD
  5
1F
330
1
100
AcDbSymbolTableRecord
100
AcDbBlockTableRecord
  2
*MODEL_SPACE
  0
BLOCK_RECORD
  5
1B
330
1
100
AcDbSymbolTableRecord
100
AcDbBlockTableRecord
  2
*PAPER_SPACE
  0
ENDTAB
  0
ENDSEC
  0
SECTION
  2
BLOCKS
  0
BLOCK
  5
20
330
1F
100
AcDbEntity
  8
0
100
AcDbBlockBegin
  2
*MODEL_SPACE
 70
     0
 10
0.0
 20
0.0
 30
0.0
  3
*MODEL_SPACE
  1

  0
ENDBLK
  5
21
330
1F
100
AcDbEntity
  8
0
100
AcDbBlockEnd
  0
BLOCK
  5
1C
330
1B
100
AcDbEntity
 67
     1
  8
0
100
AcDbBlockBegin
  2
*PAPER_SPACE
 70
     0
 10
0.0
 20
0.0
 30
0.0
  3
*PAPER_SPACE
  1

  0
ENDBLK
  5
1D
330
1B
100
AcDbEntity
 67
     1
  8
0
100
AcDbBlockEnd
  0
ENDSEC
  0
SECTION
  2
ENTITIES
  0
SPLINE
  5
41
330
1F
100
AcDbEntity
  8
ROUND
  6
NEW_LINE1
 62
   250
100
AcDbSpline
210
0.0
220
0.0
230
1.0
 70
    24
 71
     3
 72
     8
 73
     4
 74
     0
 42
0.0000000001
 43
0.0000000001
 40
0.0
 40
0.0
 40
0.0
 40
0.0
 40
1.0
 40
1.0
 40
1.0
 40
1.0
 10
1.8296
 20
17.48
 30
0.0
 10
1.8296
 20
17.48
 30
0.0
 10
23.7827
 20
17.48
 30
0.0
 10
23.7827
 20
17.48
 30
0.0
  0
SPLINE
  5
43
330
1F
100
AcDbEntity
  8
ROUND
 62
   250
100
AcDbSpline
210
0.0
220
0.0
230
1.0
 70
    11
 71
     3
 72
    92
 73
    88
 74
     0
 42
0.0000000001
 43
0.0000000001
 40
0.0
 40
0.0
 40
0.0
 40
0.0
 40
0.0434782608695652
 40
0.0434782608695652
 40
0.0434782608695652
 40
0.0434782608695652
 40
0.0869565217391304
 40
0.0869565217391304
 40
0.0869565217391304
 40
0.0869565217391304
 40
0.1304347826086956
 40
0.1304347826086956
 40
0.1304347826086956
 40
0.1304347826086956
 40
0.1739130434782609
 40
0.1739130434782609
 40
0.1739130434782609
 40
0.1739130434782609
 40
0.2173913043478261
 40
0.2173913043478261
 40
0.2173913043478261
 40
0.2173913043478261
 40
0.2608695652173913
 40
0.2608695652173913
 40
0.2608695652173913
 40
0.2608695652173913
 40
0.3043478260869565
 40
0.3043478260869565
 40
0.3043478260869565
 40
0.3043478260869565
 40
0.3478260869565217
 40
0.3478260869565217
 40
0.3478260869565217
 40
0.3478260869565217
 40
0.391304347826087
 40
0.391304347826087
 40
0.391304347826087
 40
0.391304347826087
 40
0.4347826086956522
 40
0.4347826086956522
 40
0.4347826086956522
 40
0.4347826086956522
 40
0.4782608695652174
 40
0.4782608695652174
 40
0.4782608695652174
 40
0.4782608695652174
 40
0.5217391304347826
 40
0.5217391304347826
 40
0.5217391304347826
 40
0.5217391304347826
 40
0.5652173913043478
 40
0.5652173913043478
 40
0.5652173913043478
 40
0.5652173913043478
 40
0.6086956521739131
 40
0.6086956521739131
 40
0.6086956521739131
 40
0.6086956521739131
 40
0.6521739130434783
 40
0.6521739130434783
 40
0.6521739130434783
 40
0.6521739130434783
 40
0.6956521739130435
 40
0.6956521739130435
 40
0.6956521739130435
 40
0.6956521739130435
 40
0.7391304347826086
 40
0.7391304347826086
 40
0.7391304347826086
 40
0.7391304347826086
 40
0.782608695652174
 40
0.782608695652174
 40
0.782608695652174
 40
0.782608695652174
 40
0.8260869565217391
 40
0.8260869565217391
 40
0.8260869565217391
 40
0.8260869565217391
 40
0.8695652173913043
 40
0.8695652173913043
 40
0.8695652173913043
 40
0.8695652173913043
 40
0.9130434782608695
 40
0.9130434782608695
 40
0.9130434782608695
 40
0.9130434782608695
 40
1.0
 40
1.0
 40
1.0
 40
1.0
 10
-27.9103
 20
-9.2022
 30
0.0
 10
-27.9103
 20
-9.2022
 30
0.0
 10
-27.5507
 20
-9.2025
 30
0.0
 10
-27.5507
 20
-9.2025
 30
0.0
 10
-27.5507
 20
-9.2025
 30
0.0
 10
-27.5507
 20
-9.2025
 30
0.0
 10
-27.5528
 20
-11.2161
 30
0.0
 10
-27.5528
 20
-11.2161
 30
0.0
 10
-27.5528
 20
-11.2161
 30
0.0
 10
-27.6428
 20
-11.2188
 30
0.0
 10
-27.7294
 20
-11.2046
 30
0.0
 10
-27.8125
 20
-11.1725
 30
0.0
 10
-27.8125
 20
-11.1725
 30
0.0
 10
-27.9498
 20
-11.1213
 30
0.0
 10
-28.0846
 20
-11.0389
 30
0.0
 10
-28.2178
 20
-10.926
 30
0.0
 10
-28.2178
 20
-10.926
 30
0.0
 10
-28.3503
 20
-10.8124
 30
0.0
 10
-28.504
 20
-10.649
 30
0.0
 10
-28.6783
 20
-10.4361
 30
0.0
 10
-28.6783
 20
-10.4361
 30
0.0
 10
-28.9497
 20
-10.1047
 30
0.0
 10
-29.1643
 20
-9.8803
 30
0.0
 10
-29.323
 20
-9.7639
 30
0.0
 10
-29.323
 20
-9.7639
 30
0.0
 10
-29.4811
 20
-9.6475
 30
0.0
 10
-29.6314
 20
-9.5891
 30
0.0
 10
-29.7725
 20
-9.589
 30
0.0
 10
-29.7725
 20
-9.589
 30
0.0
 10
-29.9208
 20
-9.5888
 30
0.0
 10
-30.0456
 20
-9.6419
 30
0.0
 10
-30.1478
 20
-9.7473
 30
0.0
 10
-30.1478
 20
-9.7473
 30
0.0
 10
-30.2495
 20
-9.8538
 30
0.0
 10
-30.3006
 20
-9.9919
 30
0.0
 10
-30.3007
 20
-10.1621
 30
0.0
 10
-30.3007
 20
-10.1621
 30
0.0
 10
-30.3009
 20
-10.3423
 30
0.0
 10
-30.2472
 20
-10.4864
 30
0.0
 10
-30.1388
 20
-10.5943
 30
0.0
 10
-30.1388
 20
-10.5943
 30
0.0
 10
-30.0311
 20
-10.7028
 30
0.0
 10
-29.8816
 20
-10.7576
 30
0.0
 10
-29.6908
 20
-10.7592
 30
0.0
 10
-29.6908
 20
-10.7592
 30
0.0
 10
-29.6908
 20
-10.7592
 30
0.0
 10
-29.7302
 20
-11.1436
 30
0.0
 10
-29.7302
 20
-11.1436
 30
0.0
 10
-29.7302
 20
-11.1436
 30
0.0
 10
-30.0173
 20
-11.117
 30
0.0
 10
-30.2357
 20
-11.0177
 30
0.0
 10
-30.3859
 20
-10.8458
 30
0.0
 10
-30.3859
 20
-10.8458
 30
0.0
 10
-30.536
 20
-10.674
 30
0.0
 10
-30.6111
 20
-10.4427
 30
0.0
 10
-30.6107
 20
-10.1534
 30
0.0
 10
-30.6107
 20
-10.1534
 30
0.0
 10
-30.6104
 20
-9.8611
 30
0.0
 10
-30.5286
 20
-9.63
 30
0.0
 10
-30.3668
 20
-9.4599
 30
0.0
 10
-30.3668
 20
-9.4599
 30
0.0
 10
-30.2041
 20
-9.2892
 30
0.0
 10
-30.0032
 20
-9.2042
 30
0.0
 10
-29.7635
 20
-9.2045
 30
0.0
 10
-29.7635
 20
-9.2045
 30
0.0
 10
-29.6415
 20
-9.2046
 30
0.0
 10
-29.5218
 20
-9.2297
 30
0.0
 10
-29.4042
 20
-9.28
 30
0.0
 10
-29.4042
 20
-9.28
 30
0.0
 10
-29.2864
 20
-9.3298
 30
0.0
 10
-29.1625
 20
-9.413
 30
0.0
 10
-29.0328
 20
-9.5287
 30
0.0
 10
-29.0328
 20
-9.5287
 30
0.0
 10
-28.9022
 20
-9.6445
 30
0.0
 10
-28.7238
 20
-9.8369
 30
0.0
 10
-28.4972
 20
-10.1059
 30
0.0
 10
-28.4972
 20
-10.1059
 30
0.0
 10
-28.3087
 20
-10.3302
 30
0.0
 10
-28.1811
 20
-10.4744
 30
0.0
 10
-28.1137
 20
-10.5382
 30
0.0
 10
-28.1137
 20
-10.5382
 30
0.0
 10
-28.0472
 20
-10.6021
 30
0.0
 10
-27.9798
 20
-10.6546
 30
0.0
 10
-27.912
 20
-10.6966
 30
0.0
 10
-27.912
 20
-10.6966
 30
0.0
 10
-27.912
 20
-10.6966
 30
0.0
 10
-27.9103
 20
-9.2022
 30
0.0
 10
-27.9103
 20
-9.2022
 30
0.0
  0
SPLINE
  5
44
330
1F
100
AcDbEntity
  8
ROUND
 62
   250
100
AcDbSpline
210
0.0
220
0.0
230
1.0
 70
    11
 71
     3
 72
    52
 73
    48
 74
     0
 42
0.0000000001
 43
0.0000000001
 40
0.0
 40
0.0
 40
0.0
 40
0.0
 40
0.0769230769230769
 40
0.0769230769230769
 40
0.0769230769230769
 40
0.0769230769230769
 40
0.1538461538461539
 40
0.1538461538461539
 40
0.1538461538461539
 40
0.1538461538461539
 40
0.2307692307692308
 40
0.2307692307692308
 40
0.2307692307692308
 40
0.2307692307692308
 40
0.3076923076923077
 40
0.3076923076923077
 40
0.3076923076923077
 40
0.3076923076923077
 40
0.3846153846153846
 40
0.3846153846153846
 40
0.3846153846153846
 40
0.3846153846153846
 40
0.4615384615384616
 40
0.4615384615384616
 40
0.4615384615384616
 40
0.4615384615384616
 40
0.5384615384615384
 40
0.5384615384615384
 40
0.5384615384615384
 40
0.5384615384615384
 40
0.6153846153846154
 40
0.6153846153846154
 40
0.6153846153846154
 40
0.6153846153846154
 40
0.6923076923076923
 40
0.6923076923076923
 40
0.6923076923076923
 40
0.6923076923076923
 40
0.7692307692307693
 40
0.7692307692307693
 40
0.7692307692307693
 40
0.7692307692307693
 40
0.8461538461538461
 40
0.8461538461538461
 40
0.8461538461538461
 40
0.8461538461538461
 40
1.0
 40
1.0
 40
1.0
 40
1.0
 10
-29.0525
 20
-8.8004
 30
0.0
 10
-29.4129
 20
-8.7999
 30
0.0
 10
-29.7029
 20
-8.7627
 30
0.0
 10
-29.922
 20
-8.688
 30
0.0
 10
-29.922
 20
-8.688
 30
0.0
 10
-30.1417
 20
-8.614
 30
0.0
 10
-30.3111
 20
-8.5032
 30
0.0
 10
-30.4303
 20
-8.3569
 30
0.0
 10
-30.4303
 20
-8.3569
 30
0.0
 10
-30.5492
 20
-8.2108
 30
0.0
 10
-30.6085
 20
-8.027
 30
0.0
 10
-30.6083
 20
-7.8058
 30
0.0
 10
-30.6083
 20
-7.8058
 30
0.0
 10
-30.6082
 20
-7.6419
 30
0.0
 10
-30.5747
 20
-7.4986
 30
0.0
 10
-30.5085
 20
-7.3754
 30
0.0
 10
-30.5085
 20
-7.3754
 30
0.0
 10
-30.4432
 20
-7.2519
 30
0.0
 10
-30.3479
 20
-7.1506
 30
0.0
 10
-30.2238
 20
-7.0699
 30
0.0
 10
-30.2238
 20
-7.0699
 30
0.0
 10
-30.0996
 20
-6.99
 30
0.0
 10
-29.9485
 20
-6.927
 30
0.0
 10
-29.7704
 20
-6.8818
 30
0.0
 10
-29.7704
 20
-6.8818
 30
0.0
 10
-29.5923
 20
-6.8358
 30
0.0
 10
-29.3526
 20
-6.8135
 30
0.0
 10
-29.0504
 20
-6.8138
 30
0.0
 10
-29.0504
 20
-6.8138
 30
0.0
 10
-28.6931
 20
-6.8141
 30
0.0
 10
-28.4051
 20
-6.8512
 30
0.0
 10
-28.1854
 20
-6.9246
 30
0.0
 10
-28.1854
 20
-6.9246
 30
0.0
 10
-27.9655
 20
-6.9985
 30
0.0
 10
-27.7962
 20
-7.1086
 30
0.0
 10
-27.6765
 20
-7.2548
 30
0.0
 10
-27.6765
 20
-7.2548
 30
0.0
 10
-27.5567
 20
-7.4011
 30
0.0
 10
-27.4973
 20
-7.5855
 30
0.0
 10
-27.4976
 20
-7.8089
 30
0.0
 10
-27.4976
 20
-7.8089
 30
0.0
 10
-27.4979
 20
-8.1025
 30
0.0
 10
-27.603
 20
-8.3331
 30
0.0
 10
-27.814
 20
-8.5002
 30
0.0
 10
-27.814
 20
-8.5002
 30
0.0
 10
-28.0673
 20
-8.7005
 30
0.0
 10
-28.4809
 20
-8.801
 30
0.0
 10
-29.0525
 20
-8.8004
 30
0.0
  0
SPLINE
  5
45
330
1F
100
AcDbEntity
  8
ROUND
 62
   250
100
AcDbSpline
210
0.0
220
0.0
230
1.0
 70
    11
 71
     3
 72
    36
 73
    32
 74
     0
 42
0.0000000001
 43
0.0000000001
 40
0.0
 40
0.0
 40
0.0
 40
0.0
 40
0.1111111111111111
 40
0.1111111111111111
 40
0.1111111111111111
 40
0.1111111111111111
 40
0.2222222222222222
 40
0.2222222222222222
 40
0.2222222222222222
 40
0.2222222222222222
 40
0.3333333333333333
 40
0.3333333333333333
 40
0.3333333333333333
 40
0.3333333333333333
 40
0.4444444444444444
 40
0.4444444444444444
 40
0.4444444444444444
 40
0.4444444444444444
 40
0.5555555555555556
 40
0.5555555555555556
 40
0.5555555555555556
 40
0.5555555555555556
 40
0.6666666666666666
 40
0.6666666666666666
 40
0.6666666666666666
 40
0.6666666666666666
 40
0.7777777777777778
 40
0.7777777777777778
 40
0.7777777777777778
 40
0.7777777777777778
 40
1.0
 40
1.0
 40
1.0
 40
1.0
 10
-29.0521
 20
-8.4159
 30
0.0
 10
-28.5521
 20
-8.4163
 30
0.0
 10
-28.2194
 20
-8.3578
 30
0.0
 10
-28.0534
 20
-8.2411
 30
0.0
 10
-28.0534
 20
-8.2411
 30
0.0
 10
-27.888
 20
-8.1242
 30
0.0
 10
-27.8048
 20
-7.9802
 30
0.0
 10
-27.8046
 20
-7.8086
 30
0.0
 10
-27.8046
 20
-7.8086
 30
0.0
 10
-27.8045
 20
-7.6363
 30
0.0
 10
-27.888
 20
-7.4923
 30
0.0
 10
-28.0539
 20
-7.3751
 30
0.0
 10
-28.0539
 20
-7.3751
 30
0.0
 10
-28.2197
 20
-7.2578
 30
0.0
 10
-28.5524
 20
-7.1986
 30
0.0
 10
-29.0509
 20
-7.1981
 30
0.0
 10
-29.0509
 20
-7.1981
 30
0.0
 10
-29.5524
 20
-7.1975
 30
0.0
 10
-29.8858
 20
-7.2562
 30
0.0
 10
-30.0504
 20
-7.373
 30
0.0
 10
-30.0504
 20
-7.373
 30
0.0
 10
-30.2158
 20
-7.4899
 30
0.0
 10
-30.2982
 20
-7.6351
 30
0.0
 10
-30.2983
 20
-7.8096
 30
0.0
 10
-30.2983
 20
-7.8096
 30
0.0
 10
-30.2985
 20
-7.9819
 30
0.0
 10
-30.2256
 20
-8.119
 30
0.0
 10
-30.0804
 20
-8.222
 30
0.0
 10
-30.0804
 20
-8.222
 30
0.0
 10
-29.8954
 20
-8.3504
 30
0.0
 10
-29.5521
 20
-8.4153
 30
0.0
 10
-29.0521
 20
-8.4159
 30
0.0
  0
SPLINE
  5
46
330
1F
100
AcDbEntity
  8
ROUND
 62
   250
100
AcDbSpline
210
0.0
220
0.0
230
1.0
 70
    11
 71
     3
 72
    52
 73
    48
 74
     0
 42
0.0000000001
 43
0.0000000001
 40
0.0
 40
0.0
 40
0.0
 40
0.0
 40
0.0769230769230769
 40
0.0769230769230769
 40
0.0769230769230769
 40
0.0769230769230769
 40
0.1538461538461539
 40
0.1538461538461539
 40
0.1538461538461539
 40
0.1538461538461539
 40
0.2307692307692308
 40
0.2307692307692308
 40
0.2307692307692308
 40
0.2307692307692308
 40
0.3076923076923077
 40
0.3076923076923077
 40
0.3076923076923077
 40
0.3076923076923077
 40
0.3846153846153846
 40
0.3846153846153846
 40
0.3846153846153846
 40
0.3846153846153846
 40
0.4615384615384616
 40
0.4615384615384616
 40
0.4615384615384616
 40
0.4615384615384616
 40
0.5384615384615384
 40
0.5384615384615384
 40
0.5384615384615384
 40
0.5384615384615384
 40
0.6153846153846154
 40
0.6153846153846154
 40
0.6153846153846154
 40
0.6153846153846154
 40
0.6923076923076923
 40
0.6923076923076923
 40
0.6923076923076923
 40
0.6923076923076923
 40
0.7692307692307693
 40
0.7692307692307693
 40
0.7692307692307693
 40
0.7692307692307693
 40
0.8461538461538461
 40
0.8461538461538461
 40
0.8461538461538461
 40
0.8461538461538461
 40
1.0
 40
1.0
 40
1.0
 40
1.0
 10
-29.05
 20
-6.4336
 30
0.0
 10
-29.4103
 20
-6.4332
 30
0.0
 10
-29.7005
 20
-6.3959
 30
0.0
 10
-29.9195
 20
-6.3213
 30
0.0
 10
-29.9195
 20
-6.3213
 30
0.0
 10
-30.1392
 20
-6.2473
 30
0.0
 10
-30.3086
 20
-6.1364
 30
0.0
 10
-30.4277
 20
-5.9902
 30
0.0
 10
-30.4277
 20
-5.9902
 30
0.0
 10
-30.5467
 20
-5.8441
 30
0.0
 10
-30.6061
 20
-5.6603
 30
0.0
 10
-30.6059
 20
-5.4391
 30
0.0
 10
-30.6059
 20
-5.4391
 30
0.0
 10
-30.6058
 20
-5.2751
 30
0.0
 10
-30.5723
 20
-5.1319
 30
0.0
 10
-30.5061
 20
-5.0087
 30
0.0
 10
-30.5061
 20
-5.0087
 30
0.0
 10
-30.4408
 20
-4.8852
 30
0.0
 10
-30.3455
 20
-4.7839
 30
0.0
 10
-30.2214
 20
-4.7032
 30
0.0
 10
-30.2214
 20
-4.7032
 30
0.0
 10
-30.0972
 20
-4.6233
 30
0.0
 10
-29.9461
 20
-4.5603
 30
0.0
 10
-29.768
 20
-4.515
 30
0.0
 10
-29.768
 20
-4.515
 30
0.0
 10
-29.5899
 20
-4.469
 30
0.0
 10
-29.3502
 20
-4.4467
 30
0.0
 10
-29.048
 20
-4.447
 30
0.0
 10
-29.048
 20
-4.447
 30
0.0
 10
-28.6906
 20
-4.4473
 30
0.0
 10
-28.4026
 20
-4.4844
 30
0.0
 10
-28.183
 20
-4.5579
 30
0.0
 10
-28.183
 20
-4.5579
 30
0.0
 10
-27.9631
 20
-4.6317
 30
0.0
 10
-27.7938
 20
-4.7418
 30
0.0
 10
-27.674
 20
-4.8881
 30
0.0
 10
-27.674
 20
-4.8881
 30
0.0
 10
-27.5543
 20
-5.0343
 30
0.0
 10
-27.4949
 20
-5.2188
 30
0.0
 10
-27.4952
 20
-5.4422
 30
0.0
 10
-27.4952
 20
-5.4422
 30
0.0
 10
-27.4955
 20
-5.7358
 30
0.0
 10
-27.6006
 20
-5.9663
 30
0.0
 10
-27.8114
 20
-6.1334
 30
0.0
 10
-27.8114
 20
-6.1334
 30
0.0
 10
-28.0649
 20
-6.3338
 30
0.0
 10
-28.4783
 20
-6.4342
 30
0.0
 10
-29.05
 20
-6.4336
 30
0.0
  0
SPLINE
  5
47
330
1F
100
AcDbEntity
  8
ROUND
 62
   250
100
AcDbSpline
210
0.0
220
0.0
230
1.0
 70
    11
 71
     3
 72
    36
 73
    32
 74
     0
 42
0.0000000001
 43
0.0000000001
 40
0.0
 40
0.0
 40
0.0
 40
0.0
 40
0.1111111111111111
 40
0.1111111111111111
 40
0.1111111111111111
 40
0.1111111111111111
 40
0.2222222222222222
 40
0.2222222222222222
 40
0.2222222222222222
 40
0.2222222222222222
 40
0.3333333333333333
 40
0.3333333333333333
 40
0.3333333333333333
 40
0.3333333333333333
 40
0.4444444444444444
 40
0.4444444444444444
 40
0.4444444444444444
 40
0.4444444444444444
 40
0.5555555555555556
 40
0.5555555555555556
 40
0.5555555555555556
 40
0.5555555555555556
 40
0.6666666666666666
 40
0.6666666666666666
 40
0.6666666666666666
 40
0.6666666666666666
 40
0.7777777777777778
 40
0.7777777777777778
 40
0.7777777777777778
 40
0.7777777777777778
 40
1.0
 40
1.0
 40
1.0
 40
1.0
 10
-29.0497
 20
-6.0491
 30
0.0
 10
-28.5497
 20
-6.0496
 30
0.0
 10
-28.2169
 20
-5.9911
 30
0.0
 10
-28.051
 20
-5.8744
 30
0.0
 10
-28.051
 20
-5.8744
 30
0.0
 10
-27.8856
 20
-5.7575
 30
0.0
 10
-27.8024
 20
-5.6135
 30
0.0
 10
-27.8022
 20
-5.4419
 30
0.0
 10
-27.8022
 20
-5.4419
 30
0.0
 10
-27.8019
 20
-5.2696
 30
0.0
 10
-27.8855
 20
-5.1256
 30
0.0
 10
-28.0515
 20
-5.0084
 30
0.0
 10
-28.0515
 20
-5.0084
 30
0.0
 10
-28.2173
 20
-4.8911
 30
0.0
 10
-28.5498
 20
-4.8318
 30
0.0
 10
-29.0483
 20
-4.8314
 30
0.0
 10
-29.0483
 20
-4.8314
 30
0.0
 10
-29.5498
 20
-4.8308
 30
0.0
 10
-29.8834
 20
-4.8894
 30
0.0
 10
-30.048
 20
-5.0063
 30
0.0
 10
-30.048
 20
-5.0063
 30
0.0
 10
-30.2133
 20
-5.1232
 30
0.0
 10
-30.2956
 20
-5.2684
 30
0.0
 10
-30.2959
 20
-5.4428
 30
0.0
 10
-30.2959
 20
-5.4428
 30
0.0
 10
-30.2961
 20
-5.6152
 30
0.0
 10
-30.2232
 20
-5.7522
 30
0.0
 10
-30.0779
 20
-5.8552
 30
0.0
 10
-30.0779
 20
-5.8552
 30
0.0
 10
-29.8929
 20
-5.9837
 30
0.0
 10
-29.5497
 20
-6.0485
 30
0.0
 10
-29.0497
 20
-6.0491
 30
0.0
  0
SPLINE
  5
48
330
1F
100
AcDbEntity
  8
ROUND
 62
   250
100
AcDbSpline
210
0.0
220
0.0
230
1.0
 70
    24
 71
     3
 72
     8
 73
     4
 74
     0
 42
0.0000000001
 43
0.0000000001
 40
0.0
 40
0.0
 40
0.0
 40
0.0
 40
1.0
 40
1.0
 40
1.0
 40
1.0
 10
-26.912
 20
16.7961
 30
0.0
 10
-26.912
 20
16.7961
 30
0.0
 10
-26.912
 20
-32.9031
 30
0.0
 10
-26.912
 20
-32.9031
 30
0.0
  0
SPLINE
  5
49
330
1F
100
AcDbEntity
  8
ROUND
 62
   250
100
AcDbSpline
210
0.0
220
0.0
230
1.0
 70
    11
 71
     3
 72
    20
 73
    16
 74
     0
 42
0.0000000001
 43
0.0000000001
 40
0.0
 40
0.0
 40
0.0
 40
0.0
 40
0.2
 40
0.2
 40
0.2
 40
0.2
 40
0.4
 40
0.4
 40
0.4
 40
0.4
 40
0.6
 40
0.6
 40
0.6
 40
0.6
 40
1.0
 40
1.0
 40
1.0
 40
1.0
 10
-26.166
 20
12.853
 30
0.0
 10
-26.166
 20
12.853
 30
0.0
 10
-26.7582
 20
17.3618
 30
0.0
 10
-26.7582
 20
17.3618
 30
0.0
 10
-26.7582
 20
17.3618
 30
0.0
 10
-26.7582
 20
17.3618
 30
0.0
 10
-26.9961
 20
17.3608
 30
0.0
 10
-26.9961
 20
17.3608
 30
0.0
 10
-26.9961
 20
17.3608
 30
0.0
 10
-26.9961
 20
17.3608
 30
0.0
 10
-27.6795
 20
12.838
 30
0.0
 10
-27.6795
 20
12.838
 30
0.0
 10
-27.6795
 20
12.838
 30
0.0
 10
-27.6795
 20
12.838
 30
0.0
 10
-26.166
 20
12.853
 30
0.0
 10
-26.166
 20
12.853
 30
0.0
  0
SPLINE
  5
4A
330
1F
100
AcDbEntity
  8
ROUND
 62
   250
100
AcDbSpline
210
0.0
220
0.0
230
1.0
 70
    11
 71
     3
 72
    20
 73
    16
 74
     0
 42
0.0000000001
 43
0.0000000001
 40
0.0
 40
0.0
 40
0.0
 40
0.0
 40
0.2
 40
0.2
 40
0.2
 40
0.2
 40
0.4
 40
0.4
 40
0.4
 40
0.4
 40
0.6
 40
0.6
 40
0.6
 40
0.6
 40
1.0
 40
1.0
 40
1.0
 40
1.0
 10
-27.6593
 20
-28.5595
 30
0.0
 10
-27.6593
 20
-28.5595
 30
0.0
 10
-27.0671
 20
-33.0679
 30
0.0
 10
-27.0671
 20
-33.0679
 30
0.0
 10
-27.0671
 20
-33.0679
 30
0.0
 10
-27.0671
 20
-33.0679
 30
0.0
 10
-26.8292
 20
-33.0669
 30
0.0
 10
-26.8292
 20
-33.0669
 30
0.0
 10
-26.8292
 20
-33.0669
 30
0.0
 10
-26.8292
 20
-33.0669
 30
0.0
 10
-26.1458
 20
-28.5442
 30
0.0
 10
-26.1458
 20
-28.5442
 30
0.0
 10
-26.1458
 20
-28.5442
 30
0.0
 10
-26.1458
 20
-28.5442
 30
0.0
 10
-27.6593
 20
-28.5595
 30
0.0
 10
-27.6593
 20
-28.5595
 30
0.0
  0
SPLINE
  5
4B
330
1F
100
AcDbEntity
  8
ROUND
 62
   250
100
AcDbSpline
210
0.0
220
0.0
230
1.0
 70
    24
 71
     3
 72
     8
 73
     4
 74
     0
 42
0.0000000001
 43
0.0000000001
 40
0.0
 40
0.0
 40
0.0
 40
0.0
 40
1.0
 40
1.0
 40
1.0
 40
1.0
 10
-1.3834
 20
17.5016
 30
0.0
 10
-1.3834
 20
17.5016
 30
0.0
 10
-27.67
 20
17.5016
 30
0.0
 10
-27.67
 20
17.5016
 30
0.0
  0
SPLINE
  5
4C
330
1F
100
AcDbEntity
  8
ROUND
 62
   250
100
AcDbSpline
210
0.0
220
0.0
230
1.0
 70
    24
 71
     3
 72
     8
 73
     4
 74
     0
 42
0.0000000001
 43
0.0000000001
 40
0.0
 40
0.0
 40
0.0
 40
0.0
 40
1.0
 40
1.0
 40
1.0
 40
1.0
 10
-18.4
 20
-33.2251
 30
0.0
 10
-18.4
 20
-33.2251
 30
0.0
 10
-27.8646
 20
-33.2251
 30
0.0
 10
-27.8646
 20
-33.2251
 30
0.0
  0
SPLINE
  5
4D
330
1F
100
AcDbEntity
  8
ROUND
 62
   250
100
AcDbSpline
210
0.0
220
0.0
230
1.0
 70
    24
 71
     3
 72
     8
 73
     4
 74
     0
 42
0.0000000001
 43
0.0000000001
 40
0.0
 40
0.0
 40
0.0
 40
0.0
 40
1.0
 40
1.0
 40
1.0
 40
1.0
 10
30.6109
 20
28.3708
 30
0.0
 10
30.6109
 20
28.3708
 30
0.0
 10
22.7521
 20
28.3708
 30
0.0
 10
22.7521
 20
28.3708
 30
0.0
  0
SPLINE
  5
4E
330
1F
100
AcDbEntity
  8
ROUND
 62
   250
100
AcDbSpline
210
0.0
220
0.0
230
1.0
 70
    11
 71
     3
 72
    84
 73
    80
 74
     0
 42
0.0000000001
 43
0.0000000001
 40
0.0
 40
0.0
 40
0.0
 40
0.0
 40
0.0476190476190476
 40
0.0476190476190476
 40
0.0476190476190476
 40
0.0476190476190476
 40
0.0952380952380952
 40
0.0952380952380952
 40
0.0952380952380952
 40
0.0952380952380952
 40
0.1428571428571428
 40
0.1428571428571428
 40
0.1428571428571428
 40
0.1428571428571428
 40
0.1904761904761905
 40
0.1904761904761905
 40
0.1904761904761905
 40
0.1904761904761905
 40
0.2380952380952381
 40
0.2380952380952381
 40
0.2380952380952381
 40
0.2380952380952381
 40
0.2857142857142857
 40
0.2857142857142857
 40
0.2857142857142857
 40
0.2857142857142857
 40
0.3333333333333333
 40
0.3333333333333333
 40
0.3333333333333333
 40
0.3333333333333333
 40
0.3809523809523809
 40
0.3809523809523809
 40
0.3809523809523809
 40
0.3809523809523809
 40
0.4285714285714285
 40
0.4285714285714285
 40
0.4285714285714285
 40
0.4285714285714285
 40
0.4761904761904762
 40
0.4761904761904762
 40
0.4761904761904762
 40
0.4761904761904762
 40
0.5238095238095238
 40
0.5238095238095238
 40
0.5238095238095238
 40
0.5238095238095238
 40
0.5714285714285714
 40
0.5714285714285714
 40
0.5714285714285714
 40
0.5714285714285714
 40
0.6190476190476191
 40
0.6190476190476191
 40
0.6190476190476191
 40
0.6190476190476191
 40
0.6666666666666666
 40
0.6666666666666666
 40
0.6666666666666666
 40
0.6666666666666666
 40
0.7142857142857143
 40
0.7142857142857143
 40
0.7142857142857143
 40
0.7142857142857143
 40
0.7619047619047619
 40
0.7619047619047619
 40
0.7619047619047619
 40
0.7619047619047619
 40
0.8095238095238095
 40
0.8095238095238095
 40
0.8095238095238095
 40
0.8095238095238095
 40
0.8571428571428571
 40
0.8571428571428571
 40
0.8571428571428571
 40
0.8571428571428571
 40
0.9047619047619048
 40
0.9047619047619048
 40
0.9047619047619048
 40
0.9047619047619048
 40
1.0
 40
1.0
 40
1.0
 40
1.0
 10
-7.4058
 20
-18.1467
 30
0.0
 10
-7.4058
 20
-18.1467
 30
0.0
 10
-7.0568
 20
-17.756
 30
0.0
 10
-7.0568
 20
-17.756
 30
0.0
 10
-7.0568
 20
-17.756
 30
0.0
 10
-7.0568
 20
-17.756
 30
0.0
 10
-6.8512
 20
-17.9304
 30
0.0
 10
-6.8512
 20
-17.9304
 30
0.0
 10
-6.8512
 20
-17.9304
 30
0.0
 10
-6.8512
 20
-17.9304
 30
0.0
 10
-7.2165
 20
-18.3418
 30
0.0
 10
-7.2165
 20
-18.3418
 30
0.0
 10
-7.2165
 20
-18.3418
 30
0.0
 10
-7.0973
 20
-18.5191
 30
0.0
 10
-7.0172
 20
-18.6744
 30
0.0
 10
-6.9753
 20
-18.8069
 30
0.0
 10
-6.9753
 20
-18.8069
 30
0.0
 10
-6.9199
 20
-18.9816
 30
0.0
 10
-6.8923
 20
-19.1773
 30
0.0
 10
-6.8923
 20
-19.3929
 30
0.0
 10
-6.8923
 20
-19.3929
 30
0.0
 10
-6.8923
 20
-19.7049
 30
0.0
 10
-6.9555
 20
-19.9829
 30
0.0
 10
-7.0817
 20
-20.2263
 30
0.0
 10
-7.0817
 20
-20.2263
 30
0.0
 10
-7.2079
 20
-20.4703
 30
0.0
 10
-7.3845
 20
-20.6547
 30
0.0
 10
-7.6122
 20
-20.7794
 30
0.0
 10
-7.6122
 20
-20.7794
 30
0.0
 10
-7.8406
 20
-20.9036
 30
0.0
 10
-8.0825
 20
-20.9659
 30
0.0
 10
-8.3385
 20
-20.9659
 30
0.0
 10
-8.3385
 20
-20.9659
 30
0.0
 10
-8.53
 20
-20.9659
 30
0.0
 10
-8.703
 20
-20.9391
 30
0.0
 10
-8.8583
 20
-20.8851
 30
0.0
 10
-8.8583
 20
-20.8851
 30
0.0
 10
-8.9775
 20
-20.8433
 30
0.0
 10
-9.1164
 20
-20.7638
 30
0.0
 10
-9.2761
 20
-20.6461
 30
0.0
 10
-9.2761
 20
-20.6461
 30
0.0
 10
-9.2761
 20
-20.6461
 30
0.0
 10
-9.625
 20
-21.0369
 30
0.0
 10
-9.625
 20
-21.0369
 30
0.0
 10
-9.625
 20
-21.0369
 30
0.0
 10
-9.625
 20
-21.0369
 30
0.0
 10
-9.8307
 20
-20.8625
 30
0.0
 10
-9.8307
 20
-20.8625
 30
0.0
 10
-9.8307
 20
-20.8625
 30
0.0
 10
-9.8307
 20
-20.8625
 30
0.0
 10
-9.4647
 20
-20.4532
 30
0.0
 10
-9.4647
 20
-20.4532
 30
0.0
 10
-9.4647
 20
-20.4532
 30
0.0
 10
-9.6009
 20
-20.2468
 30
0.0
 10
-9.6917
 20
-20.0702
 30
0.0
 10
-9.7371
 20
-19.9241
 30
0.0
 10
-9.7371
 20
-19.9241
 30
0.0
 10
-9.7824
 20
-19.778
 30
0.0
 10
-9.806
 20
-19.602
 30
0.0
 10
-9.806
 20
-19.3971
 30
0.0
 10
-9.806
 20
-19.3971
 30
0.0
 10
-9.806
 20
-19.0844
 30
0.0
 10
-9.7435
 20
-18.8056
 30
0.0
 10
-9.6187
 20
-18.5609
 30
0.0
 10
-9.6187
 20
-18.5609
 30
0.0
 10
-9.4938
 20
-18.3163
 30
0.0
 10
-9.3194
 20
-18.1311
 30
0.0
 10
-9.0938
 20
-18.0049
 30
0.0
 10
-9.0938
 20
-18.0049
 30
0.0
 10
-8.869
 20
-17.8793
 30
0.0
 10
-8.6185
 20
-17.8163
 30
0.0
 10
-8.3427
 20
-17.8163
 30
0.0
 10
-8.3427
 20
-17.8163
 30
0.0
 10
-8.157
 20
-17.8163
 30
0.0
 10
-7.9944
 20
-17.8404
 30
0.0
 10
-7.8554
 20
-17.89
 30
0.0
 10
-7.8554
 20
-17.89
 30
0.0
 10
-7.7165
 20
-17.9389
 30
0.0
 10
-7.566
 20
-18.0248
 30
0.0
 10
-7.4058
 20
-18.1467
 30
0.0
  0
SPLINE
  5
4F
330
1F
100
AcDbEntity
  8
ROUND
 62
   250
100
AcDbSpline
210
0.0
220
0.0
230
1.0
 70
    11
 71
     3
 72
    32
 73
    28
 74
     0
 42
0.0000000001
 43
0.0000000001
 40
0.0
 40
0.0
 40
0.0
 40
0.0
 40
0.125
 40
0.125
 40
0.125
 40
0.125
 40
0.25
 40
0.25
 40
0.25
 40
0.25
 40
0.375
 40
0.375
 40
0.375
 40
0.375
 40
0.5
 40
0.5
 40
0.5
 40
0.5
 40
0.625
 40
0.625
 40
0.625
 40
0.625
 40
0.75
 40
0.75
 40
0.75
 40
0.75
 40
1.0
 40
1.0
 40
1.0
 40
1.0
 10
-7.6547
 20
-18.4268
 30
0.0
 10
-7.7853
 20
-18.3247
 30
0.0
 10
-7.8994
 20
-18.2545
 30
0.0
 10
-7.9965
 20
-18.2169
 30
0.0
 10
-7.9965
 20
-18.2169
 30
0.0
 10
-8.0945
 20
-18.1801
 30
0.0
 10
-8.2094
 20
-18.161
 30
0.0
 10
-8.3406
 20
-18.161
 30
0.0
 10
-8.3406
 20
-18.161
 30
0.0
 10
-8.6442
 20
-18.161
 30
0.0
 10
-8.8945
 20
-18.2638
 30
0.0
 10
-9.093
 20
-18.4695
 30
0.0
 10
-9.093
 20
-18.4695
 30
0.0
 10
-9.2909
 20
-18.6752
 30
0.0
 10
-9.3902
 20
-18.9822
 30
0.0
 10
-9.3902
 20
-19.3914
 30
0.0
 10
-9.3902
 20
-19.3914
 30
0.0
 10
-9.3902
 20
-19.5517
 30
0.0
 10
-9.3747
 20
-19.6943
 30
0.0
 10
-9.3441
 20
-19.8192
 30
0.0
 10
-9.3441
 20
-19.8192
 30
0.0
 10
-9.3222
 20
-19.9121
 30
0.0
 10
-9.2761
 20
-20.0262
 30
0.0
 10
-9.2051
 20
-20.1616
 30
0.0
 10
-9.2051
 20
-20.1616
 30
0.0
 10
-9.2051
 20
-20.1616
 30
0.0
 10
-7.6547
 20
-18.4268
 30
0.0
 10
-7.6547
 20
-18.4268
 30
0.0
  0
SPLINE
  5
50
330
1F
100
AcDbEntity
  8
ROUND
 62
   250
100
AcDbSpline
210
0.0
220
0.0
230
1.0
 70
    11
 71
     3
 72
    28
 73
    24
 74
     0
 42
0.0000000001
 43
0.0000000001
 40
0.0
 40
0.0
 40
0.0
 40
0.0
 40
0.1428571428571428
 40
0.1428571428571428
 40
0.1428571428571428
 40
0.1428571428571428
 40
0.2857142857142857
 40
0.2857142857142857
 40
0.2857142857142857
 40
0.2857142857142857
 40
0.4285714285714285
 40
0.4285714285714285
 40
0.4285714285714285
 40
0.4285714285714285
 40
0.5714285714285714
 40
0.5714285714285714
 40
0.5714285714285714
 40
0.5714285714285714
 40
0.7142857142857143
 40
0.7142857142857143
 40
0.7142857142857143
 40
0.7142857142857143
 40
1.0
 40
1.0
 40
1.0
 40
1.0
 10
-7.4845
 20
-18.6411
 30
0.0
 10
-7.4845
 20
-18.6411
 30
0.0
 10
-9.0285
 20
-20.3695
 30
0.0
 10
-9.0285
 20
-20.3695
 30
0.0
 10
-9.0285
 20
-20.3695
 30
0.0
 10
-8.9222
 20
-20.4567
 30
0.0
 10
-8.8236
 20
-20.5178
 30
0.0
 10
-8.7336
 20
-20.5524
 30
0.0
 10
-8.7336
 20
-20.5524
 30
0.0
 10
-8.6158
 20
-20.5986
 30
0.0
 10
-8.4881
 20
-20.6213
 30
0.0
 10
-8.3512
 20
-20.6213
 30
0.0
 10
-8.3512
 20
-20.6213
 30
0.0
 10
-8.049
 20
-20.6213
 30
0.0
 10
-7.8001
 20
-20.5149
 30
0.0
 10
-7.603
 20
-20.3014
 30
0.0
 10
-7.603
 20
-20.3014
 30
0.0
 10
-7.4065
 20
-20.0879
 30
0.0
 10
-7.3079
 20
-19.7886
 30
0.0
 10
-7.3079
 20
-19.4035
 30
0.0
 10
-7.3079
 20
-19.4035
 30
0.0
 10
-7.3079
 20
-19.1156
 30
0.0
 10
-7.3669
 20
-18.8609
 30
0.0
 10
-7.4845
 20
-18.6411
 30
0.0
  0
SPLINE
  5
51
330
1F
100
AcDbEntity
  8
ROUND
 62
   250
100
AcDbSpline
210
0.0
220
0.0
230
1.0
 70
    11
 71
     3
 72
    92
 73
    88
 74
     0
 42
0.0000000001
 43
0.0000000001
 40
0.0
 40
0.0
 40
0.0
 40
0.0
 40
0.0434782608695652
 40
0.0434782608695652
 40
0.0434782608695652
 40
0.0434782608695652
 40
0.0869565217391304
 40
0.0869565217391304
 40
0.0869565217391304
 40
0.0869565217391304
 40
0.1304347826086956
 40
0.1304347826086956
 40
0.1304347826086956
 40
0.1304347826086956
 40
0.1739130434782609
 40
0.1739130434782609
 40
0.1739130434782609
 40
0.1739130434782609
 40
0.2173913043478261
 40
0.2173913043478261
 40
0.2173913043478261
 40
0.2173913043478261
 40
0.2608695652173913
 40
0.2608695652173913
 40
0.2608695652173913
 40
0.2608695652173913
 40
0.3043478260869565
 40
0.3043478260869565
 40
0.3043478260869565
 40
0.3043478260869565
 40
0.3478260869565217
 40
0.3478260869565217
 40
0.3478260869565217
 40
0.3478260869565217
 40
0.391304347826087
 40
0.391304347826087
 40
0.391304347826087
 40
0.391304347826087
 40
0.4347826086956522
 40
0.4347826086956522
 40
0.4347826086956522
 40
0.4347826086956522
 40
0.4782608695652174
 40
0.4782608695652174
 40
0.4782608695652174
 40
0.4782608695652174
 40
0.5217391304347826
 40
0.5217391304347826
 40
0.5217391304347826
 40
0.5217391304347826
 40
0.5652173913043478
 40
0.5652173913043478
 40
0.5652173913043478
 40
0.5652173913043478
 40
0.6086956521739131
 40
0.6086956521739131
 40
0.6086956521739131
 40
0.6086956521739131
 40
0.6521739130434783
 40
0.6521739130434783
 40
0.6521739130434783
 40
0.6521739130434783
 40
0.6956521739130435
 40
0.6956521739130435
 40
0.6956521739130435
 40
0.6956521739130435
 40
0.7391304347826086
 40
0.7391304347826086
 40
0.7391304347826086
 40
0.7391304347826086
 40
0.782608695652174
 40
0.782608695652174
 40
0.782608695652174
 40
0.782608695652174
 40
0.8260869565217391
 40
0.8260869565217391
 40
0.8260869565217391
 40
0.8260869565217391
 40
0.8695652173913043
 40
0.8695652173913043
 40
0.8695652173913043
 40
0.8695652173913043
 40
0.9130434782608695
 40
0.9130434782608695
 40
0.9130434782608695
 40
0.9130434782608695
 40
1.0
 40
1.0
 40
1.0
 40
1.0
 10
-6.4603
 20
-20.2099
 30
0.0
 10
-6.4603
 20
-20.2099
 30
0.0
 10
-6.1009
 20
-20.1765
 30
0.0
 10
-6.1009
 20
-20.1765
 30
0.0
 10
-6.1009
 20
-20.1765
 30
0.0
 10
-6.0702
 20
-20.3454
 30
0.0
 10
-6.0122
 20
-20.468
 30
0.0
 10
-5.9264
 20
-20.5446
 30
0.0
 10
-5.9264
 20
-20.5446
 30
0.0
 10
-5.8405
 20
-20.6206
 30
0.0
 10
-5.7305
 20
-20.6589
 30
0.0
 10
-5.5959
 20
-20.6589
 30
0.0
 10
-5.5959
 20
-20.6589
 30
0.0
 10
-5.481
 20
-20.6589
 30
0.0
 10
-5.3803
 20
-20.6327
 30
0.0
 10
-5.2937
 20
-20.5794
 30
0.0
 10
-5.2937
 20
-20.5794
 30
0.0
 10
-5.2072
 20
-20.527
 30
0.0
 10
-5.1363
 20
-20.4567
 30
0.0
 10
-5.0809
 20
-20.3688
 30
0.0
 10
-5.0809
 20
-20.3688
 30
0.0
 10
-5.0249
 20
-20.2809
 30
0.0
 10
-4.9789
 20
-20.1616
 30
0.0
 10
-4.9412
 20
-20.0128
 30
0.0
 10
-4.9412
 20
-20.0128
 30
0.0
 10
-4.9044
 20
-19.863
 30
0.0
 10
-4.8852
 20
-19.7106
 30
0.0
 10
-4.8852
 20
-19.5553
 30
0.0
 10
-4.8852
 20
-19.5553
 30
0.0
 10
-4.8852
 20
-19.539
 30
0.0
 10
-4.8858
 20
-19.5134
 30
0.0
 10
-4.8873
 20
-19.4808
 30
0.0
 10
-4.8873
 20
-19.4808
 30
0.0
 10
-4.9624
 20
-19.5993
 30
0.0
 10
-5.0647
 20
-19.6964
 30
0.0
 10
-5.1937
 20
-19.7702
 30
0.0
 10
-5.1937
 20
-19.7702
 30
0.0
 10
-5.3236
 20
-19.8447
 30
0.0
 10
-5.4639
 20
-19.8816
 30
0.0
 10
-5.6143
 20
-19.8816
 30
0.0
 10
-5.6143
 20
-19.8816
 30
0.0
 10
-5.8668
 20
-19.8816
 30
0.0
 10
-6.0802
 20
-19.7901
 30
0.0
 10
-6.2547
 20
-19.607
 30
0.0
 10
-6.2547
 20
-19.607
 30
0.0
 10
-6.4293
 20
-19.4241
 30
0.0
 10
-6.5164
 20
-19.1836
 30
0.0
 10
-6.5164
 20
-18.8843
 30
0.0
 10
-6.5164
 20
-18.8843
 30
0.0
 10
-6.5164
 20
-18.575
 30
0.0
 10
-6.4257
 20
-18.3268
 30
0.0
 10
-6.2434
 20
-18.1382
 30
0.0
 10
-6.2434
 20
-18.1382
 30
0.0
 10
-6.0611
 20
-17.9496
 30
0.0
 10
-5.8328
 20
-17.8552
 30
0.0
 10
-5.5582
 20
-17.8552
 30
0.0
 10
-5.5582
 20
-17.8552
 30
0.0
 10
-5.3604
 20
-17.8552
 30
0.0
 10
-5.1796
 20
-17.9092
 30
0.0
 10
-5.0149
 20
-18.0155
 30
0.0
 10
-5.0149
 20
-18.0155
 30
0.0
 10
-4.8511
 20
-18.1219
 30
0.0
 10
-4.7263
 20
-18.2744
 30
0.0
 10
-4.6413
 20
-18.4716
 30
0.0
 10
-4.6413
 20
-18.4716
 30
0.0
 10
-4.5561
 20
-18.6687
 30
0.0
 10
-4.5135
 20
-18.9546
 30
0.0
 10
-4.5135
 20
-19.329
 30
0.0
 10
-4.5135
 20
-19.329
 30
0.0
 10
-4.5135
 20
-19.7177
 30
0.0
 10
-4.5555
 20
-20.0276
 30
0.0
 10
-4.6397
 20
-20.2589
 30
0.0
 10
-4.6397
 20
-20.2589
 30
0.0
 10
-4.7249
 20
-20.4893
 30
0.0
 10
-4.8504
 20
-20.6645
 30
0.0
 10
-5.0172
 20
-20.7851
 30
0.0
 10
-5.0172
 20
-20.7851
 30
0.0
 10
-5.1845
 20
-20.9057
 30
0.0
 10
-5.3795
 20
-20.9659
 30
0.0
 10
-5.6043
 20
-20.9659
 30
0.0
 10
-5.6043
 20
-20.9659
 30
0.0
 10
-5.8427
 20
-20.9659
 30
0.0
 10
-6.0369
 20
-20.9
 30
0.0
 10
-6.188
 20
-20.7673
 30
0.0
 10
-6.188
 20
-20.7673
 30
0.0
 10
-6.3391
 20
-20.6354
 30
0.0
 10
-6.4299
 20
-20.4496
 30
0.0
 10
-6.4603
 20
-20.2099
 30
0.0
  0
SPLINE
  5
52
330
1F
100
AcDbEntity
  8
ROUND
 62
   250
100
AcDbSpline
210
0.0
220
0.0
230
1.0
 70
    11
 71
     3
 72
    36
 73
    32
 74
     0
 42
0.0000000001
 43
0.0000000001
 40
0.0
 40
0.0
 40
0.0
 40
0.0
 40
0.1111111111111111
 40
0.1111111111111111
 40
0.1111111111111111
 40
0.1111111111111111
 40
0.2222222222222222
 40
0.2222222222222222
 40
0.2222222222222222
 40
0.2222222222222222
 40
0.3333333333333333
 40
0.3333333333333333
 40
0.3333333333333333
 40
0.3333333333333333
 40
0.4444444444444444
 40
0.4444444444444444
 40
0.4444444444444444
 40
0.4444444444444444
 40
0.5555555555555556
 40
0.5555555555555556
 40
0.5555555555555556
 40
0.5555555555555556
 40
0.6666666666666666
 40
0.6666666666666666
 40
0.6666666666666666
 40
0.6666666666666666
 40
0.7777777777777778
 40
0.7777777777777778
 40
0.7777777777777778
 40
0.7777777777777778
 40
1.0
 40
1.0
 40
1.0
 40
1.0
 10
-4.9291
 20
-18.8651
 30
0.0
 10
-4.9291
 20
-18.651
 30
0.0
 10
-4.986
 20
-18.48
 30
0.0
 10
-5.1001
 20
-18.3546
 30
0.0
 10
-5.1001
 20
-18.3546
 30
0.0
 10
-5.215
 20
-18.2282
 30
0.0
 10
-5.3519
 20
-18.1652
 30
0.0
 10
-5.5128
 20
-18.1652
 30
0.0
 10
-5.5128
 20
-18.1652
 30
0.0
 10
-5.6788
 20
-18.1652
 30
0.0
 10
-5.8234
 20
-18.2332
 30
0.0
 10
-5.9469
 20
-18.3688
 30
0.0
 10
-5.9469
 20
-18.3688
 30
0.0
 10
-6.0702
 20
-18.5049
 30
0.0
 10
-6.1321
 20
-18.6807
 30
0.0
 10
-6.1321
 20
-18.8964
 30
0.0
 10
-6.1321
 20
-18.8964
 30
0.0
 10
-6.1321
 20
-19.0907
 30
0.0
 10
-6.0731
 20
-19.2481
 30
0.0
 10
-5.9561
 20
-19.3695
 30
0.0
 10
-5.9561
 20
-19.3695
 30
0.0
 10
-5.8391
 20
-19.4908
 30
0.0
 10
-5.6951
 20
-19.5511
 30
0.0
 10
-5.5235
 20
-19.5511
 30
0.0
 10
-5.5235
 20
-19.5511
 30
0.0
 10
-5.3496
 20
-19.5511
 30
0.0
 10
-5.2079
 20
-19.4908
 30
0.0
 10
-5.0965
 20
-19.3695
 30
0.0
 10
-5.0965
 20
-19.3695
 30
0.0
 10
-4.9844
 20
-19.2481
 30
0.0
 10
-4.9291
 20
-19.0802
 30
0.0
 10
-4.9291
 20
-18.8651
 30
0.0
  0
SPLINE
  5
53
330
1F
100
AcDbEntity
  8
ROUND
 62
   250
100
AcDbSpline
210
0.0
220
0.0
230
1.0
 70
    11
 71
     3
 72
    52
 73
    48
 74
     0
 42
0.0000000001
 43
0.0000000001
 40
0.0
 40
0.0
 40
0.0
 40
0.0
 40
0.0769230769230769
 40
0.0769230769230769
 40
0.0769230769230769
 40
0.0769230769230769
 40
0.1538461538461539
 40
0.1538461538461539
 40
0.1538461538461539
 40
0.1538461538461539
 40
0.2307692307692308
 40
0.2307692307692308
 40
0.2307692307692308
 40
0.2307692307692308
 40
0.3076923076923077
 40
0.3076923076923077
 40
0.3076923076923077
 40
0.3076923076923077
 40
0.3846153846153846
 40
0.3846153846153846
 40
0.3846153846153846
 40
0.3846153846153846
 40
0.4615384615384616
 40
0.4615384615384616
 40
0.4615384615384616
 40
0.4615384615384616
 40
0.5384615384615384
 40
0.5384615384615384
 40
0.5384615384615384
 40
0.5384615384615384
 40
0.6153846153846154
 40
0.6153846153846154
 40
0.6153846153846154
 40
0.6153846153846154
 40
0.6923076923076923
 40
0.6923076923076923
 40
0.6923076923076923
 40
0.6923076923076923
 40
0.7692307692307693
 40
0.7692307692307693
 40
0.7692307692307693
 40
0.7692307692307693
 40
0.8461538461538461
 40
0.8461538461538461
 40
0.8461538461538461
 40
0.8461538461538461
 40
1.0
 40
1.0
 40
1.0
 40
1.0
 10
-4.1497
 20
-19.412
 30
0.0
 10
-4.1497
 20
-19.0517
 30
0.0
 10
-4.1128
 20
-18.7616
 30
0.0
 10
-4.0383
 20
-18.5425
 30
0.0
 10
-4.0383
 20
-18.5425
 30
0.0
 10
-3.9645
 20
-18.3226
 30
0.0
 10
-3.854
 20
-18.1531
 30
0.0
 10
-3.7079
 20
-18.034
 30
0.0
 10
-3.7079
 20
-18.034
 30
0.0
 10
-3.5618
 20
-17.9147
 30
0.0
 10
-3.378
 20
-17.8552
 30
0.0
 10
-3.1568
 20
-17.8552
 30
0.0
 10
-3.1568
 20
-17.8552
 30
0.0
 10
-2.9929
 20
-17.8552
 30
0.0
 10
-2.8496
 20
-17.8885
 30
0.0
 10
-2.7263
 20
-17.9546
 30
0.0
 10
-2.7263
 20
-17.9546
 30
0.0
 10
-2.6028
 20
-18.0198
 30
0.0
 10
-2.5015
 20
-18.1148
 30
0.0
 10
-2.4206
 20
-18.2389
 30
0.0
 10
-2.4206
 20
-18.2389
 30
0.0
 10
-2.3404
 20
-18.363
 30
0.0
 10
-2.2772
 20
-18.5141
 30
0.0
 10
-2.2319
 20
-18.6922
 30
0.0
 10
-2.2319
 20
-18.6922
 30
0.0
 10
-2.1859
 20
-18.8701
 30
0.0
 10
-2.1631
 20
-19.1099
 30
0.0
 10
-2.1631
 20
-19.412
 30
0.0
 10
-2.1631
 20
-19.412
 30
0.0
 10
-2.1631
 20
-19.7694
 30
0.0
 10
-2.2
 20
-20.0574
 30
0.0
 10
-2.273
 20
-20.2773
 30
0.0
 10
-2.273
 20
-20.2773
 30
0.0
 10
-2.3468
 20
-20.4971
 30
0.0
 10
-2.4567
 20
-20.6667
 30
0.0
 10
-2.6028
 20
-20.7865
 30
0.0
 10
-2.6028
 20
-20.7865
 30
0.0
 10
-2.7489
 20
-20.9063
 30
0.0
 10
-2.9333
 20
-20.9659
 30
0.0
 10
-3.1568
 20
-20.9659
 30
0.0
 10
-3.1568
 20
-20.9659
 30
0.0
 10
-3.4504
 20
-20.9659
 30
0.0
 10
-3.6809
 20
-20.8609
 30
0.0
 10
-3.8483
 20
-20.6503
 30
0.0
 10
-3.8483
 20
-20.6503
 30
0.0
 10
-4.049
 20
-20.3971
 30
0.0
 10
-4.1497
 20
-19.9837
 30
0.0
 10
-4.1497
 20
-19.412
 30
0.0
  0
SPLINE
  5
54
330
1F
100
AcDbEntity
  8
ROUND
 62
   250
100
AcDbSpline
210
0.0
220
0.0
230
1.0
 70
    11
 71
     3
 72
    36
 73
    32
 74
     0
 42
0.0000000001
 43
0.0000000001
 40
0.0
 40
0.0
 40
0.0
 40
0.0
 40
0.1111111111111111
 40
0.1111111111111111
 40
0.1111111111111111
 40
0.1111111111111111
 40
0.2222222222222222
 40
0.2222222222222222
 40
0.2222222222222222
 40
0.2222222222222222
 40
0.3333333333333333
 40
0.3333333333333333
 40
0.3333333333333333
 40
0.3333333333333333
 40
0.4444444444444444
 40
0.4444444444444444
 40
0.4444444444444444
 40
0.4444444444444444
 40
0.5555555555555556
 40
0.5555555555555556
 40
0.5555555555555556
 40
0.5555555555555556
 40
0.6666666666666666
 40
0.6666666666666666
 40
0.6666666666666666
 40
0.6666666666666666
 40
0.7777777777777778
 40
0.7777777777777778
 40
0.7777777777777778
 40
0.7777777777777778
 40
1.0
 40
1.0
 40
1.0
 40
1.0
 10
-3.7653
 20
-19.412
 30
0.0
 10
-3.7653
 20
-19.9121
 30
0.0
 10
-3.7064
 20
-20.2447
 30
0.0
 10
-3.5894
 20
-20.4106
 30
0.0
 10
-3.5894
 20
-20.4106
 30
0.0
 10
-3.4724
 20
-20.5758
 30
0.0
 10
-3.3284
 20
-20.6589
 30
0.0
 10
-3.1568
 20
-20.6589
 30
0.0
 10
-3.1568
 20
-20.6589
 30
0.0
 10
-2.9844
 20
-20.6589
 30
0.0
 10
-2.8404
 20
-20.5752
 30
0.0
 10
-2.7234
 20
-20.4092
 30
0.0
 10
-2.7234
 20
-20.4092
 30
0.0
 10
-2.6064
 20
-20.2432
 30
0.0
 10
-2.5474
 20
-19.9105
 30
0.0
 10
-2.5474
 20
-19.412
 30
0.0
 10
-2.5474
 20
-19.412
 30
0.0
 10
-2.5474
 20
-18.9105
 30
0.0
 10
-2.6064
 20
-18.5773
 30
0.0
 10
-2.7234
 20
-18.4126
 30
0.0
 10
-2.7234
 20
-18.4126
 30
0.0
 10
-2.8404
 20
-18.2474
 30
0.0
 10
-2.9858
 20
-18.1652
 30
0.0
 10
-3.1604
 20
-18.1652
 30
0.0
 10
-3.1604
 20
-18.1652
 30
0.0
 10
-3.3326
 20
-18.1652
 30
0.0
 10
-3.4695
 20
-18.2382
 30
0.0
 10
-3.5723
 20
-18.3835
 30
0.0
 10
-3.5723
 20
-18.3835
 30
0.0
 10
-3.7008
 20
-18.5687
 30
0.0
 10
-3.7653
 20
-18.912
 30
0.0
 10
-3.7653
 20
-19.412
 30
0.0
  0
SPLINE
  5
55
330
1F
100
AcDbEntity
  8
ROUND
 62
   250
100
AcDbSpline
210
0.0
220
0.0
230
1.0
 70
    24
 71
     3
 72
     8
 73
     4
 74
     0
 42
0.0000000001
 43
0.0000000001
 40
0.0
 40
0.0
 40
0.0
 40
0.0
 40
1.0
 40
1.0
 40
1.0
 40
1.0
 10
-23.7753
 20
-21.6719
 30
0.0
 10
-23.7753
 20
-21.6719
 30
0.0
 10
12.008
 20
-21.6719
 30
0.0
 10
12.008
 20
-21.6719
 30
0.0
  0
SPLINE
  5
56
330
1F
100
AcDbEntity
  8
ROUND
 62
   250
100
AcDbSpline
210
0.0
220
0.0
230
1.0
 70
    24
 71
     3
 72
     8
 73
     4
 74
     0
 42
0.0000000001
 43
0.0000000001
 40
0.0
 40
0.0
 40
0.0
 40
0.0
 40
1.0
 40
1.0
 40
1.0
 40
1.0
 10
29.0337
 20
0.2469
 30
0.0
 10
29.0337
 20
0.2469
 30
0.0
 10
29.0337
 20
34.4995
 30
0.0
 10
29.0337
 20
34.4995
 30
0.0
  0
SPLINE
  5
57
330
1F
100
AcDbEntity
  8
ROUND
 62
   250
100
AcDbSpline
210
0.0
220
0.0
230
1.0
 70
    11
 71
     3
 72
    20
 73
    16
 74
     0
 42
0.0000000001
 43
0.0000000001
 40
0.0
 40
0.0
 40
0.0
 40
0.0
 40
0.2
 40
0.2
 40
0.2
 40
0.2
 40
0.4
 40
0.4
 40
0.4
 40
0.4
 40
0.6
 40
0.6
 40
0.6
 40
0.6
 40
1.0
 40
1.0
 40
1.0
 40
1.0
 10
-22.6078
 20
-20.9859
 30
0.0
 10
-22.6078
 20
-20.9859
 30
0.0
 10
-18.0845
 20
-21.6242
 30
0.0
 10
-18.0845
 20
-21.6242
 30
0.0
 10
-18.0845
 20
-21.6242
 30
0.0
 10
-18.0845
 20
-21.6242
 30
0.0
 10
-18.0845
 20
-21.766
 30
0.0
 10
-18.0845
 20
-21.766
 30
0.0
 10
-18.0845
 20
-21.766
 30
0.0
 10
-18.0845
 20
-21.766
 30
0.0
 10
-22.6078
 20
-22.4468
 30
0.0
 10
-22.6078
 20
-22.4468
 30
0.0
 10
-22.6078
 20
-22.4468
 30
0.0
 10
-22.6078
 20
-22.4468
 30
0.0
 10
-22.6078
 20
-20.9859
 30
0.0
 10
-22.6078
 20
-20.9859
 30
0.0
  0
SPLINE
  5
58
330
1F
100
AcDbEntity
  8
ROUND
 62
   250
100
AcDbSpline
210
0.0
220
0.0
230
1.0
 70
    11
 71
     3
 72
    20
 73
    16
 74
     0
 42
0.0000000001
 43
0.0000000001
 40
0.0
 40
0.0
 40
0.0
 40
0.0
 40
0.2
 40
0.2
 40
0.2
 40
0.2
 40
0.4
 40
0.4
 40
0.4
 40
0.4
 40
0.6
 40
0.6
 40
0.6
 40
0.6
 40
1.0
 40
1.0
 40
1.0
 40
1.0
 10
9.8412
 20
-22.3653
 30
0.0
 10
9.8412
 20
-22.3653
 30
0.0
 10
5.3174
 20
-21.7269
 30
0.0
 10
5.3174
 20
-21.7269
 30
0.0
 10
5.3174
 20
-21.7269
 30
0.0
 10
5.3174
 20
-21.7269
 30
0.0
 10
5.3174
 20
-21.585
 30
0.0
 10
5.3174
 20
-21.585
 30
0.0
 10
5.3174
 20
-21.585
 30
0.0
 10
5.3174
 20
-21.585
 30
0.0
 10
9.8412
 20
-20.9042
 30
0.0
 10
9.8412
 20
-20.9042
 30
0.0
 10
9.8412
 20
-20.9042
 30
0.0
 10
9.8412
 20
-20.9042
 30
0.0
 10
9.8412
 20
-22.3653
 30
0.0
 10
9.8412
 20
-22.3653
 30
0.0
  0
SPLINE
  5
59
330
1F
100
AcDbEntity
  8
ROUND
 62
   250
100
AcDbSpline
210
0.0
220
0.0
230
1.0
 70
    24
 71
     3
 72
     8
 73
     4
 74
     0
 42
0.0000000001
 43
0.0000000001
 40
0.0
 40
0.0
 40
0.0
 40
0.0
 40
1.0
 40
1.0
 40
1.0
 40
1.0
 10
29.7755
 20
7.0026
 30
0.0
 10
29.7755
 20
7.0026
 30
0.0
 10
22.7028
 20
7.0026
 30
0.0
 10
22.7028
 20
7.0026
 30
0.0
  0
SPLINE
  5
5A
330
1F
100
AcDbEntity
  8
ROUND
 62
   250
100
AcDbSpline
210
0.0
220
0.0
230
1.0
 70
    11
 71
     3
 72
    20
 73
    16
 74
     0
 42
0.0000000001
 43
0.0000000001
 40
0.0
 40
0.0
 40
0.0
 40
0.0
 40
0.2
 40
0.2
 40
0.2
 40
0.2
 40
0.4
 40
0.4
 40
0.4
 40
0.4
 40
0.6
 40
0.6
 40
0.6
 40
0.6
 40
1.0
 40
1.0
 40
1.0
 40
1.0
 10
29.7363
 20
33.0864
 30
0.0
 10
29.7363
 20
33.0864
 30
0.0
 10
29.0981
 20
28.5629
 30
0.0
 10
29.0981
 20
28.5629
 30
0.0
 10
29.0981
 20
28.5629
 30
0.0
 10
29.0981
 20
28.5629
 30
0.0
 10
28.9563
 20
28.5629
 30
0.0
 10
28.9563
 20
28.5629
 30
0.0
 10
28.9563
 20
28.5629
 30
0.0
 10
28.9563
 20
28.5629
 30
0.0
 10
28.2755
 20
33.0864
 30
0.0
 10
28.2755
 20
33.0864
 30
0.0
 10
28.2755
 20
33.0864
 30
0.0
 10
28.2755
 20
33.0864
 30
0.0
 10
29.7363
 20
33.0864
 30
0.0
 10
29.7363
 20
33.0864
 30
0.0
  0
SPLINE
  5
5B
330
1F
100
AcDbEntity
  8
ROUND
 62
   250
100
AcDbSpline
210
0.0
220
0.0
230
1.0
 70
    11
 71
     3
 72
    20
 73
    16
 74
     0
 42
0.0000000001
 43
0.0000000001
 40
0.0
 40
0.0
 40
0.0
 40
0.0
 40
0.2
 40
0.2
 40
0.2
 40
0.2
 40
0.4
 40
0.4
 40
0.4
 40
0.4
 40
0.6
 40
0.6
 40
0.6
 40
0.6
 40
1.0
 40
1.0
 40
1.0
 40
1.0
 10
28.3268
 20
2.2251
 30
0.0
 10
28.3268
 20
2.2251
 30
0.0
 10
28.9652
 20
6.7483
 30
0.0
 10
28.9652
 20
6.7483
 30
0.0
 10
28.9652
 20
6.7483
 30
0.0
 10
28.9652
 20
6.7483
 30
0.0
 10
29.107
 20
6.7483
 30
0.0
 10
29.107
 20
6.7483
 30
0.0
 10
29.107
 20
6.7483
 30
0.0
 10
29.107
 20
6.7483
 30
0.0
 10
29.7878
 20
2.2251
 30
0.0
 10
29.7878
 20
2.2251
 30
0.0
 10
29.7878
 20
2.2251
 30
0.0
 10
29.7878
 20
2.2251
 30
0.0
 10
28.3268
 20
2.2251
 30
0.0
 10
28.3268
 20
2.2251
 30
0.0
  0
SPLINE
  5
5C
330
1F
100
AcDbEntity
  8
ROUND
  6
NEW_LINE2
 62
   250
100
AcDbSpline
210
0.0
220
0.0
230
1.0
 70
    24
 71
     3
 72
     8
 73
     4
 74
     0
 42
0.0000000001
 43
0.0000000001
 40
0.0
 40
0.0
 40
0.0
 40
0.0
 40
1.0
 40
1.0
 40
1.0
 40
1.0
 10
-6.3797
 20
-34.4995
 30
0.0
 10
-6.3797
 20
-34.4995
 30
0.0
 10
-6.3797
 20
0.9411
 30
0.0
 10
-6.3797
 20
0.9411
 30
0.0
  0
SPLINE
  5
5E
330
1F
100
AcDbEntity
  8
ROUND
 62
   250
100
AcDbSpline
210
0.0
220
0.0
230
1.0
 70
    11
 71
     3
 72
    84
 73
    80
 74
     0
 42
0.0000000001
 43
0.0000000001
 40
0.0
 40
0.0
 40
0.0
 40
0.0
 40
0.0476190476190476
 40
0.0476190476190476
 40
0.0476190476190476
 40
0.0476190476190476
 40
0.0952380952380952
 40
0.0952380952380952
 40
0.0952380952380952
 40
0.0952380952380952
 40
0.1428571428571428
 40
0.1428571428571428
 40
0.1428571428571428
 40
0.1428571428571428
 40
0.1904761904761905
 40
0.1904761904761905
 40
0.1904761904761905
 40
0.1904761904761905
 40
0.2380952380952381
 40
0.2380952380952381
 40
0.2380952380952381
 40
0.2380952380952381
 40
0.2857142857142857
 40
0.2857142857142857
 40
0.2857142857142857
 40
0.2857142857142857
 40
0.3333333333333333
 40
0.3333333333333333
 40
0.3333333333333333
 40
0.3333333333333333
 40
0.3809523809523809
 40
0.3809523809523809
 40
0.3809523809523809
 40
0.3809523809523809
 40
0.4285714285714285
 40
0.4285714285714285
 40
0.4285714285714285
 40
0.4285714285714285
 40
0.4761904761904762
 40
0.4761904761904762
 40
0.4761904761904762
 40
0.4761904761904762
 40
0.5238095238095238
 40
0.5238095238095238
 40
0.5238095238095238
 40
0.5238095238095238
 40
0.5714285714285714
 40
0.5714285714285714
 40
0.5714285714285714
 40
0.5714285714285714
 40
0.6190476190476191
 40
0.6190476190476191
 40
0.6190476190476191
 40
0.6190476190476191
 40
0.6666666666666666
 40
0.6666666666666666
 40
0.6666666666666666
 40
0.6666666666666666
 40
0.7142857142857143
 40
0.7142857142857143
 40
0.7142857142857143
 40
0.7142857142857143
 40
0.7619047619047619
 40
0.7619047619047619
 40
0.7619047619047619
 40
0.7619047619047619
 40
0.8095238095238095
 40
0.8095238095238095
 40
0.8095238095238095
 40
0.8095238095238095
 40
0.8571428571428571
 40
0.8571428571428571
 40
0.8571428571428571
 40
0.8571428571428571
 40
0.9047619047619048
 40
0.9047619047619048
 40
0.9047619047619048
 40
0.9047619047619048
 40
1.0
 40
1.0
 40
1.0
 40
1.0
 10
25.413
 20
16.1923
 30
0.0
 10
25.413
 20
16.1923
 30
0.0
 10
25.0223
 20
16.5413
 30
0.0
 10
25.0223
 20
16.5413
 30
0.0
 10
25.0223
 20
16.5413
 30
0.0
 10
25.0223
 20
16.5413
 30
0.0
 10
25.1968
 20
16.7469
 30
0.0
 10
25.1968
 20
16.7469
 30
0.0
 10
25.1968
 20
16.7469
 30
0.0
 10
25.1968
 20
16.7469
 30
0.0
 10
25.6081
 20
16.3816
 30
0.0
 10
25.6081
 20
16.3816
 30
0.0
 10
25.6081
 20
16.3816
 30
0.0
 10
25.7855
 20
16.5008
 30
0.0
 10
25.9408
 20
16.5809
 30
0.0
 10
26.0733
 20
16.6228
 30
0.0
 10
26.0733
 20
16.6228
 30
0.0
 10
26.2479
 20
16.6782
 30
0.0
 10
26.4436
 20
16.7058
 30
0.0
 10
26.6593
 20
16.7058
 30
0.0
 10
26.6593
 20
16.7058
 30
0.0
 10
26.9712
 20
16.7058
 30
0.0
 10
27.2493
 20
16.6426
 30
0.0
 10
27.4927
 20
16.5164
 30
0.0
 10
27.4927
 20
16.5164
 30
0.0
 10
27.7366
 20
16.3902
 30
0.0
 10
27.921
 20
16.2136
 30
0.0
 10
28.0457
 20
15.9859
 30
0.0
 10
28.0457
 20
15.9859
 30
0.0
 10
28.17
 20
15.7575
 30
0.0
 10
28.2323
 20
15.5156
 30
0.0
 10
28.2323
 20
15.2596
 30
0.0
 10
28.2323
 20
15.2596
 30
0.0
 10
28.2323
 20
15.0681
 30
0.0
 10
28.2054
 20
14.8951
 30
0.0
 10
28.1514
 20
14.7398
 30
0.0
 10
28.1514
 20
14.7398
 30
0.0
 10
28.1097
 20
14.6206
 30
0.0
 10
28.0302
 20
14.4817
 30
0.0
 10
27.9124
 20
14.322
 30
0.0
 10
27.9124
 20
14.322
 30
0.0
 10
27.9124
 20
14.322
 30
0.0
 10
28.3033
 20
13.9731
 30
0.0
 10
28.3033
 20
13.9731
 30
0.0
 10
28.3033
 20
13.9731
 30
0.0
 10
28.3033
 20
13.9731
 30
0.0
 10
28.1288
 20
13.7674
 30
0.0
 10
28.1288
 20
13.7674
 30
0.0
 10
28.1288
 20
13.7674
 30
0.0
 10
28.1288
 20
13.7674
 30
0.0
 10
27.7196
 20
14.1334
 30
0.0
 10
27.7196
 20
14.1334
 30
0.0
 10
27.7196
 20
14.1334
 30
0.0
 10
27.5132
 20
13.9972
 30
0.0
 10
27.3366
 20
13.9064
 30
0.0
 10
27.1905
 20
13.861
 30
0.0
 10
27.1905
 20
13.861
 30
0.0
 10
27.0444
 20
13.8157
 30
0.0
 10
26.8684
 20
13.7921
 30
0.0
 10
26.6635
 20
13.7921
 30
0.0
 10
26.6635
 20
13.7921
 30
0.0
 10
26.3508
 20
13.7921
 30
0.0
 10
26.072
 20
13.8546
 30
0.0
 10
25.8272
 20
13.9794
 30
0.0
 10
25.8272
 20
13.9794
 30
0.0
 10
25.5827
 20
14.1043
 30
0.0
 10
25.3975
 20
14.2787
 30
0.0
 10
25.2713
 20
14.5043
 30
0.0
 10
25.2713
 20
14.5043
 30
0.0
 10
25.1457
 20
14.7291
 30
0.0
 10
25.0826
 20
14.9796
 30
0.0
 10
25.0826
 20
15.2554
 30
0.0
 10
25.0826
 20
15.2554
 30
0.0
 10
25.0826
 20
15.4411
 30
0.0
 10
25.1068
 20
15.6037
 30
0.0
 10
25.1564
 20
15.7427
 30
0.0
 10
25.1564
 20
15.7427
 30
0.0
 10
25.2052
 20
15.8816
 30
0.0
 10
25.2912
 20
16.0321
 30
0.0
 10
25.413
 20
16.1923
 30
0.0
  0
SPLINE
  5
5F
330
1F
100
AcDbEntity
  8
ROUND
 62
   250
100
AcDbSpline
210
0.0
220
0.0
230
1.0
 70
    11
 71
     3
 72
    32
 73
    28
 74
     0
 42
0.0000000001
 43
0.0000000001
 40
0.0
 40
0.0
 40
0.0
 40
0.0
 40
0.125
 40
0.125
 40
0.125
 40
0.125
 40
0.25
 40
0.25
 40
0.25
 40
0.25
 40
0.375
 40
0.375
 40
0.375
 40
0.375
 40
0.5
 40
0.5
 40
0.5
 40
0.5
 40
0.625
 40
0.625
 40
0.625
 40
0.625
 40
0.75
 40
0.75
 40
0.75
 40
0.75
 40
1.0
 40
1.0
 40
1.0
 40
1.0
 10
25.6932
 20
15.9434
 30
0.0
 10
25.5911
 20
15.8128
 30
0.0
 10
25.5208
 20
15.6987
 30
0.0
 10
25.4833
 20
15.6016
 30
0.0
 10
25.4833
 20
15.6016
 30
0.0
 10
25.4465
 20
15.5036
 30
0.0
 10
25.4273
 20
15.3887
 30
0.0
 10
25.4273
 20
15.2575
 30
0.0
 10
25.4273
 20
15.2575
 30
0.0
 10
25.4273
 20
14.9539
 30
0.0
 10
25.5302
 20
14.7036
 30
0.0
 10
25.7359
 20
14.5051
 30
0.0
 10
25.7359
 20
14.5051
 30
0.0
 10
25.9415
 20
14.3072
 30
0.0
 10
26.2485
 20
14.2079
 30
0.0
 10
26.6578
 20
14.2079
 30
0.0
 10
26.6578
 20
14.2079
 30
0.0
 10
26.818
 20
14.2079
 30
0.0
 10
26.9607
 20
14.2234
 30
0.0
 10
27.0855
 20
14.254
 30
0.0
 10
27.0855
 20
14.254
 30
0.0
 10
27.1784
 20
14.2759
 30
0.0
 10
27.2926
 20
14.322
 30
0.0
 10
27.428
 20
14.393
 30
0.0
 10
27.428
 20
14.393
 30
0.0
 10
27.428
 20
14.393
 30
0.0
 10
25.6932
 20
15.9434
 30
0.0
 10
25.6932
 20
15.9434
 30
0.0
  0
SPLINE
  5
60
330
1F
100
AcDbEntity
  8
ROUND
 62
   250
100
AcDbSpline
210
0.0
220
0.0
230
1.0
 70
    11
 71
     3
 72
    28
 73
    24
 74
     0
 42
0.0000000001
 43
0.0000000001
 40
0.0
 40
0.0
 40
0.0
 40
0.0
 40
0.1428571428571428
 40
0.1428571428571428
 40
0.1428571428571428
 40
0.1428571428571428
 40
0.2857142857142857
 40
0.2857142857142857
 40
0.2857142857142857
 40
0.2857142857142857
 40
0.4285714285714285
 40
0.4285714285714285
 40
0.4285714285714285
 40
0.4285714285714285
 40
0.5714285714285714
 40
0.5714285714285714
 40
0.5714285714285714
 40
0.5714285714285714
 40
0.7142857142857143
 40
0.7142857142857143
 40
0.7142857142857143
 40
0.7142857142857143
 40
1.0
 40
1.0
 40
1.0
 40
1.0
 10
25.9074
 20
16.1136
 30
0.0
 10
25.9074
 20
16.1136
 30
0.0
 10
27.6359
 20
14.5696
 30
0.0
 10
27.6359
 20
14.5696
 30
0.0
 10
27.6359
 20
14.5696
 30
0.0
 10
27.7231
 20
14.6759
 30
0.0
 10
27.7841
 20
14.7745
 30
0.0
 10
27.8188
 20
14.8645
 30
0.0
 10
27.8188
 20
14.8645
 30
0.0
 10
27.8649
 20
14.9823
 30
0.0
 10
27.8877
 20
15.11
 30
0.0
 10
27.8877
 20
15.2469
 30
0.0
 10
27.8877
 20
15.2469
 30
0.0
 10
27.8877
 20
15.5491
 30
0.0
 10
27.7813
 20
15.798
 30
0.0
 10
27.5677
 20
15.9951
 30
0.0
 10
27.5677
 20
15.9951
 30
0.0
 10
27.3542
 20
16.1916
 30
0.0
 10
27.0549
 20
16.2902
 30
0.0
 10
26.6698
 20
16.2902
 30
0.0
 10
26.6698
 20
16.2902
 30
0.0
 10
26.382
 20
16.2902
 30
0.0
 10
26.1273
 20
16.2312
 30
0.0
 10
25.9074
 20
16.1136
 30
0.0
  0
SPLINE
  5
61
330
1F
100
AcDbEntity
  8
ROUND
 62
   250
100
AcDbSpline
210
0.0
220
0.0
230
1.0
 70
    11
 71
     3
 72
    92
 73
    88
 74
     0
 42
0.0000000001
 43
0.0000000001
 40
0.0
 40
0.0
 40
0.0
 40
0.0
 40
0.0434782608695652
 40
0.0434782608695652
 40
0.0434782608695652
 40
0.0434782608695652
 40
0.0869565217391304
 40
0.0869565217391304
 40
0.0869565217391304
 40
0.0869565217391304
 40
0.1304347826086956
 40
0.1304347826086956
 40
0.1304347826086956
 40
0.1304347826086956
 40
0.1739130434782609
 40
0.1739130434782609
 40
0.1739130434782609
 40
0.1739130434782609
 40
0.2173913043478261
 40
0.2173913043478261
 40
0.2173913043478261
 40
0.2173913043478261
 40
0.2608695652173913
 40
0.2608695652173913
 40
0.2608695652173913
 40
0.2608695652173913
 40
0.3043478260869565
 40
0.3043478260869565
 40
0.3043478260869565
 40
0.3043478260869565
 40
0.3478260869565217
 40
0.3478260869565217
 40
0.3478260869565217
 40
0.3478260869565217
 40
0.391304347826087
 40
0.391304347826087
 40
0.391304347826087
 40
0.391304347826087
 40
0.4347826086956522
 40
0.4347826086956522
 40
0.4347826086956522
 40
0.4347826086956522
 40
0.4782608695652174
 40
0.4782608695652174
 40
0.4782608695652174
 40
0.4782608695652174
 40
0.5217391304347826
 40
0.5217391304347826
 40
0.5217391304347826
 40
0.5217391304347826
 40
0.5652173913043478
 40
0.5652173913043478
 40
0.5652173913043478
 40
0.5652173913043478
 40
0.6086956521739131
 40
0.6086956521739131
 40
0.6086956521739131
 40
0.6086956521739131
 40
0.6521739130434783
 40
0.6521739130434783
 40
0.6521739130434783
 40
0.6521739130434783
 40
0.6956521739130435
 40
0.6956521739130435
 40
0.6956521739130435
 40
0.6956521739130435
 40
0.7391304347826086
 40
0.7391304347826086
 40
0.7391304347826086
 40
0.7391304347826086
 40
0.782608695652174
 40
0.782608695652174
 40
0.782608695652174
 40
0.782608695652174
 40
0.8260869565217391
 40
0.8260869565217391
 40
0.8260869565217391
 40
0.8260869565217391
 40
0.8695652173913043
 40
0.8695652173913043
 40
0.8695652173913043
 40
0.8695652173913043
 40
0.9130434782608695
 40
0.9130434782608695
 40
0.9130434782608695
 40
0.9130434782608695
 40
1.0
 40
1.0
 40
1.0
 40
1.0
 10
27.4762
 20
17.1378
 30
0.0
 10
27.4762
 20
17.1378
 30
0.0
 10
27.4429
 20
17.4972
 30
0.0
 10
27.4429
 20
17.4972
 30
0.0
 10
27.4429
 20
17.4972
 30
0.0
 10
27.6118
 20
17.5278
 30
0.0
 10
27.7344
 20
17.5859
 30
0.0
 10
27.811
 20
17.6717
 30
0.0
 10
27.811
 20
17.6717
 30
0.0
 10
27.887
 20
17.7576
 30
0.0
 10
27.9253
 20
17.8676
 30
0.0
 10
27.9253
 20
18.0022
 30
0.0
 10
27.9253
 20
18.0022
 30
0.0
 10
27.9253
 20
18.1171
 30
0.0
 10
27.899
 20
18.2178
 30
0.0
 10
27.8458
 20
18.3044
 30
0.0
 10
27.8458
 20
18.3044
 30
0.0
 10
27.7933
 20
18.3909
 30
0.0
 10
27.7231
 20
18.4618
 30
0.0
 10
27.6351
 20
18.5172
 30
0.0
 10
27.6351
 20
18.5172
 30
0.0
 10
27.5472
 20
18.5732
 30
0.0
 10
27.428
 20
18.6192
 30
0.0
 10
27.2791
 20
18.6569
 30
0.0
 10
27.2791
 20
18.6569
 30
0.0
 10
27.1294
 20
18.6937
 30
0.0
 10
26.977
 20
18.7129
 30
0.0
 10
26.8217
 20
18.7129
 30
0.0
 10
26.8217
 20
18.7129
 30
0.0
 10
26.8054
 20
18.7129
 30
0.0
 10
26.7797
 20
18.7123
 30
0.0
 10
26.7472
 20
18.7108
 30
0.0
 10
26.7472
 20
18.7108
 30
0.0
 10
26.8657
 20
18.6357
 30
0.0
 10
26.9628
 20
18.5334
 30
0.0
 10
27.0365
 20
18.4044
 30
0.0
 10
27.0365
 20
18.4044
 30
0.0
 10
27.111
 20
18.2745
 30
0.0
 10
27.148
 20
18.1342
 30
0.0
 10
27.148
 20
17.9838
 30
0.0
 10
27.148
 20
17.9838
 30
0.0
 10
27.148
 20
17.7313
 30
0.0
 10
27.0564
 20
17.5179
 30
0.0
 10
26.8734
 20
17.3434
 30
0.0
 10
26.8734
 20
17.3434
 30
0.0
 10
26.6905
 20
17.1688
 30
0.0
 10
26.45
 20
17.0817
 30
0.0
 10
26.1507
 20
17.0817
 30
0.0
 10
26.1507
 20
17.0817
 30
0.0
 10
25.8414
 20
17.0817
 30
0.0
 10
25.5932
 20
17.1724
 30
0.0
 10
25.4046
 20
17.3547
 30
0.0
 10
25.4046
 20
17.3547
 30
0.0
 10
25.2159
 20
17.537
 30
0.0
 10
25.1216
 20
17.7653
 30
0.0
 10
25.1216
 20
18.0399
 30
0.0
 10
25.1216
 20
18.0399
 30
0.0
 10
25.1216
 20
18.2377
 30
0.0
 10
25.1755
 20
18.4185
 30
0.0
 10
25.2818
 20
18.5832
 30
0.0
 10
25.2818
 20
18.5832
 30
0.0
 10
25.3883
 20
18.747
 30
0.0
 10
25.5407
 20
18.8718
 30
0.0
 10
25.738
 20
18.9568
 30
0.0
 10
25.738
 20
18.9568
 30
0.0
 10
25.935
 20
19.042
 30
0.0
 10
26.2209
 20
19.0846
 30
0.0
 10
26.5953
 20
19.0846
 30
0.0
 10
26.5953
 20
19.0846
 30
0.0
 10
26.9841
 20
19.0846
 30
0.0
 10
27.2939
 20
19.0426
 30
0.0
 10
27.5252
 20
18.9584
 30
0.0
 10
27.5252
 20
18.9584
 30
0.0
 10
27.7556
 20
18.8732
 30
0.0
 10
27.9308
 20
18.7477
 30
0.0
 10
28.0515
 20
18.5809
 30
0.0
 10
28.0515
 20
18.5809
 30
0.0
 10
28.1721
 20
18.4136
 30
0.0
 10
28.2323
 20
18.2186
 30
0.0
 10
28.2323
 20
17.9938
 30
0.0
 10
28.2323
 20
17.9938
 30
0.0
 10
28.2323
 20
17.7554
 30
0.0
 10
28.1664
 20
17.5612
 30
0.0
 10
28.0337
 20
17.4101
 30
0.0
 10
28.0337
 20
17.4101
 30
0.0
 10
27.9017
 20
17.259
 30
0.0
 10
27.716
 20
17.1682
 30
0.0
 10
27.4762
 20
17.1378
 30
0.0
  0
SPLINE
  5
62
330
1F
100
AcDbEntity
  8
ROUND
 62
   250
100
AcDbSpline
210
0.0
220
0.0
230
1.0
 70
    11
 71
     3
 72
    36
 73
    32
 74
     0
 42
0.0000000001
 43
0.0000000001
 40
0.0
 40
0.0
 40
0.0
 40
0.0
 40
0.1111111111111111
 40
0.1111111111111111
 40
0.1111111111111111
 40
0.1111111111111111
 40
0.2222222222222222
 40
0.2222222222222222
 40
0.2222222222222222
 40
0.2222222222222222
 40
0.3333333333333333
 40
0.3333333333333333
 40
0.3333333333333333
 40
0.3333333333333333
 40
0.4444444444444444
 40
0.4444444444444444
 40
0.4444444444444444
 40
0.4444444444444444
 40
0.5555555555555556
 40
0.5555555555555556
 40
0.5555555555555556
 40
0.5555555555555556
 40
0.6666666666666666
 40
0.6666666666666666
 40
0.6666666666666666
 40
0.6666666666666666
 40
0.7777777777777778
 40
0.7777777777777778
 40
0.7777777777777778
 40
0.7777777777777778
 40
1.0
 40
1.0
 40
1.0
 40
1.0
 10
26.1315
 20
18.669
 30
0.0
 10
25.9174
 20
18.669
 30
0.0
 10
25.7464
 20
18.6121
 30
0.0
 10
25.621
 20
18.498
 30
0.0
 10
25.621
 20
18.498
 30
0.0
 10
25.4946
 20
18.3831
 30
0.0
 10
25.4316
 20
18.2462
 30
0.0
 10
25.4316
 20
18.0853
 30
0.0
 10
25.4316
 20
18.0853
 30
0.0
 10
25.4316
 20
17.9193
 30
0.0
 10
25.4996
 20
17.7747
 30
0.0
 10
25.6351
 20
17.6512
 30
0.0
 10
25.6351
 20
17.6512
 30
0.0
 10
25.7713
 20
17.5278
 30
0.0
 10
25.9471
 20
17.466
 30
0.0
 10
26.1627
 20
17.466
 30
0.0
 10
26.1627
 20
17.466
 30
0.0
 10
26.3571
 20
17.466
 30
0.0
 10
26.5145
 20
17.525
 30
0.0
 10
26.6359
 20
17.642
 30
0.0
 10
26.6359
 20
17.642
 30
0.0
 10
26.7571
 20
17.759
 30
0.0
 10
26.8174
 20
17.903
 30
0.0
 10
26.8174
 20
18.0746
 30
0.0
 10
26.8174
 20
18.0746
 30
0.0
 10
26.8174
 20
18.2485
 30
0.0
 10
26.7571
 20
18.3902
 30
0.0
 10
26.6359
 20
18.5016
 30
0.0
 10
26.6359
 20
18.5016
 30
0.0
 10
26.5145
 20
18.6137
 30
0.0
 10
26.3465
 20
18.669
 30
0.0
 10
26.1315
 20
18.669
 30
0.0
  0
SPLINE
  5
63
330
1F
100
AcDbEntity
  8
ROUND
 62
   250
100
AcDbSpline
210
0.0
220
0.0
230
1.0
 70
    11
 71
     3
 72
    52
 73
    48
 74
     0
 42
0.0000000001
 43
0.0000000001
 40
0.0
 40
0.0
 40
0.0
 40
0.0
 40
0.0769230769230769
 40
0.0769230769230769
 40
0.0769230769230769
 40
0.0769230769230769
 40
0.1538461538461539
 40
0.1538461538461539
 40
0.1538461538461539
 40
0.1538461538461539
 40
0.2307692307692308
 40
0.2307692307692308
 40
0.2307692307692308
 40
0.2307692307692308
 40
0.3076923076923077
 40
0.3076923076923077
 40
0.3076923076923077
 40
0.3076923076923077
 40
0.3846153846153846
 40
0.3846153846153846
 40
0.3846153846153846
 40
0.3846153846153846
 40
0.4615384615384616
 40
0.4615384615384616
 40
0.4615384615384616
 40
0.4615384615384616
 40
0.5384615384615384
 40
0.5384615384615384
 40
0.5384615384615384
 40
0.5384615384615384
 40
0.6153846153846154
 40
0.6153846153846154
 40
0.6153846153846154
 40
0.6153846153846154
 40
0.6923076923076923
 40
0.6923076923076923
 40
0.6923076923076923
 40
0.6923076923076923
 40
0.7692307692307693
 40
0.7692307692307693
 40
0.7692307692307693
 40
0.7692307692307693
 40
0.8461538461538461
 40
0.8461538461538461
 40
0.8461538461538461
 40
0.8461538461538461
 40
1.0
 40
1.0
 40
1.0
 40
1.0
 10
26.6784
 20
19.4484
 30
0.0
 10
26.318
 20
19.4484
 30
0.0
 10
26.0279
 20
19.4853
 30
0.0
 10
25.8088
 20
19.5598
 30
0.0
 10
25.8088
 20
19.5598
 30
0.0
 10
25.589
 20
19.6336
 30
0.0
 10
25.4195
 20
19.7441
 30
0.0
 10
25.3004
 20
19.8902
 30
0.0
 10
25.3004
 20
19.8902
 30
0.0
 10
25.1811
 20
20.0363
 30
0.0
 10
25.1216
 20
20.2201
 30
0.0
 10
25.1216
 20
20.4413
 30
0.0
 10
25.1216
 20
20.4413
 30
0.0
 10
25.1216
 20
20.6052
 30
0.0
 10
25.1549
 20
20.7485
 30
0.0
 10
25.2209
 20
20.8718
 30
0.0
 10
25.2209
 20
20.8718
 30
0.0
 10
25.2862
 20
20.9953
 30
0.0
 10
25.3812
 20
21.0966
 30
0.0
 10
25.5053
 20
21.1775
 30
0.0
 10
25.5053
 20
21.1775
 30
0.0
 10
25.6294
 20
21.2577
 30
0.0
 10
25.7805
 20
21.3209
 30
0.0
 10
25.9586
 20
21.3662
 30
0.0
 10
25.9586
 20
21.3662
 30
0.0
 10
26.1365
 20
21.4122
 30
0.0
 10
26.3762
 20
21.435
 30
0.0
 10
26.6784
 20
21.435
 30
0.0
 10
26.6784
 20
21.435
 30
0.0
 10
27.0358
 20
21.435
 30
0.0
 10
27.3238
 20
21.3981
 30
0.0
 10
27.5436
 20
21.3251
 30
0.0
 10
27.5436
 20
21.3251
 30
0.0
 10
27.7635
 20
21.2513
 30
0.0
 10
27.9331
 20
21.1414
 30
0.0
 10
28.0528
 20
20.9953
 30
0.0
 10
28.0528
 20
20.9953
 30
0.0
 10
28.1727
 20
20.8492
 30
0.0
 10
28.2323
 20
20.6648
 30
0.0
 10
28.2323
 20
20.4413
 30
0.0
 10
28.2323
 20
20.4413
 30
0.0
 10
28.2323
 20
20.1477
 30
0.0
 10
28.1273
 20
19.9172
 30
0.0
 10
27.9167
 20
19.7498
 30
0.0
 10
27.9167
 20
19.7498
 30
0.0
 10
27.6635
 20
19.5491
 30
0.0
 10
27.25
 20
19.4484
 30
0.0
 10
26.6784
 20
19.4484
 30
0.0
  0
SPLINE
  5
64
330
1F
100
AcDbEntity
  8
ROUND
 62
   250
100
AcDbSpline
210
0.0
220
0.0
230
1.0
 70
    11
 71
     3
 72
    36
 73
    32
 74
     0
 42
0.0000000001
 43
0.0000000001
 40
0.0
 40
0.0
 40
0.0
 40
0.0
 40
0.1111111111111111
 40
0.1111111111111111
 40
0.1111111111111111
 40
0.1111111111111111
 40
0.2222222222222222
 40
0.2222222222222222
 40
0.2222222222222222
 40
0.2222222222222222
 40
0.3333333333333333
 40
0.3333333333333333
 40
0.3333333333333333
 40
0.3333333333333333
 40
0.4444444444444444
 40
0.4444444444444444
 40
0.4444444444444444
 40
0.4444444444444444
 40
0.5555555555555556
 40
0.5555555555555556
 40
0.5555555555555556
 40
0.5555555555555556
 40
0.6666666666666666
 40
0.6666666666666666
 40
0.6666666666666666
 40
0.6666666666666666
 40
0.7777777777777778
 40
0.7777777777777778
 40
0.7777777777777778
 40
0.7777777777777778
 40
1.0
 40
1.0
 40
1.0
 40
1.0
 10
26.6784
 20
19.8328
 30
0.0
 10
27.1784
 20
19.8328
 30
0.0
 10
27.5111
 20
19.8917
 30
0.0
 10
27.6769
 20
20.0087
 30
0.0
 10
27.6769
 20
20.0087
 30
0.0
 10
27.8422
 20
20.1257
 30
0.0
 10
27.9253
 20
20.2697
 30
0.0
 10
27.9253
 20
20.4413
 30
0.0
 10
27.9253
 20
20.4413
 30
0.0
 10
27.9253
 20
20.6137
 30
0.0
 10
27.8416
 20
20.7577
 30
0.0
 10
27.6756
 20
20.8747
 30
0.0
 10
27.6756
 20
20.8747
 30
0.0
 10
27.5095
 20
20.9917
 30
0.0
 10
27.1769
 20
21.0507
 30
0.0
 10
26.6784
 20
21.0507
 30
0.0
 10
26.6784
 20
21.0507
 30
0.0
 10
26.1769
 20
21.0507
 30
0.0
 10
25.8437
 20
20.9917
 30
0.0
 10
25.679
 20
20.8747
 30
0.0
 10
25.679
 20
20.8747
 30
0.0
 10
25.5137
 20
20.7577
 30
0.0
 10
25.4316
 20
20.6123
 30
0.0
 10
25.4316
 20
20.4377
 30
0.0
 10
25.4316
 20
20.4377
 30
0.0
 10
25.4316
 20
20.2655
 30
0.0
 10
25.5045
 20
20.1286
 30
0.0
 10
25.6499
 20
20.0258
 30
0.0
 10
25.6499
 20
20.0258
 30
0.0
 10
25.8351
 20
19.8973
 30
0.0
 10
26.1784
 20
19.8328
 30
0.0
 10
26.6784
 20
19.8328
 30
0.0
  0
SPLINE
  5
65
330
1F
100
AcDbEntity
  8
ROUND
 62
   250
100
AcDbSpline
210
0.0
220
0.0
230
1.0
 70
    24
 71
     3
 72
     8
 73
     4
 74
     0
 42
0.0000000001
 43
0.0000000001
 40
0.0
 40
0.0
 40
0.0
 40
0.0
 40
1.0
 40
1.0
 40
1.0
 40
1.0
 10
4.4623
 20
-33.354
 30
0.0
 10
4.4623
 20
-33.354
 30
0.0
 10
-17.3799
 20
-33.354
 30
0.0
 10
-17.3799
 20
-33.354
 30
0.0
  0
SPLINE
  5
66
330
1F
100
AcDbEntity
  8
ROUND
 62
   250
100
AcDbSpline
210
0.0
220
0.0
230
1.0
 70
    24
 71
     3
 72
     8
 73
     4
 74
     0
 42
0.0000000001
 43
0.0000000001
 40
0.0
 40
0.0
 40
0.0
 40
0.0
 40
1.0
 40
1.0
 40
1.0
 40
1.0
 10
-17.9684
 20
-32.3311
 30
0.0
 10
-17.9684
 20
-32.3311
 30
0.0
 10
-17.9684
 20
6.289
 30
0.0
 10
-17.9684
 20
6.289
 30
0.0
  0
SPLINE
  5
67
330
1F
100
AcDbEntity
  8
ROUND
 62
   250
100
AcDbSpline
210
0.0
220
0.0
230
1.0
 70
    24
 71
     3
 72
     8
 73
     4
 74
     0
 42
0.0000000001
 43
0.0000000001
 40
0.0
 40
0.0
 40
0.0
 40
0.0
 40
1.0
 40
1.0
 40
1.0
 40
1.0
 10
12.7232
 20
30.0753
 30
0.0
 10
12.7232
 20
30.0753
 30
0.0
 10
11.9559
 20
29.3081
 30
0.0
 10
11.9559
 20
29.3081
 30
0.0
  0
SPLINE
  5
68
330
1F
100
AcDbEntity
  8
ROUND
 62
   250
100
AcDbSpline
210
0.0
220
0.0
230
1.0
 70
    24
 71
     3
 72
     8
 73
     4
 74
     0
 42
0.0000000001
 43
0.0000000001
 40
0.0
 40
0.0
 40
0.0
 40
0.0
 40
1.0
 40
1.0
 40
1.0
 40
1.0
 10
5.0502
 20
-32.3311
 30
0.0
 10
5.0502
 20
-32.3311
 30
0.0
 10
5.0502
 20
5.5219
 30
0.0
 10
5.0502
 20
5.5219
 30
0.0
  0
SPLINE
  5
69
330
1F
100
AcDbEntity
  8
ROUND
 62
   250
100
AcDbSpline
210
0.0
220
0.0
230
1.0
 70
    24
 71
     3
 72
     8
 73
     4
 74
     0
 42
0.0000000001
 43
0.0000000001
 40
0.0
 40
0.0
 40
0.0
 40
0.0
 40
1.0
 40
1.0
 40
1.0
 40
1.0
 10
18.3484
 20
3.4755
 30
0.0
 10
18.3484
 20
3.4755
 30
0.0
 10
21.1684
 20
3.973
 30
0.0
 10
21.1684
 20
3.973
 30
0.0
  0
SPLINE
  5
6A
330
1F
100
AcDbEntity
  8
ROUND
 62
   250
100
AcDbSpline
210
0.0
220
0.0
230
1.0
 70
    24
 71
     3
 72
     8
 73
     4
 74
     0
 42
0.0000000001
 43
0.0000000001
 40
0.0
 40
0.0
 40
0.0
 40
0.0
 40
1.0
 40
1.0
 40
1.0
 40
1.0
 10
18.3484
 20
3.4755
 30
0.0
 10
18.3484
 20
3.4755
 30
0.0
 10
18.1553
 20
3.4755
 30
0.0
 10
18.1553
 20
3.4755
 30
0.0
  0
SPLINE
  5
6B
330
1F
100
AcDbEntity
  8
ROUND
 62
   250
100
AcDbSpline
210
0.0
220
0.0
230
1.0
 70
    24
 71
     3
 72
     8
 73
     4
 74
     0
 42
0.0000000001
 43
0.0000000001
 40
0.0
 40
0.0
 40
0.0
 40
0.0
 40
1.0
 40
1.0
 40
1.0
 40
1.0
 10
12.9792
 20
4.1153
 30
0.0
 10
12.9792
 20
4.1153
 30
0.0
 10
13.2348
 20
4.1153
 30
0.0
 10
13.2348
 20
4.1153
 30
0.0
  0
SPLINE
  5
6C
330
1F
100
AcDbEntity
  8
ROUND
 62
   250
100
AcDbSpline
210
0.0
220
0.0
230
1.0
 70
    24
 71
     3
 72
     8
 73
     4
 74
     0
 42
0.0000000001
 43
0.0000000001
 40
0.0
 40
0.0
 40
0.0
 40
0.0
 40
1.0
 40
1.0
 40
1.0
 40
1.0
 10
17.5259
 20
5.1383
 30
0.0
 10
17.5259
 20
5.1383
 30
0.0
 10
13.4904
 20
5.1383
 30
0.0
 10
13.4904
 20
5.1383
 30
0.0
  0
SPLINE
  5
6D
330
1F
100
AcDbEntity
  8
ROUND
 62
   250
100
AcDbSpline
210
0.0
220
0.0
230
1.0
 70
    24
 71
     3
 72
     8
 73
     4
 74
     0
 42
0.0000000001
 43
0.0000000001
 40
0.0
 40
0.0
 40
0.0
 40
0.0
 40
1.0
 40
1.0
 40
1.0
 40
1.0
 10
21.9076
 20
5.3943
 30
0.0
 10
21.9076
 20
5.3943
 30
0.0
 10
22.4407
 20
5.3943
 30
0.0
 10
22.4407
 20
5.3943
 30
0.0
  0
SPLINE
  5
6E
330
1F
100
AcDbEntity
  8
ROUND
 62
   250
100
AcDbSpline
210
0.0
220
0.0
230
1.0
 70
    24
 71
     3
 72
     8
 73
     4
 74
     0
 42
0.0000000001
 43
0.0000000001
 40
0.0
 40
0.0
 40
0.0
 40
0.0
 40
1.0
 40
1.0
 40
1.0
 40
1.0
 10
5.818
 20
6.289
 30
0.0
 10
5.818
 20
6.289
 30
0.0
 10
11.9559
 20
6.289
 30
0.0
 10
11.9559
 20
6.289
 30
0.0
  0
SPLINE
  5
6F
330
1F
100
AcDbEntity
  8
ROUND
 62
   250
100
AcDbSpline
210
0.0
220
0.0
230
1.0
 70
    24
 71
     3
 72
     8
 73
     4
 74
     0
 42
0.0000000001
 43
0.0000000001
 40
0.0
 40
0.0
 40
0.0
 40
0.0
 40
1.0
 40
1.0
 40
1.0
 40
1.0
 10
11.9559
 20
29.3081
 30
0.0
 10
11.9559
 20
29.3081
 30
0.0
 10
11.9559
 20
6.289
 30
0.0
 10
11.9559
 20
6.289
 30
0.0
  0
SPLINE
  5
70
330
1F
100
AcDbEntity
  8
ROUND
 62
   250
100
AcDbSpline
210
0.0
220
0.0
230
1.0
 70
    24
 71
     3
 72
     8
 73
     4
 74
     0
 42
0.0000000001
 43
0.0000000001
 40
0.0
 40
0.0
 40
0.0
 40
0.0
 40
1.0
 40
1.0
 40
1.0
 40
1.0
 10
17.5259
 20
30.4591
 30
0.0
 10
17.5259
 20
30.4591
 30
0.0
 10
17.6464
 20
31.6607
 30
0.0
 10
17.6464
 20
31.6607
 30
0.0
  0
SPLINE
  5
71
330
1F
100
AcDbEntity
  8
ROUND
 62
   250
100
AcDbSpline
210
0.0
220
0.0
230
1.0
 70
    24
 71
     3
 72
     8
 73
     4
 74
     0
 42
0.0000000001
 43
0.0000000001
 40
0.0
 40
0.0
 40
0.0
 40
0.0
 40
1.0
 40
1.0
 40
1.0
 40
1.0
 10
12.7232
 20
5.5219
 30
0.0
 10
12.7232
 20
5.5219
 30
0.0
 10
11.9559
 20
6.289
 30
0.0
 10
11.9559
 20
6.289
 30
0.0
  0
SPLINE
  5
72
330
1F
100
AcDbEntity
  8
ROUND
 62
   250
100
AcDbSpline
210
0.0
220
0.0
230
1.0
 70
    24
 71
     3
 72
     8
 73
     4
 74
     0
 42
0.0000000001
 43
0.0000000001
 40
0.0
 40
0.0
 40
0.0
 40
0.0
 40
1.0
 40
1.0
 40
1.0
 40
1.0
 10
17.5259
 20
5.1383
 30
0.0
 10
17.5259
 20
5.1383
 30
0.0
 10
17.5259
 20
30.4591
 30
0.0
 10
17.5259
 20
30.4591
 30
0.0
  0
SPLINE
  5
73
330
1F
100
AcDbEntity
  8
ROUND
 62
   250
100
AcDbSpline
210
0.0
220
0.0
230
1.0
 70
    24
 71
     3
 72
     8
 73
     4
 74
     0
 42
0.0000000001
 43
0.0000000001
 40
0.0
 40
0.0
 40
0.0
 40
0.0
 40
1.0
 40
1.0
 40
1.0
 40
1.0
 10
17.5259
 20
5.1383
 30
0.0
 10
17.5259
 20
5.1383
 30
0.0
 10
17.6464
 20
3.9366
 30
0.0
 10
17.6464
 20
3.9366
 30
0.0
  0
SPLINE
  5
74
330
1F
100
AcDbEntity
  8
ROUND
 62
   250
100
AcDbSpline
210
0.0
220
0.0
230
1.0
 70
    24
 71
     3
 72
     8
 73
     4
 74
     0
 42
0.0000000001
 43
0.0000000001
 40
0.0
 40
0.0
 40
0.0
 40
0.0
 40
1.0
 40
1.0
 40
1.0
 40
1.0
 10
4.4623
 20
-33.354
 30
0.0
 10
4.4623
 20
-33.354
 30
0.0
 10
5.0502
 20
-32.3311
 30
0.0
 10
5.0502
 20
-32.3311
 30
0.0
  0
SPLINE
  5
75
330
1F
100
AcDbEntity
  8
ROUND
 62
   250
100
AcDbSpline
210
0.0
220
0.0
230
1.0
 70
    24
 71
     3
 72
     8
 73
     4
 74
     0
 42
0.0000000001
 43
0.0000000001
 40
0.0
 40
0.0
 40
0.0
 40
0.0
 40
1.0
 40
1.0
 40
1.0
 40
1.0
 10
22.4407
 20
5.3943
 30
0.0
 10
22.4407
 20
5.3943
 30
0.0
 10
22.4407
 20
30.2035
 30
0.0
 10
22.4407
 20
30.2035
 30
0.0
  0
SPLINE
  5
76
330
1F
100
AcDbEntity
  8
ROUND
 62
   250
100
AcDbSpline
210
0.0
220
0.0
230
1.0
 70
    24
 71
     3
 72
     8
 73
     4
 74
     0
 42
0.0000000001
 43
0.0000000001
 40
0.0
 40
0.0
 40
0.0
 40
0.0
 40
1.0
 40
1.0
 40
1.0
 40
1.0
 10
21.5891
 20
4.4323
 30
0.0
 10
21.5891
 20
4.4323
 30
0.0
 10
21.6524
 20
5.1609
 30
0.0
 10
21.6524
 20
5.1609
 30
0.0
  0
SPLINE
  5
77
330
1F
100
AcDbEntity
  8
ROUND
 62
   250
100
AcDbSpline
210
0.0
220
0.0
230
1.0
 70
    24
 71
     3
 72
     8
 73
     4
 74
     0
 42
0.0000000001
 43
0.0000000001
 40
0.0
 40
0.0
 40
0.0
 40
0.0
 40
1.0
 40
1.0
 40
1.0
 40
1.0
 10
21.5891
 20
31.165
 30
0.0
 10
21.5891
 20
31.165
 30
0.0
 10
21.6524
 20
30.4369
 30
0.0
 10
21.6524
 20
30.4369
 30
0.0
  0
SPLINE
  5
78
330
1F
100
AcDbEntity
  8
ROUND
 62
   250
100
AcDbSpline
210
0.0
220
0.0
230
1.0
 70
    24
 71
     3
 72
     8
 73
     4
 74
     0
 42
0.0000000001
 43
0.0000000001
 40
0.0
 40
0.0
 40
0.0
 40
0.0
 40
1.0
 40
1.0
 40
1.0
 40
1.0
 10
5.0502
 20
29.3081
 30
0.0
 10
5.0502
 20
29.3081
 30
0.0
 10
11.9559
 20
29.3081
 30
0.0
 10
11.9559
 20
29.3081
 30
0.0
  0
SPLINE
  5
79
330
1F
100
AcDbEntity
  8
ROUND
 62
   250
100
AcDbSpline
210
0.0
220
0.0
230
1.0
 70
    24
 71
     3
 72
     8
 73
     4
 74
     0
 42
0.0000000001
 43
0.0000000001
 40
0.0
 40
0.0
 40
0.0
 40
0.0
 40
1.0
 40
1.0
 40
1.0
 40
1.0
 10
21.9076
 20
30.2035
 30
0.0
 10
21.9076
 20
30.2035
 30
0.0
 10
22.4407
 20
30.2035
 30
0.0
 10
22.4407
 20
30.2035
 30
0.0
  0
SPLINE
  5
7A
330
1F
100
AcDbEntity
  8
ROUND
 62
   250
100
AcDbSpline
210
0.0
220
0.0
230
1.0
 70
    24
 71
     3
 72
     8
 73
     4
 74
     0
 42
0.0000000001
 43
0.0000000001
 40
0.0
 40
0.0
 40
0.0
 40
0.0
 40
1.0
 40
1.0
 40
1.0
 40
1.0
 10
17.5259
 20
30.4591
 30
0.0
 10
17.5259
 20
30.4591
 30
0.0
 10
13.4904
 20
30.4591
 30
0.0
 10
13.4904
 20
30.4591
 30
0.0
  0
SPLINE
  5
7B
330
1F
100
AcDbEntity
  8
ROUND
 62
   250
100
AcDbSpline
210
0.0
220
0.0
230
1.0
 70
    24
 71
     3
 72
     8
 73
     4
 74
     0
 42
0.0000000001
 43
0.0000000001
 40
0.0
 40
0.0
 40
0.0
 40
0.0
 40
1.0
 40
1.0
 40
1.0
 40
1.0
 10
12.9792
 20
31.4818
 30
0.0
 10
12.9792
 20
31.4818
 30
0.0
 10
13.2348
 20
31.4818
 30
0.0
 10
13.2348
 20
31.4818
 30
0.0
  0
SPLINE
  5
7C
330
1F
100
AcDbEntity
  8
ROUND
 62
   250
100
AcDbSpline
210
0.0
220
0.0
230
1.0
 70
    24
 71
     3
 72
     8
 73
     4
 74
     0
 42
0.0000000001
 43
0.0000000001
 40
0.0
 40
0.0
 40
0.0
 40
0.0
 40
1.0
 40
1.0
 40
1.0
 40
1.0
 10
18.3484
 20
32.1216
 30
0.0
 10
18.3484
 20
32.1216
 30
0.0
 10
18.1553
 20
32.1216
 30
0.0
 10
18.1553
 20
32.1216
 30
0.0
  0
SPLINE
  5
7D
330
1F
100
AcDbEntity
  8
ROUND
 62
   250
100
AcDbSpline
210
0.0
220
0.0
230
1.0
 70
    24
 71
     3
 72
     8
 73
     4
 74
     0
 42
0.0000000001
 43
0.0000000001
 40
0.0
 40
0.0
 40
0.0
 40
0.0
 40
1.0
 40
1.0
 40
1.0
 40
1.0
 10
18.3484
 20
32.1216
 30
0.0
 10
18.3484
 20
32.1216
 30
0.0
 10
21.1684
 20
31.6243
 30
0.0
 10
21.1684
 20
31.6243
 30
0.0
  0
SPLINE
  5
7E
330
1F
100
AcDbEntity
  8
ROUND
 62
   250
100
AcDbSpline
210
0.0
220
0.0
230
1.0
 70
     8
 71
     3
 72
     8
 73
     4
 74
     0
 42
0.0000000001
 43
0.0000000001
 40
0.0
 40
0.0
 40
0.0
 40
0.0
 40
1.0
 40
1.0
 40
1.0
 40
1.0
 10
5.0502
 20
29.3081
 30
0.0
 10
-7.6624
 20
29.3081
 30
0.0
 10
-17.9684
 20
19.0021
 30
0.0
 10
-17.9684
 20
6.289
 30
0.0
  0
SPLINE
  5
7F
330
1F
100
AcDbEntity
  8
ROUND
 62
   250
100
AcDbSpline
210
0.0
220
0.0
230
1.0
 70
    24
 71
     3
 72
     8
 73
     4
 74
     0
 42
0.0000000001
 43
0.0000000001
 40
0.0
 40
0.0
 40
0.0
 40
0.0
 40
1.0
 40
1.0
 40
1.0
 40
1.0
 10
13.2348
 20
4.1153
 30
0.0
 10
13.2348
 20
4.1153
 30
0.0
 10
12.9792
 20
4.1153
 30
0.0
 10
12.9792
 20
4.1153
 30
0.0
  0
SPLINE
  5
80
330
1F
100
AcDbEntity
  8
ROUND
 62
   250
100
AcDbSpline
210
0.0
220
0.0
230
1.0
 70
    24
 71
     3
 72
     8
 73
     4
 74
     0
 42
0.0000000001
 43
0.0000000001
 40
0.0
 40
0.0
 40
0.0
 40
0.0
 40
1.0
 40
1.0
 40
1.0
 40
1.0
 10
5.818
 20
6.289
 30
0.0
 10
5.818
 20
6.289
 30
0.0
 10
11.9559
 20
6.289
 30
0.0
 10
11.9559
 20
6.289
 30
0.0
  0
SPLINE
  5
81
330
1F
100
AcDbEntity
  8
ROUND
 62
   250
100
AcDbSpline
210
0.0
220
0.0
230
1.0
 70
    24
 71
     3
 72
     8
 73
     4
 74
     0
 42
0.0000000001
 43
0.0000000001
 40
0.0
 40
0.0
 40
0.0
 40
0.0
 40
1.0
 40
1.0
 40
1.0
 40
1.0
 10
12.7232
 20
31.2263
 30
0.0
 10
12.7232
 20
31.2263
 30
0.0
 10
12.7232
 20
4.3709
 30
0.0
 10
12.7232
 20
4.3709
 30
0.0
  0
SPLINE
  5
82
330
1F
100
AcDbEntity
  8
ROUND
 62
   250
100
AcDbSpline
210
0.0
220
0.0
230
1.0
 70
    24
 71
     3
 72
     8
 73
     4
 74
     0
 42
0.0000000001
 43
0.0000000001
 40
0.0
 40
0.0
 40
0.0
 40
0.0
 40
1.0
 40
1.0
 40
1.0
 40
1.0
 10
13.4904
 20
4.3709
 30
0.0
 10
13.4904
 20
4.3709
 30
0.0
 10
13.4904
 20
31.2263
 30
0.0
 10
13.4904
 20
31.2263
 30
0.0
  0
SPLINE
  5
83
330
1F
100
AcDbEntity
  8
ROUND
 62
   250
100
AcDbSpline
210
0.0
220
0.0
230
1.0
 70
    24
 71
     3
 72
     8
 73
     4
 74
     0
 42
0.0000000001
 43
0.0000000001
 40
0.0
 40
0.0
 40
0.0
 40
0.0
 40
1.0
 40
1.0
 40
1.0
 40
1.0
 10
17.6464
 20
31.6607
 30
0.0
 10
17.6464
 20
31.6607
 30
0.0
 10
17.5259
 20
30.4591
 30
0.0
 10
17.5259
 20
30.4591
 30
0.0
  0
SPLINE
  5
84
330
1F
100
AcDbEntity
  8
ROUND
 62
   250
100
AcDbSpline
210
0.0
220
0.0
230
1.0
 70
    24
 71
     3
 72
     8
 73
     4
 74
     0
 42
0.0000000001
 43
0.0000000001
 40
0.0
 40
0.0
 40
0.0
 40
0.0
 40
1.0
 40
1.0
 40
1.0
 40
1.0
 10
21.5891
 20
4.4323
 30
0.0
 10
21.5891
 20
4.4323
 30
0.0
 10
21.5891
 20
31.165
 30
0.0
 10
21.5891
 20
31.165
 30
0.0
  0
SPLINE
  5
85
330
1F
100
AcDbEntity
  8
ROUND
 62
   250
100
AcDbSpline
210
0.0
220
0.0
230
1.0
 70
     8
 71
     3
 72
    12
 73
     8
 74
     0
 42
0.0000000001
 43
0.0000000001
 40
0.0
 40
0.0
 40
0.0
 40
0.0
 40
0.3333333333333333
 40
0.3333333333333333
 40
0.3333333333333333
 40
0.3333333333333333
 40
1.0
 40
1.0
 40
1.0
 40
1.0
 10
5.818
 20
6.289
 30
0.0
 10
5.6143
 20
6.289
 30
0.0
 10
5.4189
 20
6.2084
 30
0.0
 10
5.2755
 20
6.0644
 30
0.0
 10
5.2755
 20
6.0644
 30
0.0
 10
5.1313
 20
5.9208
 30
0.0
 10
5.0502
 20
5.7256
 30
0.0
 10
5.0502
 20
5.5219
 30
0.0
  0
SPLINE
  5
86
330
1F
100
AcDbEntity
  8
ROUND
 62
   250
100
AcDbSpline
210
0.0
220
0.0
230
1.0
 70
     8
 71
     3
 72
     8
 73
     4
 74
     0
 42
0.0000000001
 43
0.0000000001
 40
0.0
 40
0.0
 40
0.0
 40
0.0
 40
1.0
 40
1.0
 40
1.0
 40
1.0
 10
21.1684
 20
3.973
 30
0.0
 10
21.3964
 20
4.0132
 30
0.0
 10
21.5686
 20
4.2014
 30
0.0
 10
21.5891
 20
4.4323
 30
0.0
  0
SPLINE
  5
87
330
1F
100
AcDbEntity
  8
ROUND
 62
   250
100
AcDbSpline
210
0.0
220
0.0
230
1.0
 70
     8
 71
     3
 72
     8
 73
     4
 74
     0
 42
0.0000000001
 43
0.0000000001
 40
0.0
 40
0.0
 40
0.0
 40
0.0
 40
1.0
 40
1.0
 40
1.0
 40
1.0
 10
17.6464
 20
3.9366
 30
0.0
 10
17.6723
 20
3.6749
 30
0.0
 10
17.8924
 20
3.4755
 30
0.0
 10
18.1553
 20
3.4755
 30
0.0
  0
SPLINE
  5
88
330
1F
100
AcDbEntity
  8
ROUND
 62
   250
100
AcDbSpline
210
0.0
220
0.0
230
1.0
 70
     8
 71
     3
 72
     8
 73
     4
 74
     0
 42
0.0000000001
 43
0.0000000001
 40
0.0
 40
0.0
 40
0.0
 40
0.0
 40
1.0
 40
1.0
 40
1.0
 40
1.0
 10
21.9076
 20
5.3943
 30
0.0
 10
21.7752
 20
5.3943
 30
0.0
 10
21.664
 20
5.2927
 30
0.0
 10
21.6524
 20
5.1609
 30
0.0
  0
SPLINE
  5
89
330
1F
100
AcDbEntity
  8
ROUND
 62
   250
100
AcDbSpline
210
0.0
220
0.0
230
1.0
 70
     8
 71
     3
 72
     8
 73
     4
 74
     0
 42
0.0000000001
 43
0.0000000001
 40
0.0
 40
0.0
 40
0.0
 40
0.0
 40
1.0
 40
1.0
 40
1.0
 40
1.0
 10
12.7232
 20
4.3709
 30
0.0
 10
12.7232
 20
4.2296
 30
0.0
 10
12.838
 20
4.1153
 30
0.0
 10
12.9792
 20
4.1153
 30
0.0
  0
SPLINE
  5
8A
330
1F
100
AcDbEntity
  8
ROUND
 62
   250
100
AcDbSpline
210
0.0
220
0.0
230
1.0
 70
     8
 71
     3
 72
     8
 73
     4
 74
     0
 42
0.0000000001
 43
0.0000000001
 40
0.0
 40
0.0
 40
0.0
 40
0.0
 40
1.0
 40
1.0
 40
1.0
 40
1.0
 10
13.2348
 20
4.1153
 30
0.0
 10
13.3763
 20
4.1153
 30
0.0
 10
13.4904
 20
4.2296
 30
0.0
 10
13.4904
 20
4.3709
 30
0.0
  0
SPLINE
  5
8B
330
1F
100
AcDbEntity
  8
ROUND
 62
   250
100
AcDbSpline
210
0.0
220
0.0
230
1.0
 70
     8
 71
     3
 72
     8
 73
     4
 74
     0
 42
0.0000000001
 43
0.0000000001
 40
0.0
 40
0.0
 40
0.0
 40
0.0
 40
1.0
 40
1.0
 40
1.0
 40
1.0
 10
21.5891
 20
31.165
 30
0.0
 10
21.5686
 20
31.3957
 30
0.0
 10
21.3964
 20
31.5839
 30
0.0
 10
21.1684
 20
31.6243
 30
0.0
  0
SPLINE
  5
8C
330
1F
100
AcDbEntity
  8
ROUND
 62
   250
100
AcDbSpline
210
0.0
220
0.0
230
1.0
 70
     8
 71
     3
 72
     8
 73
     4
 74
     0
 42
0.0000000001
 43
0.0000000001
 40
0.0
 40
0.0
 40
0.0
 40
0.0
 40
1.0
 40
1.0
 40
1.0
 40
1.0
 10
18.1553
 20
32.1216
 30
0.0
 10
17.8924
 20
32.1216
 30
0.0
 10
17.6723
 20
31.9223
 30
0.0
 10
17.6464
 20
31.6607
 30
0.0
  0
SPLINE
  5
8D
330
1F
100
AcDbEntity
  8
ROUND
 62
   250
100
AcDbSpline
210
0.0
220
0.0
230
1.0
 70
     8
 71
     3
 72
     8
 73
     4
 74
     0
 42
0.0000000001
 43
0.0000000001
 40
0.0
 40
0.0
 40
0.0
 40
0.0
 40
1.0
 40
1.0
 40
1.0
 40
1.0
 10
21.6524
 20
30.4369
 30
0.0
 10
21.664
 20
30.3045
 30
0.0
 10
21.7752
 20
30.2035
 30
0.0
 10
21.9076
 20
30.2035
 30
0.0
  0
SPLINE
  5
8E
330
1F
100
AcDbEntity
  8
ROUND
 62
   250
100
AcDbSpline
210
0.0
220
0.0
230
1.0
 70
     8
 71
     3
 72
     8
 73
     4
 74
     0
 42
0.0000000001
 43
0.0000000001
 40
0.0
 40
0.0
 40
0.0
 40
0.0
 40
1.0
 40
1.0
 40
1.0
 40
1.0
 10
12.9792
 20
31.4818
 30
0.0
 10
12.838
 20
31.4818
 30
0.0
 10
12.7232
 20
31.3677
 30
0.0
 10
12.7232
 20
31.2263
 30
0.0
  0
SPLINE
  5
8F
330
1F
100
AcDbEntity
  8
ROUND
 62
   250
100
AcDbSpline
210
0.0
220
0.0
230
1.0
 70
     8
 71
     3
 72
     8
 73
     4
 74
     0
 42
0.0000000001
 43
0.0000000001
 40
0.0
 40
0.0
 40
0.0
 40
0.0
 40
1.0
 40
1.0
 40
1.0
 40
1.0
 10
13.4904
 20
31.2263
 30
0.0
 10
13.4904
 20
31.3677
 30
0.0
 10
13.3763
 20
31.4818
 30
0.0
 10
13.2348
 20
31.4818
 30
0.0
  0
SPLINE
  5
90
330
1F
100
AcDbEntity
  8
ROUND
 62
   250
100
AcDbSpline
210
0.0
220
0.0
230
1.0
 70
    24
 71
     3
 72
     8
 73
     4
 74
     0
 42
0.0000000001
 43
0.0000000001
 40
0.0
 40
0.0
 40
0.0
 40
0.0
 40
1.0
 40
1.0
 40
1.0
 40
1.0
 10
-17.3799
 20
-33.354
 30
0.0
 10
-17.3799
 20
-33.354
 30
0.0
 10
-17.9684
 20
-32.3311
 30
0.0
 10
-17.9684
 20
-32.3311
 30
0.0
  0
ENDSEC
  0
SECTION
  2
OBJECTS
  0
DICTIONARY
  5
C
330
0
100
AcDbDictionary
  3
ACAD_GROUP
350
D
  3
ACAD_LAYOUT
350
1A
  3
ACAD_MATERIAL
350
3B
  3
ACAD_MLEADERSTYLE
350
B3
  3
ACAD_MLINESTYLE
350
17
  3
ACAD_PLOTSETTINGS
350
19
  3
ACAD_VISUALSTYLE
350
2A
  3
ACDBHEADERROUNDTRIPXREC
350
91
  3
ACDBVARIABLEDICTIONARY
350
B1
  0
DICTIONARY
  5
D
102
{ACAD_REACTORS
330
C
102
}
330
C
100
AcDbDictionary
  0
DICTIONARY
  5
1A
102
{ACAD_REACTORS
330
C
102
}
330
C
100
AcDbDictionary
  0
DICTIONARY
  5
3B
102
{ACAD_REACTORS
330
C
102
}
330
C
100
AcDbDictionary
  3
BYBLOCK
350
3D
  3
BYLAYER
350
3C
  3
GLOBAL
350
3E
  0
DICTIONARY
  5
B3
102
{ACAD_REACTORS
330
C
102
}
330
C
100
AcDbDictionary
  0
DICTIONARY
  5
17
102
{ACAD_REACTORS
330
C
102
}
330
C
100
AcDbDictionary
  3
STANDARD
350
18
  0
DICTIONARY
  5
19
102
{ACAD_REACTORS
330
C
102
}
330
C
100
AcDbDictionary
  0
DICTIONARY
  5
2A
102
{ACAD_REACTORS
330
C
102
}
330
C
100
AcDbDictionary
  3
2DWIREFRAME
350
2F
  3
3D_HIDDEN
350
31
  3
3DWIREFRAME
350
30
  3
BASIC
350
32
  3
BRIGHTEN
350
36
  3
COLORCHANGE
350
3A
  3
CONCEPTUAL
350
34
  3
DIM
350
35
  3
FACEPATTERN
350
39
  3
FLAT
350
2B
  3
FLATWITHEDGES
350
2C
  3
GOURAUD
350
2D
  3
GOURAUDWITHEDGES
350
2E
  3
LINEPATTERN
350
38
  3
REALISTIC
350
33
  3
THICKEN
350
37
  0
DICTIONARY
  5
91
102
{ACAD_REACTORS
330
C
102
}
330
C
100
AcDbDictionary
  3
CEPSNTYPE
350
9A
  3
DIMSTYLEDATA
350
B0
  3
FINGERPRINTGUID
350
9B
  3
HYPERLINKBASE
350
94
  3
INSUNITS
350
99
  3
LAYOUTDICT
350
96
  3
LWETCUNION
350
98
  3
PLOTSETDICT
350
97
  3
PSVPSCALE
350
9D
  3
PUCSBASE
350
A0
  3
PUCSORGBACK
350
A6
  3
PUCSORGBOTTOM
350
A2
  3
PUCSORGFRONT
350
A5
  3
PUCSORGLEFT
350
A3
  3
PUCSORGRIGHT
350
A4
  3
PUCSORGTOP
350
A1
  3
PUCSORTHOREF
350
9E
  3
PUCSORTHOVIEW
350
9F
  3
STYLESHEET
350
95
  3
TSTACKALIGN
350
92
  3
TSTACKSIZE
350
93
  3
UCSBASE
350
A9
  3
UCSORGBACK
350
AF
  3
UCSORGBOTTOM
350
AB
  3
UCSORGFRONT
350
AE
  3
UCSORGLEFT
350
AC
  3
UCSORGRIGHT
350
AD
  3
UCSORGTOP
350
AA
  3
UCSORTHOREF
350
A7
  3
UCSORTHOVIEW
350
A8
  3
VERSIONGUID
350
9C
  0
DICTIONARY
  5
B1
102
{ACAD_REACTORS
330
C
102
}
330
C
100
AcDbDictionary
  3
DIMASSOC
350
B4
  3
HIDETEXT
350
B5
  0
MATERIAL
  5
3D
102
{ACAD_REACTORS
330
3B
102
}
102
{ACAD_XDICTIONARY
360
B8
102
}
330
3B
100
AcDbMaterial
  1
ByBlock
  0
MATERIAL
  5
3C
102
{ACAD_REACTORS
330
3B
102
}
102
{ACAD_XDICTIONARY
360
B6
102
}
330
3B
100
AcDbMaterial
  1
ByLayer
  0
MATERIAL
  5
3E
102
{ACAD_REACTORS
330
3B
102
}
102
{ACAD_XDICTIONARY
360
BA
102
}
330
3B
100
AcDbMaterial
  1
Global
  0
MLINESTYLE
  5
18
102
{ACAD_REACTORS
330
17
102
}
330
17
100
AcDbMlineStyle
  2
Standard
 70
     0
  3

 62
   256
 51
90.0
 52
90.0
 71
     2
 49
0.5
 62
   256
  6
BYLAYER
 49
-0.5
 62
   256
  6
BYLAYER
  0
ACAD_PROXY_OBJECT
  5
2F
102
{ACAD_REACTORS
330
2A
102
}
330
2A
100
AcDbProxyObject
 90
      499
 91
      501
 93
      436
310
42CC9915DA5C99599C985B595049028333333333333E3BF0000000000000FB0107901411070040501600405405064090741402480A0340
1001
ACAD
1000
AcDbSavedByObjectVersion
1070
     0
  0
ACAD_PROXY_OBJECT
  5
31
102
{ACAD_REACTORS
330
2A
102
}
330
2A
100
AcDbProxyObject
 90
      499
 91
      501
 93
      500
310
424CD108121A5919195B90640502408333333333333E3BF0000000000000FB01079024090700405020000000000001110200405405064090740C02480A0340
1001
ACAD
1000
AcDbSavedByObjectVersion
1070
     0
  0
ACAD_PROXY_OBJECT
  5
30
102
{ACAD_REACTORS
330
2A
102
}
330
2A
100
AcDbProxyObject
 90
      499
 91
      501
 93
      436
310
42CCD915DA5C99599C985B595059028333333333333E3BF0000000000000FB0107901411070040501600405405064090741402480A0340
1001
ACAD
1000
AcDbSavedByObjectVersion
1070
     0
  0
ACAD_PROXY_OBJECT
  5
32
102
{ACAD_REACTORS
330
2A
102
}
330
2A
100
AcDbProxyObject
 90
      499
 91
      501
 93
      388
310
4150985CDA58D07406404333333333333E3BF0000000000000FB0107A41107004050150841D405064090741402480A0350
1001
ACAD
1000
AcDbSavedByObjectVersion
1070
     0
  0
ACAD_PROXY_OBJECT
  5
36
102
{ACAD_REACTORS
330
2A
102
}
330
2A
100
AcDbProxyObject
 90
      499
 91
      501
 93
      428
310
42109C9A59DA1D195B90C409028333333333333E3BF0000000000000FB010790141107004050150841D405064090741402480A029950
1001
ACAD
1000
AcDbSavedByObjectVersion
1070
     0
  0
ACAD_PROXY_OBJECT
  5
3A
102
{ACAD_REACTORS
330
2A
102
}
330
2A
100
AcDbProxyObject
 90
      499
 91
      501
 93
      452
310
42D0DBDB1BDC90DA185B99D95104090240C333333333333E3BF0000000000000FB0108901411070040501508421405064090741402480A0350
1001
ACAD
1000
AcDbSavedByObjectVersion
1070
     0
  0
ACAD_PROXY_OBJECT
  5
34
102
{ACAD_REACTORS
330
2A
102
}
330
2A
100
AcDbProxyObject
 90
      499
 91
      501
 93
      500
310
4290DBDB98D95C1D1D585B10940D028333333333333E3BF0000000000000FB0107902409070040501000000000000111010841D405064090740C02480A0340
1001
ACAD
1000
AcDbSavedByObjectVersion
1070
     0
  0
ACAD_PROXY_OBJECT
  5
35
102
{ACAD_REACTORS
330
2A
102
}
330
2A
100
AcDbProxyObject
 90
      499
 91
      501
 93
      412
310
40D11A5B50B409028333333333333E3BF0000000000000FB010790141107004050150841D405064090741402480A02677FFFFFD0
1001
ACAD
1000
AcDbSavedByObjectVersion
1070
     0
  0
ACAD_PROXY_OBJECT
  5
39
102
{ACAD_REACTORS
330
2A
102
}
330
2A
100
AcDbProxyObject
 90
      499
 91
      501
 93
      444
310
42D19858D95C185D1D195C9B90F409028333333333333E3BF0000000000000FB010790141107004050150841D405064090741402480A0350
1001
ACAD
1000
AcDbSavedByObjectVersion
1070
     0
  0
ACAD_PROXY_OBJECT
  5
2B
102
{ACAD_REACTORS
330
2A
102
}
330
2A
100
AcDbProxyObject
 90
      499
 91
      501
 93
      388
310
41119B185D240901404333333333333E3BF0000000000000F9010740A41107004050150841D405064090741402480A1B50
1001
ACAD
1000
AcDbSavedByObjectVersion
1070
     0
  0
ACAD_PROXY_OBJECT
  5
2C
102
{ACAD_REACTORS
330
2A
102
}
330
2A
100
AcDbProxyObject
 90
      499
 91
      501
 93
      476
310
43519B185D15DA5D1A115919D95CD0140901404333333333333E3BF0000000000000F9010740901411070040501600405405064090741402480A1B50
1001
ACAD
1000
AcDbSavedByObjectVersion
1070
     0
  0
ACAD_PROXY_OBJECT
  5
2D
102
{ACAD_REACTORS
330
2A
102
}
330
2A
100
AcDbProxyObject
 90
      499
 91
      501
 93
      412
310
41D1DBDD5C985D5910240902404333333333333E3BF0000000000000F9010740A411070040501641D405064090741402480A1B50
1001
ACAD
1000
AcDbSavedByObjectVersion
1070
     0
  0
ACAD_PROXY_OBJECT
  5
2E
102
{ACAD_REACTORS
330
2A
102
}
330
2A
100
AcDbProxyObject
 90
      499
 91
      501
 93
      500
310
4411DBDD5C985D5915DA5D1A115919D95CD0340902404333333333333E3BF0000000000000F9010740901411070040501600405405064090741402480A1B50
1001
ACAD
1000
AcDbSavedByObjectVersion
1070
     0
  0
ACAD_PROXY_OBJECT
  5
38
102
{ACAD_REACTORS
330
2A
102
}
330
2A
100
AcDbProxyObject
 90
      499
 91
      501
 93
      444
310
42D31A5B995C185D1D195C9B90E409028333333333333E3BF0000000000000FB010790141107004050750841D405064090741402483A0350
1001
ACAD
1000
AcDbSavedByObjectVersion
1070
     0
  0
ACAD_PROXY_OBJECT
  5
33
102
{ACAD_REACTORS
330
2A
102
}
330
2A
100
AcDbProxyObject
 90
      499
 91
      501
 93
      420
310
425499585B1A5CDD1A58D08409028333333333333E3BF0000000000000FB01079019070040501508421405064090741402480A1B40
1001
ACAD
1000
AcDbSavedByObjectVersion
1070
     0
  0
ACAD_PROXY_OBJECT
  5
37
102
{ACAD_REACTORS
330
2A
102
}
330
2A
100
AcDbProxyObject
 90
      499
 91
      501
 93
      412
310
41D51A1A58DAD95B90D409028333333333333E3BF0000000000000FB010790141107004050150C41D405064090741402480A0350
1001
ACAD
1000
AcDbSavedByObjectVersion
1070
     0
  0
XRECORD
  5
9A
102
{ACAD_REACTORS
330
91
102
}
330
91
100
AcDbXrecord
 90
        0
  0
XRECORD
  5
B0
102
{ACAD_REACTORS
330
91
102
}
330
91
100
AcDbXrecord
1000
DSTYLE
1002
{
1070
   340
340
11
1002
}
  0
XRECORD
  5
9B
102
{ACAD_REACTORS
330
91
102
}
330
91
100
AcDbXrecord
  1
{0E81DA0A-355E-4E8A-AD3D-39C2CC832EA0}
  0
XRECORD
  5
94
102
{ACAD_REACTORS
330
91
102
}
330
91
100
AcDbXrecord
  1

  0
XRECORD
  5
99
102
{ACAD_REACTORS
330
91
102
}
330
91
100
AcDbXrecord
 90
        4
  0
XRECORD
  5
96
102
{ACAD_REACTORS
330
91
102
}
330
91
100
AcDbXrecord
340
1A
  0
XRECORD
  5
98
102
{ACAD_REACTORS
330
91
102
}
330
91
100
AcDbXrecord
 90
    10781
  0
XRECORD
  5
97
102
{ACAD_REACTORS
330
91
102
}
330
91
100
AcDbXrecord
340
19
  0
XRECORD
  5
9D
102
{ACAD_REACTORS
330
91
102
}
330
91
100
AcDbXrecord
 40
0.0
  0
XRECORD
  5
A0
102
{ACAD_REACTORS
330
91
102
}
330
91
100
AcDbXrecord
340
0
  0
XRECORD
  5
A6
102
{ACAD_REACTORS
330
91
102
}
330
91
100
AcDbXrecord
 10
0.0
 20
0.0
 30
0.0
  0
XRECORD
  5
A2
102
{ACAD_REACTORS
330
91
102
}
330
91
100
AcDbXrecord
 10
0.0
 20
0.0
 30
0.0
  0
XRECORD
  5
A5
102
{ACAD_REACTORS
330
91
102
}
330
91
100
AcDbXrecord
 10
0.0
 20
0.0
 30
0.0
  0
XRECORD
  5
A3
102
{ACAD_REACTORS
330
91
102
}
330
91
100
AcDbXrecord
 10
0.0
 20
0.0
 30
0.0
  0
XRECORD
  5
A4
102
{ACAD_REACTORS
330
91
102
}
330
91
100
AcDbXrecord
 10
0.0
 20
0.0
 30
0.0
  0
XRECORD
  5
A1
102
{ACAD_REACTORS
330
91
102
}
330
91
100
AcDbXrecord
 10
0.0
 20
0.0
 30
0.0
  0
XRECORD
  5
9E
102
{ACAD_REACTORS
330
91
102
}
330
91
100
AcDbXrecord
340
0
  0
XRECORD
  5
9F
102
{ACAD_REACTORS
330
91
102
}
330
91
100
AcDbXrecord
 70
     0
  0
XRECORD
  5
95
102
{ACAD_REACTORS
330
91
102
}
330
91
100
AcDbXrecord
  1

  0
XRECORD
  5
92
102
{ACAD_REACTORS
330
91
102
}
330
91
100
AcDbXrecord
 90
        1
  0
XRECORD
  5
93
102
{ACAD_REACTORS
330
91
102
}
330
91
100
AcDbXrecord
 90
       70
  0
XRECORD
  5
A9
102
{ACAD_REACTORS
330
91
102
}
330
91
100
AcDbXrecord
340
0
  0
XRECORD
  5
AF
102
{ACAD_REACTORS
330
91
102
}
330
91
100
AcDbXrecord
 10
0.0
 20
0.0
 30
0.0
  0
XRECORD
  5
AB
102
{ACAD_REACTORS
330
91
102
}
330
91
100
AcDbXrecord
 10
0.0
 20
0.0
 30
0.0
  0
XRECORD
  5
AE
102
{ACAD_REACTORS
330
91
102
}
330
91
100
AcDbXrecord
 10
0.0
 20
0.0
 30
0.0
  0
XRECORD
  5
AC
102
{ACAD_REACTORS
330
91
102
}
330
91
100
AcDbXrecord
 10
0.0
 20
0.0
 30
0.0
  0
XRECORD
  5
AD
102
{ACAD_REACTORS
330
91
102
}
330
91
100
AcDbXrecord
 10
0.0
 20
0.0
 30
0.0
  0
XRECORD
  5
AA
102
{ACAD_REACTORS
330
91
102
}
330
91
100
AcDbXrecord
 10
0.0
 20
0.0
 30
0.0
  0
XRECORD
  5
A7
102
{ACAD_REACTORS
330
91
102
}
330
91
100
AcDbXrecord
340
0
  0
XRECORD
  5
A8
102
{ACAD_REACTORS
330
91
102
}
330
91
100
AcDbXrecord
 70
     0
  0
XRECORD
  5
9C
102
{ACAD_REACTORS
330
91
102
}
330
91
100
AcDbXrecord
  1
{FAEB1C32-E019-11D5-929B-00C0DF256EC4}
  0
DICTIONARYVAR
  5
B4
102
{ACAD_REACTORS
330
B1
102
}
330
B1
100
DictionaryVariables
280
     0
  1
2
  0
DICTIONARYVAR
  5
B5
102
{ACAD_REACTORS
330
B1
102
}
330
B1
100
DictionaryVariables
280
     0
  1
1
  0
DICTIONARY
  5
B8
330
3D
100
AcDbDictionary
280
     1
  3
ACAD_XREC_ROUNDTRIP
360
B9
  0
DICTIONARY
  5
B6
330
3C
100
AcDbDictionary
280
     1
  3
ACAD_XREC_ROUNDTRIP
360
B7
  0
DICTIONARY
  5
BA
330
3E
100
AcDbDictionary
280
     1
  3
ACAD_XREC_ROUNDTRIP
360
BB
  0
XRECORD
  5
B9
102
{ACAD_REACTORS
330
B8
102
}
330
B8
100
AcDbXrecord
102
MATERIAL
148
0.0
149
0.0
149
0.0
 93
        0
 94
      127
282
     0
 72
     1
 77
     1
171
     1
175
     1
179
     1
273
     0
  0
XRECORD
  5
B7
102
{ACAD_REACTORS
330
B6
102
}
330
B6
100
AcDbXrecord
102
MATERIAL
148
0.0
149
0.0
149
0.0
 93
        0
 94
      127
282
     0
 72
     1
 77
     1
171
     1
175
     1
179
     1
273
     0
  0
XRECORD
  5
BB
102
{ACAD_REACTORS
330
BA
102
}
330
BA
100
AcDbXrecord
102
MATERIAL
148
0.0
149
0.0
149
0.0
 93
        0
 94
      127
282
     0
 72
     1
 77
     1
171
     1
175
     1
179
     1
273
     0
  0
ENDSEC
  0
EOF
