  0
SECTION
  2
HEADER
  9
$ACADVER
  1
AC1014
  9
$ACADMAINTVER
 70
     9
  9
$DWGCODEPAGE
  3
ANSI_1250
  9
$INSBASE
 10
0.0
 20
0.0
 30
0.0
  9
$EXTMIN
 10
-38.5246
 20
-49.602
 30
0.0
  9
$EXTMAX
 10
38.5246
 20
49.5818
 30
0.0
  9
$LIMMIN
 10
0.0
 20
0.0
  9
$LIMMAX
 10
12.0
 20
9.0
  9
$ORTHOMODE
 70
     0
  9
$REGENMODE
 70
     1
  9
$FILLMODE
 70
     1
  9
$QTEXTMODE
 70
     0
  9
$MIRRTEXT
 70
     1
  9
$DRAGMODE
 70
     2
  9
$LTSCALE
 40
1.0
  9
$OSMODE
 70
    37
  9
$ATTMODE
 70
     1
  9
$TEXTSIZE
 40
0.2
  9
$TRACEWID
 40
0.05
  9
$TEXTSTYLE
  7
STANDARD
  9
$CLAYER
  8
0
  9
$CELTYPE
  6
BYLAYER
  9
$CECOLOR
 62
   256
  9
$CELTSCALE
 40
1.0
  9
$DELOBJ
 70
     1
  9
$DISPSILH
 70
     0
  9
$DIMSCALE
 40
1.0
  9
$DIMASZ
 40
0.18
  9
$DIMEXO
 40
0.0625
  9
$DIMDLI
 40
0.38
  9
$DIMRND
 40
0.0
  9
$DIMDLE
 40
0.0
  9
$DIMEXE
 40
0.18
  9
$DIMTP
 40
0.0
  9
$DIMTM
 40
0.0
  9
$DIMTXT
 40
0.18
  9
$DIMCEN
 40
0.09
  9
$DIMTSZ
 40
0.0
  9
$DIMTOL
 70
     0
  9
$DIMLIM
 70
     0
  9
$DIMTIH
 70
     1
  9
$DIMTOH
 70
     1
  9
$DIMSE1
 70
     0
  9
$DIMSE2
 70
     0
  9
$DIMTAD
 70
     0
  9
$DIMZIN
 70
     0
  9
$DIMBLK
  1

  9
$DIMASO
 70
     1
  9
$DIMSHO
 70
     1
  9
$DIMPOST
  1

  9
$DIMAPOST
  1

  9
$DIMALT
 70
     0
  9
$DIMALTD
 70
     2
  9
$DIMALTF
 40
25.4
  9
$DIMLFAC
 40
1.0
  9
$DIMTOFL
 70
     0
  9
$DIMTVP
 40
0.0
  9
$DIMTIX
 70
     0
  9
$DIMSOXD
 70
     0
  9
$DIMSAH
 70
     0
  9
$DIMBLK1
  1

  9
$DIMBLK2
  1

  9
$DIMSTYLE
  2
STANDARD
  9
$DIMCLRD
 70
     0
  9
$DIMCLRE
 70
     0
  9
$DIMCLRT
 70
     0
  9
$DIMTFAC
 40
1.0
  9
$DIMGAP
 40
0.09
  9
$DIMJUST
 70
     0
  9
$DIMSD1
 70
     0
  9
$DIMSD2
 70
     0
  9
$DIMTOLJ
 70
     1
  9
$DIMTZIN
 70
     0
  9
$DIMALTZ
 70
     0
  9
$DIMALTTZ
 70
     0
  9
$DIMFIT
 70
     3
  9
$DIMUPT
 70
     0
  9
$DIMUNIT
 70
     2
  9
$DIMDEC
 70
     4
  9
$DIMTDEC
 70
     4
  9
$DIMALTU
 70
     2
  9
$DIMALTTD
 70
     2
  9
$DIMTXSTY
  7
STANDARD
  9
$DIMAUNIT
 70
     0
  9
$LUNITS
 70
     2
  9
$LUPREC
 70
     4
  9
$SKETCHINC
 40
0.1
  9
$FILLETRAD
 40
0.5
  9
$AUNITS
 70
     0
  9
$AUPREC
 70
     0
  9
$MENU
  1
.
  9
$ELEVATION
 40
0.0
  9
$PELEVATION
 40
0.0
  9
$THICKNESS
 40
0.0
  9
$LIMCHECK
 70
     0
  9
$CHAMFERA
 40
0.5
  9
$CHAMFERB
 40
0.5
  9
$CHAMFERC
 40
1.0
  9
$CHAMFERD
 40
0.0
  9
$SKPOLY
 70
     0
  9
$TDCREATE
 40
2456272.43005816
  9
$TDUPDATE
 40
2456272.430058172
  9
$TDINDWG
 40
0.0000000116
  9
$TDUSRTIMER
 40
0.0000000116
  9
$USRTIMER
 70
     1
  9
$ANGBASE
 50
0.0
  9
$ANGDIR
 70
     0
  9
$PDMODE
 70
     0
  9
$PDSIZE
 40
0.0
  9
$PLINEWID
 40
0.0
  9
$COORDS
 70
     1
  9
$SPLFRAME
 70
     0
  9
$SPLINETYPE
 70
     6
  9
$SPLINESEGS
 70
     8
  9
$ATTDIA
 70
     0
  9
$ATTREQ
 70
     1
  9
$HANDLING
 70
     1
  9
$HANDSEED
  5
12B
  9
$SURFTAB1
 70
     6
  9
$SURFTAB2
 70
     6
  9
$SURFTYPE
 70
     6
  9
$SURFU
 70
     6
  9
$SURFV
 70
     6
  9
$UCSNAME
  2

  9
$UCSORG
 10
0.0
 20
0.0
 30
0.0
  9
$UCSXDIR
 10
1.0
 20
0.0
 30
0.0
  9
$UCSYDIR
 10
0.0
 20
1.0
 30
0.0
  9
$PUCSNAME
  2

  9
$PUCSORG
 10
0.0
 20
0.0
 30
0.0
  9
$PUCSXDIR
 10
1.0
 20
0.0
 30
0.0
  9
$PUCSYDIR
 10
0.0
 20
1.0
 30
0.0
  9
$USERI1
 70
     0
  9
$USERI2
 70
     0
  9
$USERI3
 70
     0
  9
$USERI4
 70
     0
  9
$USERI5
 70
     0
  9
$USERR1
 40
0.0
  9
$USERR2
 40
0.0
  9
$USERR3
 40
0.0
  9
$USERR4
 40
0.0
  9
$USERR5
 40
0.0
  9
$WORLDVIEW
 70
     1
  9
$SHADEDGE
 70
     3
  9
$SHADEDIF
 70
    70
  9
$TILEMODE
 70
     1
  9
$MAXACTVP
 70
    64
  9
$PINSBASE
 10
0.0
 20
0.0
 30
0.0
  9
$PLIMCHECK
 70
     0
  9
$PEXTMIN
 10
1.000000000000000E+20
 20
1.000000000000000E+20
 30
1.000000000000000E+20
  9
$PEXTMAX
 10
-1.000000000000000E+20
 20
-1.000000000000000E+20
 30
-1.000000000000000E+20
  9
$PLIMMIN
 10
0.0
 20
0.0
  9
$PLIMMAX
 10
12.0
 20
9.0
  9
$UNITMODE
 70
     0
  9
$VISRETAIN
 70
     1
  9
$PLINEGEN
 70
     0
  9
$PSLTSCALE
 70
     1
  9
$TREEDEPTH
 70
  3020
  9
$PICKSTYLE
 70
     1
  9
$CMLSTYLE
  2
STANDARD
  9
$CMLJUST
 70
     0
  9
$CMLSCALE
 40
1.0
  9
$PROXYGRAPHICS
 70
     1
  9
$MEASUREMENT
 70
     0
  0
ENDSEC
  0
SECTION
  2
CLASSES
  0
CLASS
  1
ACDBDICTIONARYWDFLT
  2
AcDbDictionaryWithDefault
  3
ObjectDBX Classes
 90
        0
280
     0
281
     0
  0
CLASS
  1
VISUALSTYLE
  2
AcDbVisualStyle
  3
ObjectDBX Classes
 90
     4095
280
     0
281
     0
  0
CLASS
  1
MATERIAL
  2
AcDbMaterial
  3
ObjectDBX Classes
 90
     1153
280
     0
281
     0
  0
CLASS
  1
DICTIONARYVAR
  2
AcDbDictionaryVar
  3
ObjectDBX Classes
 90
        0
280
     0
281
     0
  0
CLASS
  1
XRECORD
  2
AcDbXrecord
  3
AutoCAD 2000
 90
        0
280
     0
281
     0
  0
CLASS
  1
LWPOLYLINE
  2
AcDbPolyline
  3
AutoCAD 2000
 90
        0
280
     0
281
     1
  0
CLASS
  1
HATCH
  2
AcDbHatch
  3
AutoCAD 2000
 90
        0
280
     0
281
     1
  0
CLASS
  1
ACDBPLACEHOLDER
  2
AcDbPlaceHolder
  3
ObjectDBX Classes
 90
        0
280
     0
281
     0
  0
CLASS
  1
LAYOUT
  2
AcDbLayout
  3
ObjectDBX Classes
 90
        0
280
     0
281
     0
  0
ENDSEC
  0
SECTION
  2
TABLES
  0
TABLE
  2
VPORT
  5
8
330
0
100
AcDbSymbolTable
 70
     1
  0
VPORT
  5
29
330
8
100
AcDbSymbolTableRecord
100
AcDbViewportTableRecord
  2
*ACTIVE
 70
     0
 10
0.0
 20
0.0
 11
1.0
 21
1.0
 12
10.42990654205607
 22
4.5
 13
0.0
 23
0.0
 14
0.5
 24
0.5
 15
0.5
 25
0.5
 16
0.0
 26
0.0
 36
1.0
 17
0.0
 27
0.0
 37
0.0
 40
9.0
 41
1.972972972850329
 42
50.0
 43
0.0
 44
0.0
 50
0.0
 51
0.0
 71
     0
 72
   100
 73
     1
 74
     3
 75
     0
 76
     0
 77
     0
 78
     0
  0
ENDTAB
  0
TABLE
  2
LTYPE
  5
5
330
0
100
AcDbSymbolTable
 70
     6
  0
LTYPE
  5
14
330
5
100
AcDbSymbolTableRecord
100
AcDbLinetypeTableRecord
  2
BYBLOCK
 70
     0
  3

 72
    65
 73
     0
 40
0.0
  0
LTYPE
  5
15
330
5
100
AcDbSymbolTableRecord
100
AcDbLinetypeTableRecord
  2
BYLAYER
 70
     0
  3

 72
    65
 73
     0
 40
0.0
  0
LTYPE
  5
16
330
5
100
AcDbSymbolTableRecord
100
AcDbLinetypeTableRecord
  2
CONTINUOUS
 70
     0
  3
Solid line
 72
    65
 73
     0
 40
0.0
  0
LTYPE
  5
54
330
5
100
AcDbSymbolTableRecord
100
AcDbLinetypeTableRecord
  2
NEW_LINE1
 70
     0
  3

 72
    65
 73
     4
 40
1.2
 49
0.5
 74
     4
 75
     0
340
0
 46
1.0
 50
0.0
 44
0.0
 45
0.0
 49
-0.3
 74
     4
 75
     0
340
0
 46
1.0
 50
0.0
 44
0.0
 45
0.0
 49
0.1
 74
     4
 75
     0
340
0
 46
1.0
 50
0.0
 44
0.0
 45
0.0
 49
-0.3
 74
     4
 75
     0
340
0
 46
1.0
 50
0.0
 44
0.0
 45
0.0
  0
LTYPE
  5
56
330
5
100
AcDbSymbolTableRecord
100
AcDbLinetypeTableRecord
  2
NEW_LINE2
 70
     0
  3

 72
    65
 73
     4
 40
1.2
 49
0.5
 74
     4
 75
     0
340
0
 46
1.0
 50
0.0
 44
0.0
 45
0.0
 49
-0.3
 74
     4
 75
     0
340
0
 46
1.0
 50
0.0
 44
0.0
 45
0.0
 49
0.1
 74
     4
 75
     0
340
0
 46
1.0
 50
0.0
 44
0.0
 45
0.0
 49
-0.3
 74
     4
 75
     0
340
0
 46
1.0
 50
0.0
 44
0.0
 45
0.0
  0
LTYPE
  5
58
330
5
100
AcDbSymbolTableRecord
100
AcDbLinetypeTableRecord
  2
NEW_LINE3
 70
     0
  3

 72
    65
 73
     4
 40
1.2
 49
0.5
 74
     4
 75
     0
340
0
 46
1.0
 50
0.0
 44
0.0
 45
0.0
 49
-0.3
 74
     4
 75
     0
340
0
 46
1.0
 50
0.0
 44
0.0
 45
0.0
 49
0.1
 74
     4
 75
     0
340
0
 46
1.0
 50
0.0
 44
0.0
 45
0.0
 49
-0.3
 74
     4
 75
     0
340
0
 46
1.0
 50
0.0
 44
0.0
 45
0.0
  0
LTYPE
  5
5A
330
5
100
AcDbSymbolTableRecord
100
AcDbLinetypeTableRecord
  2
NEW_LINE4
 70
     0
  3

 72
    65
 73
     4
 40
1.2
 49
0.5
 74
     4
 75
     0
340
0
 46
1.0
 50
0.0
 44
0.0
 45
0.0
 49
-0.3
 74
     4
 75
     0
340
0
 46
1.0
 50
0.0
 44
0.0
 45
0.0
 49
0.1
 74
     4
 75
     0
340
0
 46
1.0
 50
0.0
 44
0.0
 45
0.0
 49
-0.3
 74
     4
 75
     0
340
0
 46
1.0
 50
0.0
 44
0.0
 45
0.0
  0
LTYPE
  5
C1
330
5
100
AcDbSymbolTableRecord
100
AcDbLinetypeTableRecord
  2
NEW_LINE5
 70
     0
  3

 72
    65
 73
     4
 40
1.2
 49
0.5
 74
     4
 75
     0
340
0
 46
1.0
 50
0.0
 44
0.0
 45
0.0
 49
-0.3
 74
     4
 75
     0
340
0
 46
1.0
 50
0.0
 44
0.0
 45
0.0
 49
0.1
 74
     4
 75
     0
340
0
 46
1.0
 50
0.0
 44
0.0
 45
0.0
 49
-0.3
 74
     4
 75
     0
340
0
 46
1.0
 50
0.0
 44
0.0
 45
0.0
  0
ENDTAB
  0
TABLE
  2
LAYER
  5
2
330
0
100
AcDbSymbolTable
 70
     2
  0
LAYER
  5
10
330
2
100
AcDbSymbolTableRecord
100
AcDbLayerTableRecord
  2
0
 70
     0
 62
     7
  6
CONTINUOUS
  0
LAYER
  5
40
330
2
100
AcDbSymbolTableRecord
100
AcDbLayerTableRecord
  2
DEFAULT_1
 70
     0
 62
     7
  6
CONTINUOUS
  0
ENDTAB
  0
TABLE
  2
STYLE
  5
3
330
0
100
AcDbSymbolTable
 70
     1
  0
STYLE
  5
11
330
3
100
AcDbSymbolTableRecord
100
AcDbTextStyleTableRecord
  2
STANDARD
 70
     0
 40
0.0
 41
1.0
 50
0.0
 71
     0
 42
0.2
  3
txt
  4

  0
ENDTAB
  0
TABLE
  2
VIEW
  5
6
330
0
100
AcDbSymbolTable
 70
     0
  0
ENDTAB
  0
TABLE
  2
UCS
  5
7
330
0
100
AcDbSymbolTable
 70
     0
  0
ENDTAB
  0
TABLE
  2
APPID
  5
9
330
0
100
AcDbSymbolTable
 70
     2
  0
APPID
  5
12
330
9
100
AcDbSymbolTableRecord
100
AcDbRegAppTableRecord
  2
ACAD
 70
     0
  0
APPID
  5
3F
330
9
100
AcDbSymbolTableRecord
100
AcDbRegAppTableRecord
  2
ODA
 70
     0
  0
ENDTAB
  0
TABLE
  2
DIMSTYLE
  5
A
330
0
100
AcDbSymbolTable
 70
     1
  0
DIMSTYLE
105
27
330
A
100
AcDbSymbolTableRecord
100
AcDbDimStyleTableRecord
  2
STANDARD
 70
     0
  3

  4

  5

  6

  7

 40
1.0
 41
0.18
 42
0.0625
 43
0.38
 44
0.18
 45
0.0
 46
0.0
 47
0.0
 48
0.0
140
0.18
141
0.09
142
0.0
143
25.4
144
1.0
145
0.0
146
1.0
147
0.09
 71
     0
 72
     0
 73
     1
 74
     1
 75
     0
 76
     0
 77
     0
 78
     0
170
     0
171
     2
172
     0
173
     0
174
     0
175
     0
176
     0
177
     0
178
     0
270
     2
271
     4
272
     4
273
     2
274
     2
340
11
275
     0
280
     0
281
     0
282
     0
283
     1
284
     0
285
     0
286
     0
287
     3
288
     0
  0
ENDTAB
  0
TABLE
  2
BLOCK_RECORD
  5
1
330
0
100
AcDbSymbolTable
 70
     1
  0
BLOCK_RECORD
  5
1F
330
1
100
AcDbSymbolTableRecord
100
AcDbBlockTableRecord
  2
*MODEL_SPACE
  0
BLOCK_RECORD
  5
1B
330
1
100
AcDbSymbolTableRecord
100
AcDbBlockTableRecord
  2
*PAPER_SPACE
  0
ENDTAB
  0
ENDSEC
  0
SECTION
  2
BLOCKS
  0
BLOCK
  5
20
330
1F
100
AcDbEntity
  8
0
100
AcDbBlockBegin
  2
*MODEL_SPACE
 70
     0
 10
0.0
 20
0.0
 30
0.0
  3
*MODEL_SPACE
  1

  0
ENDBLK
  5
21
330
1F
100
AcDbEntity
  8
0
100
AcDbBlockEnd
  0
BLOCK
  5
1C
330
1B
100
AcDbEntity
 67
     1
  8
0
100
AcDbBlockBegin
  2
*PAPER_SPACE
 70
     0
 10
0.0
 20
0.0
 30
0.0
  3
*PAPER_SPACE
  1

  0
ENDBLK
  5
1D
330
1B
100
AcDbEntity
 67
     1
  8
0
100
AcDbBlockEnd
  0
ENDSEC
  0
SECTION
  2
ENTITIES
  0
SPLINE
  5
41
330
1F
100
AcDbEntity
  8
DEFAULT_1
 62
   250
100
AcDbSpline
210
0.0
220
0.0
230
1.0
 70
    24
 71
     3
 72
     8
 73
     4
 74
     0
 42
0.0000000001
 43
0.0000000001
 40
0.0
 40
0.0
 40
0.0
 40
0.0
 40
1.0
 40
1.0
 40
1.0
 40
1.0
 10
-11.5208
 20
-38.7716
 30
0.0
 10
-11.5208
 20
-38.7716
 30
0.0
 10
-11.5208
 20
-49.5818
 30
0.0
 10
-11.5208
 20
-49.5818
 30
0.0
  0
SPLINE
  5
42
330
1F
100
AcDbEntity
  8
DEFAULT_1
 62
   250
100
AcDbSpline
210
0.0
220
0.0
230
1.0
 70
    24
 71
     3
 72
     8
 73
     4
 74
     0
 42
0.0000000001
 43
0.0000000001
 40
0.0
 40
0.0
 40
0.0
 40
0.0
 40
1.0
 40
1.0
 40
1.0
 40
1.0
 10
11.9538
 20
-38.7716
 30
0.0
 10
11.9538
 20
-38.7716
 30
0.0
 10
11.9538
 20
-49.5818
 30
0.0
 10
11.9538
 20
-49.5818
 30
0.0
  0
SPLINE
  5
43
330
1F
100
AcDbEntity
  8
DEFAULT_1
 62
   250
100
AcDbSpline
210
0.0
220
0.0
230
1.0
 70
    24
 71
     3
 72
     8
 73
     4
 74
     0
 42
0.0000000001
 43
0.0000000001
 40
0.0
 40
0.0
 40
0.0
 40
0.0
 40
1.0
 40
1.0
 40
1.0
 40
1.0
 10
-17.2117
 20
-48.8709
 30
0.0
 10
-17.2117
 20
-48.8709
 30
0.0
 10
17.5055
 20
-48.8709
 30
0.0
 10
17.5055
 20
-48.8709
 30
0.0
  0
SPLINE
  5
44
330
1F
100
AcDbEntity
  8
DEFAULT_1
 62
   250
100
AcDbSpline
210
0.0
220
0.0
230
1.0
 70
    24
 71
     3
 72
     8
 73
     4
 74
     0
 42
0.0000000001
 43
0.0000000001
 40
0.0
 40
0.0
 40
0.0
 40
0.0
 40
1.0
 40
1.0
 40
1.0
 40
1.0
 10
-13.3626
 20
-37.7221
 30
0.0
 10
-13.3626
 20
-37.7221
 30
0.0
 10
-35.4155
 20
-37.7221
 30
0.0
 10
-35.4155
 20
-37.7221
 30
0.0
  0
SPLINE
  5
45
330
1F
100
AcDbEntity
  8
DEFAULT_1
 62
   250
100
AcDbSpline
210
0.0
220
0.0
230
1.0
 70
    24
 71
     3
 72
     8
 73
     4
 74
     0
 42
0.0000000001
 43
0.0000000001
 40
0.0
 40
0.0
 40
0.0
 40
0.0
 40
1.0
 40
1.0
 40
1.0
 40
1.0
 10
-31.0967
 20
16.2592
 30
0.0
 10
-31.0967
 20
16.2592
 30
0.0
 10
-35.4155
 20
16.2592
 30
0.0
 10
-35.4155
 20
16.2592
 30
0.0
  0
SPLINE
  5
46
330
1F
100
AcDbEntity
  8
DEFAULT_1
 62
   250
100
AcDbSpline
210
0.0
220
0.0
230
1.0
 70
    24
 71
     3
 72
     8
 73
     4
 74
     0
 42
0.0000000001
 43
0.0000000001
 40
0.0
 40
0.0
 40
0.0
 40
0.0
 40
1.0
 40
1.0
 40
1.0
 40
1.0
 10
-34.7041
 20
16.2591
 30
0.0
 10
-34.7041
 20
16.2591
 30
0.0
 10
-34.7041
 20
-36.7497
 30
0.0
 10
-34.7041
 20
-36.7497
 30
0.0
  0
SPLINE
  5
47
330
1F
100
AcDbEntity
  8
DEFAULT_1
 62
   250
100
AcDbSpline
210
0.0
220
0.0
230
1.0
 70
    24
 71
     3
 72
     8
 73
     4
 74
     0
 42
0.0000000001
 43
0.0000000001
 40
0.0
 40
0.0
 40
0.0
 40
0.0
 40
1.0
 40
1.0
 40
1.0
 40
1.0
 10
-22.2048
 20
28.8851
 30
0.0
 10
-22.2048
 20
28.8851
 30
0.0
 10
-22.2048
 20
41.1176
 30
0.0
 10
-22.2048
 20
41.1176
 30
0.0
  0
SPLINE
  5
48
330
1F
100
AcDbEntity
  8
DEFAULT_1
 62
   250
100
AcDbSpline
210
0.0
220
0.0
230
1.0
 70
    24
 71
     3
 72
     8
 73
     4
 74
     0
 42
0.0000000001
 43
0.0000000001
 40
0.0
 40
0.0
 40
0.0
 40
0.0
 40
1.0
 40
1.0
 40
1.0
 40
1.0
 10
22.6105
 20
28.7875
 30
0.0
 10
22.6105
 20
28.7875
 30
0.0
 10
22.6105
 20
40.8716
 30
0.0
 10
22.6105
 20
40.8716
 30
0.0
  0
SPLINE
  5
49
330
1F
100
AcDbEntity
  8
DEFAULT_1
 62
   250
100
AcDbSpline
210
0.0
220
0.0
230
1.0
 70
    24
 71
     3
 72
     8
 73
     4
 74
     0
 42
0.0000000001
 43
0.0000000001
 40
0.0
 40
0.0
 40
0.0
 40
0.0
 40
1.0
 40
1.0
 40
1.0
 40
1.0
 10
22.6104
 20
39.5713
 30
0.0
 10
22.6104
 20
39.5713
 30
0.0
 10
-21.1425
 20
39.5713
 30
0.0
 10
-21.1425
 20
39.5713
 30
0.0
  0
SPLINE
  5
4A
330
1F
100
AcDbEntity
  8
DEFAULT_1
 62
   250
100
AcDbSpline
210
0.0
220
0.0
230
1.0
 70
    24
 71
     3
 72
     8
 73
     4
 74
     0
 42
0.0000000001
 43
0.0000000001
 40
0.0
 40
0.0
 40
0.0
 40
0.0
 40
1.0
 40
1.0
 40
1.0
 40
1.0
 10
0.2028
 20
20.3725
 30
0.0
 10
0.2028
 20
20.3725
 30
0.0
 10
0.2028
 20
34.0651
 30
0.0
 10
0.2028
 20
34.0651
 30
0.0
  0
SPLINE
  5
4B
330
1F
100
AcDbEntity
  8
DEFAULT_1
 62
   250
100
AcDbSpline
210
0.0
220
0.0
230
1.0
 70
    24
 71
     3
 72
     8
 73
     4
 74
     0
 42
0.0000000001
 43
0.0000000001
 40
0.0
 40
0.0
 40
0.0
 40
0.0
 40
1.0
 40
1.0
 40
1.0
 40
1.0
 10
0.2028
 20
32.5112
 30
0.0
 10
0.2028
 20
32.5112
 30
0.0
 10
-21.0946
 20
32.5112
 30
0.0
 10
-21.0946
 20
32.5112
 30
0.0
  0
SPLINE
  5
4C
330
1F
100
AcDbEntity
  8
DEFAULT_1
 62
   250
100
AcDbSpline
210
0.0
220
0.0
230
1.0
 70
    24
 71
     3
 72
     8
 73
     4
 74
     0
 42
0.0000000001
 43
0.0000000001
 40
0.0
 40
0.0
 40
0.0
 40
0.0
 40
1.0
 40
1.0
 40
1.0
 40
1.0
 10
-29.7791
 20
28.2522
 30
0.0
 10
-29.7791
 20
28.2522
 30
0.0
 10
-29.7791
 20
47.6782
 30
0.0
 10
-29.7791
 20
47.6782
 30
0.0
  0
SPLINE
  5
4D
330
1F
100
AcDbEntity
  8
DEFAULT_1
 62
   250
100
AcDbSpline
210
0.0
220
0.0
230
1.0
 70
    24
 71
     3
 72
     8
 73
     4
 74
     0
 42
0.0000000001
 43
0.0000000001
 40
0.0
 40
0.0
 40
0.0
 40
0.0
 40
1.0
 40
1.0
 40
1.0
 40
1.0
 10
30.1846
 20
28.3265
 30
0.0
 10
30.1846
 20
28.3265
 30
0.0
 10
30.1846
 20
47.7602
 30
0.0
 10
30.1846
 20
47.7602
 30
0.0
  0
SPLINE
  5
4E
330
1F
100
AcDbEntity
  8
DEFAULT_1
 62
   250
100
AcDbSpline
210
0.0
220
0.0
230
1.0
 70
    24
 71
     3
 72
     8
 73
     4
 74
     0
 42
0.0000000001
 43
0.0000000001
 40
0.0
 40
0.0
 40
0.0
 40
0.0
 40
1.0
 40
1.0
 40
1.0
 40
1.0
 10
30.1027
 20
45.7911
 30
0.0
 10
30.1027
 20
45.7911
 30
0.0
 10
-28.7963
 20
45.7911
 30
0.0
 10
-28.7963
 20
45.7911
 30
0.0
  0
SPLINE
  5
4F
330
1F
100
AcDbEntity
  8
DEFAULT_1
 62
   250
100
AcDbSpline
210
0.0
220
0.0
230
1.0
 70
     8
 71
     3
 72
     8
 73
     4
 74
     0
 42
0.0000000001
 43
0.0000000001
 40
0.0
 40
0.0
 40
0.0
 40
0.0
 40
1.0
 40
1.0
 40
1.0
 40
1.0
 10
-1.9275
 20
25.3963
 30
0.0
 10
-5.2846
 20
25.124
 30
0.0
 10
-6.4572
 20
25.0935
 30
0.0
 10
-9.6118
 20
23.9453
 30
0.0
  0
SPLINE
  5
50
330
1F
100
AcDbEntity
  8
DEFAULT_1
 62
   250
100
AcDbSpline
210
0.0
220
0.0
230
1.0
 70
     8
 71
     3
 72
     8
 73
     4
 74
     0
 42
0.0000000001
 43
0.0000000001
 40
0.0
 40
0.0
 40
0.0
 40
0.0
 40
1.0
 40
1.0
 40
1.0
 40
1.0
 10
-9.6402
 20
23.9738
 30
0.0
 10
-12.7949
 20
22.8256
 30
0.0
 10
-14.8721
 20
21.6181
 30
0.0
 10
-17.4439
 20
19.4602
 30
0.0
  0
SPLINE
  5
51
330
1F
100
AcDbEntity
  8
DEFAULT_1
 62
   250
100
AcDbSpline
210
0.0
220
0.0
230
1.0
 70
     8
 71
     3
 72
     8
 73
     4
 74
     0
 42
0.0000000001
 43
0.0000000001
 40
0.0
 40
0.0
 40
0.0
 40
0.0
 40
1.0
 40
1.0
 40
1.0
 40
1.0
 10
18.637
 20
18.8994
 30
0.0
 10
16.0742
 20
21.0497
 30
0.0
 10
13.155
 20
22.7351
 30
0.0
 10
10.0114
 20
23.8793
 30
0.0
  0
SPLINE
  5
52
330
1F
100
AcDbEntity
  8
DEFAULT_1
 62
   250
100
AcDbSpline
210
0.0
220
0.0
230
1.0
 70
     8
 71
     3
 72
     8
 73
     4
 74
     0
 42
0.0000000001
 43
0.0000000001
 40
0.0
 40
0.0
 40
0.0
 40
0.0
 40
1.0
 40
1.0
 40
1.0
 40
1.0
 10
10.0114
 20
23.8793
 30
0.0
 10
6.8678
 20
25.0235
 30
0.0
 10
5.8723
 20
25.4346
 30
0.0
 10
2.5269
 20
25.4346
 30
0.0
  0
SPLINE
  5
53
330
1F
100
AcDbEntity
  8
DEFAULT_1
  6
NEW_LINE1
 62
   250
100
AcDbSpline
210
0.0
220
0.0
230
1.0
 70
    24
 71
     3
 72
     8
 73
     4
 74
     0
 42
0.0000000001
 43
0.0000000001
 40
0.0
 40
0.0
 40
0.0
 40
0.0
 40
1.0
 40
1.0
 40
1.0
 40
1.0
 10
0.2028
 20
-39.1447
 30
0.0
 10
0.2028
 20
-39.1447
 30
0.0
 10
0.2028
 20
-3.0031
 30
0.0
 10
0.2028
 20
-3.0031
 30
0.0
  0
SPLINE
  5
55
330
1F
100
AcDbEntity
  8
DEFAULT_1
  6
NEW_LINE2
 62
   250
100
AcDbSpline
210
0.0
220
0.0
230
1.0
 70
    24
 71
     3
 72
     8
 73
     4
 74
     0
 42
0.0000000001
 43
0.0000000001
 40
0.0
 40
0.0
 40
0.0
 40
0.0
 40
1.0
 40
1.0
 40
1.0
 40
1.0
 10
19.1002
 20
19.4514
 30
0.0
 10
19.1002
 20
19.4514
 30
0.0
 10
0.0786
 20
-3.2177
 30
0.0
 10
0.0786
 20
-3.2177
 30
0.0
  0
SPLINE
  5
57
330
1F
100
AcDbEntity
  8
DEFAULT_1
  6
NEW_LINE3
 62
   250
100
AcDbSpline
210
0.0
220
0.0
230
1.0
 70
    24
 71
     3
 72
     8
 73
     4
 74
     0
 42
0.0000000001
 43
0.0000000001
 40
0.0
 40
0.0
 40
0.0
 40
0.0
 40
1.0
 40
1.0
 40
1.0
 40
1.0
 10
-18.8187
 20
19.5993
 30
0.0
 10
-18.8187
 20
19.5993
 30
0.0
 10
0.2786
 20
-3.16
 30
0.0
 10
0.2786
 20
-3.16
 30
0.0
  0
SPLINE
  5
59
330
1F
100
AcDbEntity
  8
DEFAULT_1
  6
NEW_LINE4
 62
   250
100
AcDbSpline
210
0.0
220
0.0
230
1.0
 70
    24
 71
     3
 72
     8
 73
     4
 74
     0
 42
0.0000000001
 43
0.0000000001
 40
0.0
 40
0.0
 40
0.0
 40
0.0
 40
1.0
 40
1.0
 40
1.0
 40
1.0
 10
-15.3761
 20
16.2592
 30
0.0
 10
-15.3761
 20
16.2592
 30
0.0
 10
-30.384
 20
16.2592
 30
0.0
 10
-30.384
 20
16.2592
 30
0.0
  0
SPLINE
  5
5B
330
1F
100
AcDbEntity
  8
DEFAULT_1
 62
   250
100
AcDbSpline
210
0.0
220
0.0
230
1.0
 70
    24
 71
     3
 72
     8
 73
     4
 74
     0
 42
0.0000000001
 43
0.0000000001
 40
0.0
 40
0.0
 40
0.0
 40
0.0
 40
1.0
 40
1.0
 40
1.0
 40
1.0
 10
11.4472
 20
-37.7221
 30
0.0
 10
11.4472
 20
-37.7221
 30
0.0
 10
-11.0416
 20
-37.7221
 30
0.0
 10
-11.0416
 20
-37.7221
 30
0.0
  0
SPLINE
  5
5C
330
1F
100
AcDbEntity
  8
DEFAULT_1
 62
   250
100
AcDbSpline
210
0.0
220
0.0
230
1.0
 70
    24
 71
     3
 72
     8
 73
     4
 74
     0
 42
0.0000000001
 43
0.0000000001
 40
0.0
 40
0.0
 40
0.0
 40
0.0
 40
1.0
 40
1.0
 40
1.0
 40
1.0
 10
-29.7791
 20
5.9091
 30
0.0
 10
-29.7791
 20
5.9091
 30
0.0
 10
-29.7791
 20
26.6094
 30
0.0
 10
-29.7791
 20
26.6094
 30
0.0
  0
SPLINE
  5
5D
330
1F
100
AcDbEntity
  8
DEFAULT_1
 62
   250
100
AcDbSpline
210
0.0
220
0.0
230
1.0
 70
    24
 71
     3
 72
     8
 73
     4
 74
     0
 42
0.0000000001
 43
0.0000000001
 40
0.0
 40
0.0
 40
0.0
 40
0.0
 40
1.0
 40
1.0
 40
1.0
 40
1.0
 10
-29.0687
 20
27.4119
 30
0.0
 10
-29.0687
 20
27.4119
 30
0.0
 10
-29.1218
 20
26.8041
 30
0.0
 10
-29.1218
 20
26.8041
 30
0.0
  0
SPLINE
  5
5E
330
1F
100
AcDbEntity
  8
DEFAULT_1
 62
   250
100
AcDbSpline
210
0.0
220
0.0
230
1.0
 70
    24
 71
     3
 72
     8
 73
     4
 74
     0
 42
0.0000000001
 43
0.0000000001
 40
0.0
 40
0.0
 40
0.0
 40
0.0
 40
1.0
 40
1.0
 40
1.0
 40
1.0
 10
-29.0687
 20
5.1065
 30
0.0
 10
-29.0687
 20
5.1065
 30
0.0
 10
-29.1218
 20
5.7142
 30
0.0
 10
-29.1218
 20
5.7142
 30
0.0
  0
SPLINE
  5
5F
330
1F
100
AcDbEntity
  8
DEFAULT_1
 62
   250
100
AcDbSpline
210
0.0
220
0.0
230
1.0
 70
    24
 71
     3
 72
     8
 73
     4
 74
     0
 42
0.0000000001
 43
0.0000000001
 40
0.0
 40
0.0
 40
0.0
 40
0.0
 40
1.0
 40
1.0
 40
1.0
 40
1.0
 10
-26.3645
 20
4.3085
 30
0.0
 10
-26.3645
 20
4.3085
 30
0.0
 10
-26.3645
 20
28.2099
 30
0.0
 10
-26.3645
 20
28.2099
 30
0.0
  0
SPLINE
  5
60
330
1F
100
AcDbEntity
  8
DEFAULT_1
 62
   250
100
AcDbSpline
210
0.0
220
0.0
230
1.0
 70
    24
 71
     3
 72
     8
 73
     4
 74
     0
 42
0.0000000001
 43
0.0000000001
 40
0.0
 40
0.0
 40
0.0
 40
0.0
 40
1.0
 40
1.0
 40
1.0
 40
1.0
 10
-26.2579
 20
4.3085
 30
0.0
 10
-26.2579
 20
4.3085
 30
0.0
 10
-26.2579
 20
28.2099
 30
0.0
 10
-26.2579
 20
28.2099
 30
0.0
  0
SPLINE
  5
61
330
1F
100
AcDbEntity
  8
DEFAULT_1
 62
   250
100
AcDbSpline
210
0.0
220
0.0
230
1.0
 70
    24
 71
     3
 72
     8
 73
     4
 74
     0
 42
0.0000000001
 43
0.0000000001
 40
0.0
 40
0.0
 40
0.0
 40
0.0
 40
1.0
 40
1.0
 40
1.0
 40
1.0
 10
-25.5718
 20
5.6956
 30
0.0
 10
-25.5718
 20
5.6956
 30
0.0
 10
-25.6721
 20
4.6929
 30
0.0
 10
-25.6721
 20
4.6929
 30
0.0
  0
SPLINE
  5
62
330
1F
100
AcDbEntity
  8
DEFAULT_1
 62
   250
100
AcDbSpline
210
0.0
220
0.0
230
1.0
 70
    24
 71
     3
 72
     8
 73
     4
 74
     0
 42
0.0000000001
 43
0.0000000001
 40
0.0
 40
0.0
 40
0.0
 40
0.0
 40
1.0
 40
1.0
 40
1.0
 40
1.0
 10
-25.5718
 20
5.6956
 30
0.0
 10
-25.5718
 20
5.6956
 30
0.0
 10
-25.5718
 20
26.8227
 30
0.0
 10
-25.5718
 20
26.8227
 30
0.0
  0
SPLINE
  5
63
330
1F
100
AcDbEntity
  8
DEFAULT_1
 62
   250
100
AcDbSpline
210
0.0
220
0.0
230
1.0
 70
    24
 71
     3
 72
     8
 73
     4
 74
     0
 42
0.0000000001
 43
0.0000000001
 40
0.0
 40
0.0
 40
0.0
 40
0.0
 40
1.0
 40
1.0
 40
1.0
 40
1.0
 10
-11.5345
 20
-36.8684
 30
0.0
 10
-11.5345
 20
-36.8684
 30
0.0
 10
-11.0416
 20
-37.7221
 30
0.0
 10
-11.0416
 20
-37.7221
 30
0.0
  0
SPLINE
  5
64
330
1F
100
AcDbEntity
  8
DEFAULT_1
 62
   250
100
AcDbSpline
210
0.0
220
0.0
230
1.0
 70
    24
 71
     3
 72
     8
 73
     4
 74
     0
 42
0.0000000001
 43
0.0000000001
 40
0.0
 40
0.0
 40
0.0
 40
0.0
 40
1.0
 40
1.0
 40
1.0
 40
1.0
 10
-25.5718
 20
26.8227
 30
0.0
 10
-25.5718
 20
26.8227
 30
0.0
 10
-25.6721
 20
27.8256
 30
0.0
 10
-25.6721
 20
27.8256
 30
0.0
  0
SPLINE
  5
65
330
1F
100
AcDbEntity
  8
DEFAULT_1
 62
   250
100
AcDbSpline
210
0.0
220
0.0
230
1.0
 70
    24
 71
     3
 72
     8
 73
     4
 74
     0
 42
0.0000000001
 43
0.0000000001
 40
0.0
 40
0.0
 40
0.0
 40
0.0
 40
1.0
 40
1.0
 40
1.0
 40
1.0
 10
-20.9243
 20
6.6559
 30
0.0
 10
-20.9243
 20
6.6559
 30
0.0
 10
-20.9243
 20
25.8624
 30
0.0
 10
-20.9243
 20
25.8624
 30
0.0
  0
SPLINE
  5
66
330
1F
100
AcDbEntity
  8
DEFAULT_1
 62
   250
100
AcDbSpline
210
0.0
220
0.0
230
1.0
 70
    24
 71
     3
 72
     8
 73
     4
 74
     0
 42
0.0000000001
 43
0.0000000001
 40
0.0
 40
0.0
 40
0.0
 40
0.0
 40
1.0
 40
1.0
 40
1.0
 40
1.0
 10
-20.9243
 20
6.6559
 30
0.0
 10
-20.9243
 20
6.6559
 30
0.0
 10
-21.5645
 20
6.0157
 30
0.0
 10
-21.5645
 20
6.0157
 30
0.0
  0
SPLINE
  5
67
330
1F
100
AcDbEntity
  8
DEFAULT_1
 62
   250
100
AcDbSpline
210
0.0
220
0.0
230
1.0
 70
    24
 71
     3
 72
     8
 73
     4
 74
     0
 42
0.0000000001
 43
0.0000000001
 40
0.0
 40
0.0
 40
0.0
 40
0.0
 40
1.0
 40
1.0
 40
1.0
 40
1.0
 10
-9.4004
 20
-6.5767
 30
0.0
 10
-9.4004
 20
-6.5767
 30
0.0
 10
-9.4004
 20
-6.5649
 30
0.0
 10
-9.4004
 20
-6.5649
 30
0.0
  0
SPLINE
  5
68
330
1F
100
AcDbEntity
  8
DEFAULT_1
 62
   250
100
AcDbSpline
210
0.0
220
0.0
230
1.0
 70
    24
 71
     3
 72
     8
 73
     4
 74
     0
 42
0.0000000001
 43
0.0000000001
 40
0.0
 40
0.0
 40
0.0
 40
0.0
 40
1.0
 40
1.0
 40
1.0
 40
1.0
 10
0.2028
 20
11.8703
 30
0.0
 10
0.2028
 20
11.8703
 30
0.0
 10
6.1866
 20
19.0016
 30
0.0
 10
6.1866
 20
19.0016
 30
0.0
  0
SPLINE
  5
69
330
1F
100
AcDbEntity
  8
DEFAULT_1
 62
   250
100
AcDbSpline
210
0.0
220
0.0
230
1.0
 70
    24
 71
     3
 72
     8
 73
     4
 74
     0
 42
0.0000000001
 43
0.0000000001
 40
0.0
 40
0.0
 40
0.0
 40
0.0
 40
1.0
 40
1.0
 40
1.0
 40
1.0
 10
-9.4004
 20
-6.5649
 30
0.0
 10
-9.4004
 20
-6.5649
 30
0.0
 10
-20.4941
 20
6.6559
 30
0.0
 10
-20.4941
 20
6.6559
 30
0.0
  0
SPLINE
  5
6A
330
1F
100
AcDbEntity
  8
DEFAULT_1
 62
   250
100
AcDbSpline
210
0.0
220
0.0
230
1.0
 70
    24
 71
     3
 72
     8
 73
     4
 74
     0
 42
0.0000000001
 43
0.0000000001
 40
0.0
 40
0.0
 40
0.0
 40
0.0
 40
1.0
 40
1.0
 40
1.0
 40
1.0
 10
-9.4902
 20
-6.9578
 30
0.0
 10
-9.4902
 20
-6.9578
 30
0.0
 10
-11.4326
 20
-10.8428
 30
0.0
 10
-11.4326
 20
-10.8428
 30
0.0
  0
SPLINE
  5
6B
330
1F
100
AcDbEntity
  8
DEFAULT_1
 62
   250
100
AcDbSpline
210
0.0
220
0.0
230
1.0
 70
    24
 71
     3
 72
     8
 73
     4
 74
     0
 42
0.0000000001
 43
0.0000000001
 40
0.0
 40
0.0
 40
0.0
 40
0.0
 40
1.0
 40
1.0
 40
1.0
 40
1.0
 10
21.33
 20
25.8624
 30
0.0
 10
21.33
 20
25.8624
 30
0.0
 10
21.9702
 20
26.5027
 30
0.0
 10
21.9702
 20
26.5027
 30
0.0
  0
SPLINE
  5
6C
330
1F
100
AcDbEntity
  8
DEFAULT_1
 62
   250
100
AcDbSpline
210
0.0
220
0.0
230
1.0
 70
    24
 71
     3
 72
     8
 73
     4
 74
     0
 42
0.0000000001
 43
0.0000000001
 40
0.0
 40
0.0
 40
0.0
 40
0.0
 40
1.0
 40
1.0
 40
1.0
 40
1.0
 10
0.2028
 20
11.8703
 30
0.0
 10
0.2028
 20
11.8703
 30
0.0
 10
0.2028
 20
-6.5649
 30
0.0
 10
0.2028
 20
-6.5649
 30
0.0
  0
SPLINE
  5
6D
330
1F
100
AcDbEntity
  8
DEFAULT_1
 62
   250
100
AcDbSpline
210
0.0
220
0.0
230
1.0
 70
    24
 71
     3
 72
     8
 73
     4
 74
     0
 42
0.0000000001
 43
0.0000000001
 40
0.0
 40
0.0
 40
0.0
 40
0.0
 40
1.0
 40
1.0
 40
1.0
 40
1.0
 10
-9.4001
 20
-6.5649
 30
0.0
 10
-9.4001
 20
-6.5649
 30
0.0
 10
9.8058
 20
-6.5649
 30
0.0
 10
9.8058
 20
-6.5649
 30
0.0
  0
SPLINE
  5
6E
330
1F
100
AcDbEntity
  8
DEFAULT_1
 62
   250
100
AcDbSpline
210
0.0
220
0.0
230
1.0
 70
    24
 71
     3
 72
     8
 73
     4
 74
     0
 42
0.0000000001
 43
0.0000000001
 40
0.0
 40
0.0
 40
0.0
 40
0.0
 40
1.0
 40
1.0
 40
1.0
 40
1.0
 10
26.7703
 20
4.3085
 30
0.0
 10
26.7703
 20
4.3085
 30
0.0
 10
29.1232
 20
4.7234
 30
0.0
 10
29.1232
 20
4.7234
 30
0.0
  0
SPLINE
  5
6F
330
1F
100
AcDbEntity
  8
DEFAULT_1
 62
   250
100
AcDbSpline
210
0.0
220
0.0
230
1.0
 70
    24
 71
     3
 72
     8
 73
     4
 74
     0
 42
0.0000000001
 43
0.0000000001
 40
0.0
 40
0.0
 40
0.0
 40
0.0
 40
1.0
 40
1.0
 40
1.0
 40
1.0
 10
-26.3645
 20
4.3085
 30
0.0
 10
-26.3645
 20
4.3085
 30
0.0
 10
-28.7176
 20
4.7234
 30
0.0
 10
-28.7176
 20
4.7234
 30
0.0
  0
SPLINE
  5
70
330
1F
100
AcDbEntity
  8
DEFAULT_1
 62
   250
100
AcDbSpline
210
0.0
220
0.0
230
1.0
 70
    24
 71
     3
 72
     8
 73
     4
 74
     0
 42
0.0000000001
 43
0.0000000001
 40
0.0
 40
0.0
 40
0.0
 40
0.0
 40
1.0
 40
1.0
 40
1.0
 40
1.0
 10
9.8061
 20
-6.5649
 30
0.0
 10
9.8061
 20
-6.5649
 30
0.0
 10
20.8997
 20
6.6559
 30
0.0
 10
20.8997
 20
6.6559
 30
0.0
  0
SPLINE
  5
71
330
1F
100
AcDbEntity
  8
DEFAULT_1
 62
   250
100
AcDbSpline
210
0.0
220
0.0
230
1.0
 70
    24
 71
     3
 72
     8
 73
     4
 74
     0
 42
0.0000000001
 43
0.0000000001
 40
0.0
 40
0.0
 40
0.0
 40
0.0
 40
1.0
 40
1.0
 40
1.0
 40
1.0
 10
-26.0968
 20
4.3085
 30
0.0
 10
-26.0968
 20
4.3085
 30
0.0
 10
-26.2579
 20
4.3085
 30
0.0
 10
-26.2579
 20
4.3085
 30
0.0
  0
SPLINE
  5
72
330
1F
100
AcDbEntity
  8
DEFAULT_1
 62
   250
100
AcDbSpline
210
0.0
220
0.0
230
1.0
 70
    24
 71
     3
 72
     8
 73
     4
 74
     0
 42
0.0000000001
 43
0.0000000001
 40
0.0
 40
0.0
 40
0.0
 40
0.0
 40
1.0
 40
1.0
 40
1.0
 40
1.0
 10
26.5024
 20
4.3085
 30
0.0
 10
26.5024
 20
4.3085
 30
0.0
 10
26.6636
 20
4.3085
 30
0.0
 10
26.6636
 20
4.3085
 30
0.0
  0
SPLINE
  5
73
330
1F
100
AcDbEntity
  8
DEFAULT_1
 62
   250
100
AcDbSpline
210
0.0
220
0.0
230
1.0
 70
    24
 71
     3
 72
     8
 73
     4
 74
     0
 42
0.0000000001
 43
0.0000000001
 40
0.0
 40
0.0
 40
0.0
 40
0.0
 40
1.0
 40
1.0
 40
1.0
 40
1.0
 10
-20.9243
 20
25.8624
 30
0.0
 10
-20.9243
 20
25.8624
 30
0.0
 10
-21.5645
 20
26.5027
 30
0.0
 10
-21.5645
 20
26.5027
 30
0.0
  0
SPLINE
  5
74
330
1F
100
AcDbEntity
  8
DEFAULT_1
 62
   250
100
AcDbSpline
210
0.0
220
0.0
230
1.0
 70
    24
 71
     3
 72
     8
 73
     4
 74
     0
 42
0.0000000001
 43
0.0000000001
 40
0.0
 40
0.0
 40
0.0
 40
0.0
 40
1.0
 40
1.0
 40
1.0
 40
1.0
 10
11.8383
 20
-10.8428
 30
0.0
 10
11.8383
 20
-10.8428
 30
0.0
 10
9.8958
 20
-6.9578
 30
0.0
 10
9.8958
 20
-6.9578
 30
0.0
  0
SPLINE
  5
75
330
1F
100
AcDbEntity
  8
DEFAULT_1
 62
   250
100
AcDbSpline
210
0.0
220
0.0
230
1.0
 70
    24
 71
     3
 72
     8
 73
     4
 74
     0
 42
0.0000000001
 43
0.0000000001
 40
0.0
 40
0.0
 40
0.0
 40
0.0
 40
1.0
 40
1.0
 40
1.0
 40
1.0
 10
9.8061
 20
-6.5769
 30
0.0
 10
9.8061
 20
-6.5769
 30
0.0
 10
9.8061
 20
-6.5649
 30
0.0
 10
9.8061
 20
-6.5649
 30
0.0
  0
SPLINE
  5
76
330
1F
100
AcDbEntity
  8
DEFAULT_1
 62
   250
100
AcDbSpline
210
0.0
220
0.0
230
1.0
 70
    24
 71
     3
 72
     8
 73
     4
 74
     0
 42
0.0000000001
 43
0.0000000001
 40
0.0
 40
0.0
 40
0.0
 40
0.0
 40
1.0
 40
1.0
 40
1.0
 40
1.0
 10
-21.778
 20
4.8421
 30
0.0
 10
-21.778
 20
4.8421
 30
0.0
 10
-21.9913
 20
4.8421
 30
0.0
 10
-21.9913
 20
4.8421
 30
0.0
  0
SPLINE
  5
77
330
1F
100
AcDbEntity
  8
DEFAULT_1
 62
   250
100
AcDbSpline
210
0.0
220
0.0
230
1.0
 70
    24
 71
     3
 72
     8
 73
     4
 74
     0
 42
0.0000000001
 43
0.0000000001
 40
0.0
 40
0.0
 40
0.0
 40
0.0
 40
1.0
 40
1.0
 40
1.0
 40
1.0
 10
22.1836
 20
4.8421
 30
0.0
 10
22.1836
 20
4.8421
 30
0.0
 10
22.397
 20
4.8421
 30
0.0
 10
22.397
 20
4.8421
 30
0.0
  0
SPLINE
  5
78
330
1F
100
AcDbEntity
  8
DEFAULT_1
 62
   250
100
AcDbSpline
210
0.0
220
0.0
230
1.0
 70
    24
 71
     3
 72
     8
 73
     4
 74
     0
 42
0.0000000001
 43
0.0000000001
 40
0.0
 40
0.0
 40
0.0
 40
0.0
 40
1.0
 40
1.0
 40
1.0
 40
1.0
 10
26.7703
 20
4.9487
 30
0.0
 10
26.7703
 20
4.9487
 30
0.0
 10
26.6636
 20
4.9487
 30
0.0
 10
26.6636
 20
4.9487
 30
0.0
  0
SPLINE
  5
79
330
1F
100
AcDbEntity
  8
DEFAULT_1
 62
   250
100
AcDbSpline
210
0.0
220
0.0
230
1.0
 70
    24
 71
     3
 72
     8
 73
     4
 74
     0
 42
0.0000000001
 43
0.0000000001
 40
0.0
 40
0.0
 40
0.0
 40
0.0
 40
1.0
 40
1.0
 40
1.0
 40
1.0
 10
-26.3645
 20
4.9487
 30
0.0
 10
-26.3645
 20
4.9487
 30
0.0
 10
-26.2579
 20
4.9487
 30
0.0
 10
-26.2579
 20
4.9487
 30
0.0
  0
SPLINE
  5
7A
330
1F
100
AcDbEntity
  8
DEFAULT_1
 62
   250
100
AcDbSpline
210
0.0
220
0.0
230
1.0
 70
    24
 71
     3
 72
     8
 73
     4
 74
     0
 42
0.0000000001
 43
0.0000000001
 40
0.0
 40
0.0
 40
0.0
 40
0.0
 40
1.0
 40
1.0
 40
1.0
 40
1.0
 10
-22.2048
 20
5.6956
 30
0.0
 10
-22.2048
 20
5.6956
 30
0.0
 10
-25.5718
 20
5.6956
 30
0.0
 10
-25.5718
 20
5.6956
 30
0.0
  0
SPLINE
  5
7B
330
1F
100
AcDbEntity
  8
DEFAULT_1
 62
   250
100
AcDbSpline
210
0.0
220
0.0
230
1.0
 70
    24
 71
     3
 72
     8
 73
     4
 74
     0
 42
0.0000000001
 43
0.0000000001
 40
0.0
 40
0.0
 40
0.0
 40
0.0
 40
1.0
 40
1.0
 40
1.0
 40
1.0
 10
22.6104
 20
5.6956
 30
0.0
 10
22.6104
 20
5.6956
 30
0.0
 10
25.9774
 20
5.6956
 30
0.0
 10
25.9774
 20
5.6956
 30
0.0
  0
SPLINE
  5
7C
330
1F
100
AcDbEntity
  8
DEFAULT_1
 62
   250
100
AcDbSpline
210
0.0
220
0.0
230
1.0
 70
    24
 71
     3
 72
     8
 73
     4
 74
     0
 42
0.0000000001
 43
0.0000000001
 40
0.0
 40
0.0
 40
0.0
 40
0.0
 40
1.0
 40
1.0
 40
1.0
 40
1.0
 10
-29.3344
 20
5.9091
 30
0.0
 10
-29.3344
 20
5.9091
 30
0.0
 10
-29.7791
 20
5.9091
 30
0.0
 10
-29.7791
 20
5.9091
 30
0.0
  0
SPLINE
  5
7D
330
1F
100
AcDbEntity
  8
DEFAULT_1
 62
   250
100
AcDbSpline
210
0.0
220
0.0
230
1.0
 70
    24
 71
     3
 72
     8
 73
     4
 74
     0
 42
0.0000000001
 43
0.0000000001
 40
0.0
 40
0.0
 40
0.0
 40
0.0
 40
1.0
 40
1.0
 40
1.0
 40
1.0
 10
29.7401
 20
5.9091
 30
0.0
 10
29.7401
 20
5.9091
 30
0.0
 10
30.1847
 20
5.9091
 30
0.0
 10
30.1847
 20
5.9091
 30
0.0
  0
SPLINE
  5
7E
330
1F
100
AcDbEntity
  8
DEFAULT_1
 62
   250
100
AcDbSpline
210
0.0
220
0.0
230
1.0
 70
    24
 71
     3
 72
     8
 73
     4
 74
     0
 42
0.0000000001
 43
0.0000000001
 40
0.0
 40
0.0
 40
0.0
 40
0.0
 40
1.0
 40
1.0
 40
1.0
 40
1.0
 10
-20.4941
 20
6.6559
 30
0.0
 10
-20.4941
 20
6.6559
 30
0.0
 10
-20.9243
 20
6.6559
 30
0.0
 10
-20.9243
 20
6.6559
 30
0.0
  0
SPLINE
  5
7F
330
1F
100
AcDbEntity
  8
DEFAULT_1
 62
   250
100
AcDbSpline
210
0.0
220
0.0
230
1.0
 70
    24
 71
     3
 72
     8
 73
     4
 74
     0
 42
0.0000000001
 43
0.0000000001
 40
0.0
 40
0.0
 40
0.0
 40
0.0
 40
1.0
 40
1.0
 40
1.0
 40
1.0
 10
20.8997
 20
6.6559
 30
0.0
 10
20.8997
 20
6.6559
 30
0.0
 10
21.33
 20
6.6559
 30
0.0
 10
21.33
 20
6.6559
 30
0.0
  0
SPLINE
  5
80
330
1F
100
AcDbEntity
  8
DEFAULT_1
 62
   250
100
AcDbSpline
210
0.0
220
0.0
230
1.0
 70
    24
 71
     3
 72
     8
 73
     4
 74
     0
 42
0.0000000001
 43
0.0000000001
 40
0.0
 40
0.0
 40
0.0
 40
0.0
 40
1.0
 40
1.0
 40
1.0
 40
1.0
 10
0.2028
 20
11.8703
 30
0.0
 10
0.2028
 20
11.8703
 30
0.0
 10
-5.781
 20
19.0016
 30
0.0
 10
-5.781
 20
19.0016
 30
0.0
  0
SPLINE
  5
81
330
1F
100
AcDbEntity
  8
DEFAULT_1
 62
   250
100
AcDbSpline
210
0.0
220
0.0
230
1.0
 70
    24
 71
     3
 72
     8
 73
     4
 74
     0
 42
0.0000000001
 43
0.0000000001
 40
0.0
 40
0.0
 40
0.0
 40
0.0
 40
1.0
 40
1.0
 40
1.0
 40
1.0
 10
21.33
 20
25.8624
 30
0.0
 10
21.33
 20
25.8624
 30
0.0
 10
21.33
 20
6.6559
 30
0.0
 10
21.33
 20
6.6559
 30
0.0
  0
SPLINE
  5
82
330
1F
100
AcDbEntity
  8
DEFAULT_1
 62
   250
100
AcDbSpline
210
0.0
220
0.0
230
1.0
 70
    24
 71
     3
 72
     8
 73
     4
 74
     0
 42
0.0000000001
 43
0.0000000001
 40
0.0
 40
0.0
 40
0.0
 40
0.0
 40
1.0
 40
1.0
 40
1.0
 40
1.0
 10
25.9774
 20
26.8227
 30
0.0
 10
25.9774
 20
26.8227
 30
0.0
 10
26.0777
 20
27.8256
 30
0.0
 10
26.0777
 20
27.8256
 30
0.0
  0
SPLINE
  5
83
330
1F
100
AcDbEntity
  8
DEFAULT_1
 62
   250
100
AcDbSpline
210
0.0
220
0.0
230
1.0
 70
    24
 71
     3
 72
     8
 73
     4
 74
     0
 42
0.0000000001
 43
0.0000000001
 40
0.0
 40
0.0
 40
0.0
 40
0.0
 40
1.0
 40
1.0
 40
1.0
 40
1.0
 10
21.33
 20
6.6559
 30
0.0
 10
21.33
 20
6.6559
 30
0.0
 10
21.9702
 20
6.0157
 30
0.0
 10
21.9702
 20
6.0157
 30
0.0
  0
SPLINE
  5
84
330
1F
100
AcDbEntity
  8
DEFAULT_1
 62
   250
100
AcDbSpline
210
0.0
220
0.0
230
1.0
 70
    24
 71
     3
 72
     8
 73
     4
 74
     0
 42
0.0000000001
 43
0.0000000001
 40
0.0
 40
0.0
 40
0.0
 40
0.0
 40
1.0
 40
1.0
 40
1.0
 40
1.0
 10
25.9774
 20
5.6956
 30
0.0
 10
25.9774
 20
5.6956
 30
0.0
 10
26.0777
 20
4.6929
 30
0.0
 10
26.0777
 20
4.6929
 30
0.0
  0
SPLINE
  5
85
330
1F
100
AcDbEntity
  8
DEFAULT_1
 62
   250
100
AcDbSpline
210
0.0
220
0.0
230
1.0
 70
    24
 71
     3
 72
     8
 73
     4
 74
     0
 42
0.0000000001
 43
0.0000000001
 40
0.0
 40
0.0
 40
0.0
 40
0.0
 40
1.0
 40
1.0
 40
1.0
 40
1.0
 10
25.9774
 20
5.6956
 30
0.0
 10
25.9774
 20
5.6956
 30
0.0
 10
25.9774
 20
26.8227
 30
0.0
 10
25.9774
 20
26.8227
 30
0.0
  0
SPLINE
  5
86
330
1F
100
AcDbEntity
  8
DEFAULT_1
 62
   250
100
AcDbSpline
210
0.0
220
0.0
230
1.0
 70
    24
 71
     3
 72
     8
 73
     4
 74
     0
 42
0.0000000001
 43
0.0000000001
 40
0.0
 40
0.0
 40
0.0
 40
0.0
 40
1.0
 40
1.0
 40
1.0
 40
1.0
 10
26.6636
 20
28.2099
 30
0.0
 10
26.6636
 20
28.2099
 30
0.0
 10
26.6636
 20
4.3085
 30
0.0
 10
26.6636
 20
4.3085
 30
0.0
  0
SPLINE
  5
87
330
1F
100
AcDbEntity
  8
DEFAULT_1
 62
   250
100
AcDbSpline
210
0.0
220
0.0
230
1.0
 70
    24
 71
     3
 72
     8
 73
     4
 74
     0
 42
0.0000000001
 43
0.0000000001
 40
0.0
 40
0.0
 40
0.0
 40
0.0
 40
1.0
 40
1.0
 40
1.0
 40
1.0
 10
26.7703
 20
28.2099
 30
0.0
 10
26.7703
 20
28.2099
 30
0.0
 10
26.7703
 20
4.3085
 30
0.0
 10
26.7703
 20
4.3085
 30
0.0
  0
SPLINE
  5
88
330
1F
100
AcDbEntity
  8
DEFAULT_1
 62
   250
100
AcDbSpline
210
0.0
220
0.0
230
1.0
 70
    24
 71
     3
 72
     8
 73
     4
 74
     0
 42
0.0000000001
 43
0.0000000001
 40
0.0
 40
0.0
 40
0.0
 40
0.0
 40
1.0
 40
1.0
 40
1.0
 40
1.0
 10
11.9401
 20
-36.8684
 30
0.0
 10
11.9401
 20
-36.8684
 30
0.0
 10
11.4472
 20
-37.7221
 30
0.0
 10
11.4472
 20
-37.7221
 30
0.0
  0
SPLINE
  5
89
330
1F
100
AcDbEntity
  8
DEFAULT_1
 62
   250
100
AcDbSpline
210
0.0
220
0.0
230
1.0
 70
    24
 71
     3
 72
     8
 73
     4
 74
     0
 42
0.0000000001
 43
0.0000000001
 40
0.0
 40
0.0
 40
0.0
 40
0.0
 40
1.0
 40
1.0
 40
1.0
 40
1.0
 10
30.1847
 20
26.6094
 30
0.0
 10
30.1847
 20
26.6094
 30
0.0
 10
30.1847
 20
5.9091
 30
0.0
 10
30.1847
 20
5.9091
 30
0.0
  0
SPLINE
  5
8A
330
1F
100
AcDbEntity
  8
DEFAULT_1
 62
   250
100
AcDbSpline
210
0.0
220
0.0
230
1.0
 70
    24
 71
     3
 72
     8
 73
     4
 74
     0
 42
0.0000000001
 43
0.0000000001
 40
0.0
 40
0.0
 40
0.0
 40
0.0
 40
1.0
 40
1.0
 40
1.0
 40
1.0
 10
29.4743
 20
5.1065
 30
0.0
 10
29.4743
 20
5.1065
 30
0.0
 10
29.5275
 20
5.7142
 30
0.0
 10
29.5275
 20
5.7142
 30
0.0
  0
SPLINE
  5
8B
330
1F
100
AcDbEntity
  8
DEFAULT_1
 62
   250
100
AcDbSpline
210
0.0
220
0.0
230
1.0
 70
    24
 71
     3
 72
     8
 73
     4
 74
     0
 42
0.0000000001
 43
0.0000000001
 40
0.0
 40
0.0
 40
0.0
 40
0.0
 40
1.0
 40
1.0
 40
1.0
 40
1.0
 10
29.4743
 20
27.4119
 30
0.0
 10
29.4743
 20
27.4119
 30
0.0
 10
29.5275
 20
26.8041
 30
0.0
 10
29.5275
 20
26.8041
 30
0.0
  0
SPLINE
  5
8C
330
1F
100
AcDbEntity
  8
DEFAULT_1
 62
   250
100
AcDbSpline
210
0.0
220
0.0
230
1.0
 70
    24
 71
     3
 72
     8
 73
     4
 74
     0
 42
0.0000000001
 43
0.0000000001
 40
0.0
 40
0.0
 40
0.0
 40
0.0
 40
1.0
 40
1.0
 40
1.0
 40
1.0
 10
-20.4941
 20
25.8624
 30
0.0
 10
-20.4941
 20
25.8624
 30
0.0
 10
-20.9243
 20
25.8624
 30
0.0
 10
-20.9243
 20
25.8624
 30
0.0
  0
SPLINE
  5
8D
330
1F
100
AcDbEntity
  8
DEFAULT_1
 62
   250
100
AcDbSpline
210
0.0
220
0.0
230
1.0
 70
    24
 71
     3
 72
     8
 73
     4
 74
     0
 42
0.0000000001
 43
0.0000000001
 40
0.0
 40
0.0
 40
0.0
 40
0.0
 40
1.0
 40
1.0
 40
1.0
 40
1.0
 10
20.8997
 20
25.8624
 30
0.0
 10
20.8997
 20
25.8624
 30
0.0
 10
21.33
 20
25.8624
 30
0.0
 10
21.33
 20
25.8624
 30
0.0
  0
SPLINE
  5
8E
330
1F
100
AcDbEntity
  8
DEFAULT_1
 62
   250
100
AcDbSpline
210
0.0
220
0.0
230
1.0
 70
    24
 71
     3
 72
     8
 73
     4
 74
     0
 42
0.0000000001
 43
0.0000000001
 40
0.0
 40
0.0
 40
0.0
 40
0.0
 40
1.0
 40
1.0
 40
1.0
 40
1.0
 10
-29.3344
 20
26.6094
 30
0.0
 10
-29.3344
 20
26.6094
 30
0.0
 10
-29.7791
 20
26.6094
 30
0.0
 10
-29.7791
 20
26.6094
 30
0.0
  0
SPLINE
  5
8F
330
1F
100
AcDbEntity
  8
DEFAULT_1
 62
   250
100
AcDbSpline
210
0.0
220
0.0
230
1.0
 70
    24
 71
     3
 72
     8
 73
     4
 74
     0
 42
0.0000000001
 43
0.0000000001
 40
0.0
 40
0.0
 40
0.0
 40
0.0
 40
1.0
 40
1.0
 40
1.0
 40
1.0
 10
29.7401
 20
26.6094
 30
0.0
 10
29.7401
 20
26.6094
 30
0.0
 10
30.1847
 20
26.6094
 30
0.0
 10
30.1847
 20
26.6094
 30
0.0
  0
SPLINE
  5
90
330
1F
100
AcDbEntity
  8
DEFAULT_1
 62
   250
100
AcDbSpline
210
0.0
220
0.0
230
1.0
 70
    24
 71
     3
 72
     8
 73
     4
 74
     0
 42
0.0000000001
 43
0.0000000001
 40
0.0
 40
0.0
 40
0.0
 40
0.0
 40
1.0
 40
1.0
 40
1.0
 40
1.0
 10
-22.2048
 20
26.8227
 30
0.0
 10
-22.2048
 20
26.8227
 30
0.0
 10
-25.5718
 20
26.8227
 30
0.0
 10
-25.5718
 20
26.8227
 30
0.0
  0
SPLINE
  5
91
330
1F
100
AcDbEntity
  8
DEFAULT_1
 62
   250
100
AcDbSpline
210
0.0
220
0.0
230
1.0
 70
    24
 71
     3
 72
     8
 73
     4
 74
     0
 42
0.0000000001
 43
0.0000000001
 40
0.0
 40
0.0
 40
0.0
 40
0.0
 40
1.0
 40
1.0
 40
1.0
 40
1.0
 10
22.6104
 20
26.8227
 30
0.0
 10
22.6104
 20
26.8227
 30
0.0
 10
25.9774
 20
26.8227
 30
0.0
 10
25.9774
 20
26.8227
 30
0.0
  0
SPLINE
  5
92
330
1F
100
AcDbEntity
  8
DEFAULT_1
 62
   250
100
AcDbSpline
210
0.0
220
0.0
230
1.0
 70
    24
 71
     3
 72
     8
 73
     4
 74
     0
 42
0.0000000001
 43
0.0000000001
 40
0.0
 40
0.0
 40
0.0
 40
0.0
 40
1.0
 40
1.0
 40
1.0
 40
1.0
 10
26.7703
 20
27.5697
 30
0.0
 10
26.7703
 20
27.5697
 30
0.0
 10
26.6636
 20
27.5697
 30
0.0
 10
26.6636
 20
27.5697
 30
0.0
  0
SPLINE
  5
93
330
1F
100
AcDbEntity
  8
DEFAULT_1
 62
   250
100
AcDbSpline
210
0.0
220
0.0
230
1.0
 70
    24
 71
     3
 72
     8
 73
     4
 74
     0
 42
0.0000000001
 43
0.0000000001
 40
0.0
 40
0.0
 40
0.0
 40
0.0
 40
1.0
 40
1.0
 40
1.0
 40
1.0
 10
-26.3645
 20
27.5697
 30
0.0
 10
-26.3645
 20
27.5697
 30
0.0
 10
-26.2579
 20
27.5697
 30
0.0
 10
-26.2579
 20
27.5697
 30
0.0
  0
SPLINE
  5
94
330
1F
100
AcDbEntity
  8
DEFAULT_1
 62
   250
100
AcDbSpline
210
0.0
220
0.0
230
1.0
 70
    24
 71
     3
 72
     8
 73
     4
 74
     0
 42
0.0000000001
 43
0.0000000001
 40
0.0
 40
0.0
 40
0.0
 40
0.0
 40
1.0
 40
1.0
 40
1.0
 40
1.0
 10
-21.778
 20
27.6764
 30
0.0
 10
-21.778
 20
27.6764
 30
0.0
 10
-21.9913
 20
27.6764
 30
0.0
 10
-21.9913
 20
27.6764
 30
0.0
  0
SPLINE
  5
95
330
1F
100
AcDbEntity
  8
DEFAULT_1
 62
   250
100
AcDbSpline
210
0.0
220
0.0
230
1.0
 70
    24
 71
     3
 72
     8
 73
     4
 74
     0
 42
0.0000000001
 43
0.0000000001
 40
0.0
 40
0.0
 40
0.0
 40
0.0
 40
1.0
 40
1.0
 40
1.0
 40
1.0
 10
22.1836
 20
27.6764
 30
0.0
 10
22.1836
 20
27.6764
 30
0.0
 10
22.397
 20
27.6764
 30
0.0
 10
22.397
 20
27.6764
 30
0.0
  0
SPLINE
  5
96
330
1F
100
AcDbEntity
  8
DEFAULT_1
 62
   250
100
AcDbSpline
210
0.0
220
0.0
230
1.0
 70
    24
 71
     3
 72
     8
 73
     4
 74
     0
 42
0.0000000001
 43
0.0000000001
 40
0.0
 40
0.0
 40
0.0
 40
0.0
 40
1.0
 40
1.0
 40
1.0
 40
1.0
 10
-26.0968
 20
28.2099
 30
0.0
 10
-26.0968
 20
28.2099
 30
0.0
 10
-26.2579
 20
28.2099
 30
0.0
 10
-26.2579
 20
28.2099
 30
0.0
  0
SPLINE
  5
97
330
1F
100
AcDbEntity
  8
DEFAULT_1
 62
   250
100
AcDbSpline
210
0.0
220
0.0
230
1.0
 70
    24
 71
     3
 72
     8
 73
     4
 74
     0
 42
0.0000000001
 43
0.0000000001
 40
0.0
 40
0.0
 40
0.0
 40
0.0
 40
1.0
 40
1.0
 40
1.0
 40
1.0
 10
26.5024
 20
28.2099
 30
0.0
 10
26.5024
 20
28.2099
 30
0.0
 10
26.6636
 20
28.2099
 30
0.0
 10
26.6636
 20
28.2099
 30
0.0
  0
SPLINE
  5
98
330
1F
100
AcDbEntity
  8
DEFAULT_1
 62
   250
100
AcDbSpline
210
0.0
220
0.0
230
1.0
 70
    24
 71
     3
 72
     8
 73
     4
 74
     0
 42
0.0000000001
 43
0.0000000001
 40
0.0
 40
0.0
 40
0.0
 40
0.0
 40
1.0
 40
1.0
 40
1.0
 40
1.0
 10
-26.3645
 20
28.2099
 30
0.0
 10
-26.3645
 20
28.2099
 30
0.0
 10
-28.7176
 20
27.795
 30
0.0
 10
-28.7176
 20
27.795
 30
0.0
  0
SPLINE
  5
99
330
1F
100
AcDbEntity
  8
DEFAULT_1
 62
   250
100
AcDbSpline
210
0.0
220
0.0
230
1.0
 70
    24
 71
     3
 72
     8
 73
     4
 74
     0
 42
0.0000000001
 43
0.0000000001
 40
0.0
 40
0.0
 40
0.0
 40
0.0
 40
1.0
 40
1.0
 40
1.0
 40
1.0
 10
26.7703
 20
28.2099
 30
0.0
 10
26.7703
 20
28.2099
 30
0.0
 10
29.1232
 20
27.795
 30
0.0
 10
29.1232
 20
27.795
 30
0.0
  0
SPLINE
  5
9A
330
1F
100
AcDbEntity
  8
DEFAULT_1
 62
   250
100
AcDbSpline
210
0.0
220
0.0
230
1.0
 70
     8
 71
     3
 72
     8
 73
     4
 74
     0
 42
0.0000000001
 43
0.0000000001
 40
0.0
 40
0.0
 40
0.0
 40
0.0
 40
1.0
 40
1.0
 40
1.0
 40
1.0
 10
-5.781
 20
19.0016
 30
0.0
 10
-9.4304
 20
23.3507
 30
0.0
 10
-14.8167
 20
25.8624
 30
0.0
 10
-20.4941
 20
25.8624
 30
0.0
  0
SPLINE
  5
9B
330
1F
100
AcDbEntity
  8
DEFAULT_1
 62
   250
100
AcDbSpline
210
0.0
220
0.0
230
1.0
 70
     8
 71
     3
 72
     8
 73
     4
 74
     0
 42
0.0000000001
 43
0.0000000001
 40
0.0
 40
0.0
 40
0.0
 40
0.0
 40
1.0
 40
1.0
 40
1.0
 40
1.0
 10
20.8998
 20
25.8624
 30
0.0
 10
15.2224
 20
25.8624
 30
0.0
 10
9.8361
 20
23.3507
 30
0.0
 10
6.1867
 20
19.0016
 30
0.0
  0
SPLINE
  5
9C
330
1F
100
AcDbEntity
  8
DEFAULT_1
 62
   250
100
AcDbSpline
210
0.0
220
0.0
230
1.0
 70
    24
 71
     3
 72
     8
 73
     4
 74
     0
 42
0.0000000001
 43
0.0000000001
 40
0.0
 40
0.0
 40
0.0
 40
0.0
 40
1.0
 40
1.0
 40
1.0
 40
1.0
 10
-9.3506
 20
-6.5961
 30
0.0
 10
-9.3506
 20
-6.5961
 30
0.0
 10
-9.3862
 20
-6.5707
 30
0.0
 10
-9.3862
 20
-6.5707
 30
0.0
  0
SPLINE
  5
9D
330
1F
100
AcDbEntity
  8
DEFAULT_1
 62
   250
100
AcDbSpline
210
0.0
220
0.0
230
1.0
 70
    24
 71
     3
 72
     8
 73
     4
 74
     0
 42
0.0000000001
 43
0.0000000001
 40
0.0
 40
0.0
 40
0.0
 40
0.0
 40
1.0
 40
1.0
 40
1.0
 40
1.0
 10
9.7907
 20
-6.5706
 30
0.0
 10
9.7907
 20
-6.5706
 30
0.0
 10
9.7579
 20
-6.5958
 30
0.0
 10
9.7579
 20
-6.5958
 30
0.0
  0
SPLINE
  5
9E
330
1F
100
AcDbEntity
  8
DEFAULT_1
 62
   250
100
AcDbSpline
210
0.0
220
0.0
230
1.0
 70
    24
 71
     3
 72
     8
 73
     4
 74
     0
 42
0.0000000001
 43
0.0000000001
 40
0.0
 40
0.0
 40
0.0
 40
0.0
 40
1.0
 40
1.0
 40
1.0
 40
1.0
 10
-29.0687
 20
27.4119
 30
0.0
 10
-29.0687
 20
27.4119
 30
0.0
 10
-29.0687
 20
5.1065
 30
0.0
 10
-29.0687
 20
5.1065
 30
0.0
  0
SPLINE
  5
9F
330
1F
100
AcDbEntity
  8
DEFAULT_1
 62
   250
100
AcDbSpline
210
0.0
220
0.0
230
1.0
 70
    24
 71
     3
 72
     8
 73
     4
 74
     0
 42
0.0000000001
 43
0.0000000001
 40
0.0
 40
0.0
 40
0.0
 40
0.0
 40
1.0
 40
1.0
 40
1.0
 40
1.0
 10
-22.2048
 20
27.463
 30
0.0
 10
-22.2048
 20
27.463
 30
0.0
 10
-22.2048
 20
5.0554
 30
0.0
 10
-22.2048
 20
5.0554
 30
0.0
  0
SPLINE
  5
A0
330
1F
100
AcDbEntity
  8
DEFAULT_1
 62
   250
100
AcDbSpline
210
0.0
220
0.0
230
1.0
 70
    24
 71
     3
 72
     8
 73
     4
 74
     0
 42
0.0000000001
 43
0.0000000001
 40
0.0
 40
0.0
 40
0.0
 40
0.0
 40
1.0
 40
1.0
 40
1.0
 40
1.0
 10
-21.5645
 20
27.463
 30
0.0
 10
-21.5645
 20
27.463
 30
0.0
 10
-21.5645
 20
5.0554
 30
0.0
 10
-21.5645
 20
5.0554
 30
0.0
  0
SPLINE
  5
A1
330
1F
100
AcDbEntity
  8
DEFAULT_1
 62
   250
100
AcDbSpline
210
0.0
220
0.0
230
1.0
 70
     8
 71
     3
 72
    16
 73
    12
 74
     0
 42
0.0000000001
 43
0.0000000001
 40
0.0
 40
0.0
 40
0.0
 40
0.0
 40
0.25
 40
0.25
 40
0.25
 40
0.25
 40
0.5
 40
0.5
 40
0.5
 40
0.5
 40
1.0
 40
1.0
 40
1.0
 40
1.0
 10
-9.4004
 20
-6.5776
 30
0.0
 10
-9.4004
 20
-6.5776
 30
0.0
 10
-9.4095
 20
-6.7015
 30
0.0
 10
-9.4095
 20
-6.7015
 30
0.0
 10
-9.4095
 20
-6.7015
 30
0.0
 10
-9.4095
 20
-6.7015
 30
0.0
 10
-9.4722
 20
-6.9196
 30
0.0
 10
-9.4722
 20
-6.9196
 30
0.0
 10
-9.4722
 20
-6.9196
 30
0.0
 10
-9.4722
 20
-6.9196
 30
0.0
 10
-9.4902
 20
-6.9578
 30
0.0
 10
-9.4902
 20
-6.9578
 30
0.0
  0
SPLINE
  5
A2
330
1F
100
AcDbEntity
  8
DEFAULT_1
 62
   250
100
AcDbSpline
210
0.0
220
0.0
230
1.0
 70
     8
 71
     3
 72
    16
 73
    12
 74
     0
 42
0.0000000001
 43
0.0000000001
 40
0.0
 40
0.0
 40
0.0
 40
0.0
 40
0.25
 40
0.25
 40
0.25
 40
0.25
 40
0.5
 40
0.5
 40
0.5
 40
0.5
 40
1.0
 40
1.0
 40
1.0
 40
1.0
 10
-11.4326
 20
-10.8428
 30
0.0
 10
-11.4326
 20
-10.8428
 30
0.0
 10
-11.4496
 20
-10.8785
 30
0.0
 10
-11.4496
 20
-10.8785
 30
0.0
 10
-11.4496
 20
-10.8785
 30
0.0
 10
-11.4496
 20
-10.8785
 30
0.0
 10
-11.5218
 20
-11.118
 30
0.0
 10
-11.5218
 20
-11.118
 30
0.0
 10
-11.5218
 20
-11.118
 30
0.0
 10
-11.5218
 20
-11.118
 30
0.0
 10
-11.5345
 20
-11.2741
 30
0.0
 10
-11.5345
 20
-11.2741
 30
0.0
  0
SPLINE
  5
A3
330
1F
100
AcDbEntity
  8
DEFAULT_1
 62
   250
100
AcDbSpline
210
0.0
220
0.0
230
1.0
 70
     8
 71
     3
 72
    16
 73
    12
 74
     0
 42
0.0000000001
 43
0.0000000001
 40
0.0
 40
0.0
 40
0.0
 40
0.0
 40
0.25
 40
0.25
 40
0.25
 40
0.25
 40
0.5
 40
0.5
 40
0.5
 40
0.5
 40
1.0
 40
1.0
 40
1.0
 40
1.0
 10
9.8958
 20
-6.9578
 30
0.0
 10
9.8958
 20
-6.9578
 30
0.0
 10
9.8779
 20
-6.9198
 30
0.0
 10
9.8779
 20
-6.9198
 30
0.0
 10
9.8779
 20
-6.9198
 30
0.0
 10
9.8779
 20
-6.9198
 30
0.0
 10
9.8152
 20
-6.7018
 30
0.0
 10
9.8152
 20
-6.7018
 30
0.0
 10
9.8152
 20
-6.7018
 30
0.0
 10
9.8152
 20
-6.7018
 30
0.0
 10
9.8061
 20
-6.5776
 30
0.0
 10
9.8061
 20
-6.5776
 30
0.0
  0
SPLINE
  5
A4
330
1F
100
AcDbEntity
  8
DEFAULT_1
 62
   250
100
AcDbSpline
210
0.0
220
0.0
230
1.0
 70
     8
 71
     3
 72
    16
 73
    12
 74
     0
 42
0.0000000001
 43
0.0000000001
 40
0.0
 40
0.0
 40
0.0
 40
0.0
 40
0.25
 40
0.25
 40
0.25
 40
0.25
 40
0.5
 40
0.5
 40
0.5
 40
0.5
 40
1.0
 40
1.0
 40
1.0
 40
1.0
 10
11.9401
 20
-11.2741
 30
0.0
 10
11.9401
 20
-11.2741
 30
0.0
 10
11.9274
 20
-11.118
 30
0.0
 10
11.9274
 20
-11.118
 30
0.0
 10
11.9274
 20
-11.118
 30
0.0
 10
11.9274
 20
-11.118
 30
0.0
 10
11.8552
 20
-10.8785
 30
0.0
 10
11.8552
 20
-10.8785
 30
0.0
 10
11.8552
 20
-10.8785
 30
0.0
 10
11.8552
 20
-10.8785
 30
0.0
 10
11.8383
 20
-10.8428
 30
0.0
 10
11.8383
 20
-10.8428
 30
0.0
  0
SPLINE
  5
A5
330
1F
100
AcDbEntity
  8
DEFAULT_1
 62
   250
100
AcDbSpline
210
0.0
220
0.0
230
1.0
 70
    24
 71
     3
 72
     8
 73
     4
 74
     0
 42
0.0000000001
 43
0.0000000001
 40
0.0
 40
0.0
 40
0.0
 40
0.0
 40
1.0
 40
1.0
 40
1.0
 40
1.0
 10
21.9702
 20
27.463
 30
0.0
 10
21.9702
 20
27.463
 30
0.0
 10
21.9702
 20
5.0554
 30
0.0
 10
21.9702
 20
5.0554
 30
0.0
  0
SPLINE
  5
A6
330
1F
100
AcDbEntity
  8
DEFAULT_1
 62
   250
100
AcDbSpline
210
0.0
220
0.0
230
1.0
 70
    24
 71
     3
 72
     8
 73
     4
 74
     0
 42
0.0000000001
 43
0.0000000001
 40
0.0
 40
0.0
 40
0.0
 40
0.0
 40
1.0
 40
1.0
 40
1.0
 40
1.0
 10
22.6104
 20
5.0554
 30
0.0
 10
22.6104
 20
5.0554
 30
0.0
 10
22.6104
 20
27.463
 30
0.0
 10
22.6104
 20
27.463
 30
0.0
  0
SPLINE
  5
A7
330
1F
100
AcDbEntity
  8
DEFAULT_1
 62
   250
100
AcDbSpline
210
0.0
220
0.0
230
1.0
 70
    24
 71
     3
 72
     8
 73
     4
 74
     0
 42
0.0000000001
 43
0.0000000001
 40
0.0
 40
0.0
 40
0.0
 40
0.0
 40
1.0
 40
1.0
 40
1.0
 40
1.0
 10
29.4743
 20
5.1065
 30
0.0
 10
29.4743
 20
5.1065
 30
0.0
 10
29.4743
 20
27.4119
 30
0.0
 10
29.4743
 20
27.4119
 30
0.0
  0
SPLINE
  5
A8
330
1F
100
AcDbEntity
  8
DEFAULT_1
 62
   250
100
AcDbSpline
210
0.0
220
0.0
230
1.0
 70
     8
 71
     3
 72
     8
 73
     4
 74
     0
 42
0.0000000001
 43
0.0000000001
 40
0.0
 40
0.0
 40
0.0
 40
0.0
 40
1.0
 40
1.0
 40
1.0
 40
1.0
 10
-29.0687
 20
5.1065
 30
0.0
 10
-29.0518
 20
4.914
 30
0.0
 10
-28.9078
 20
4.7569
 30
0.0
 10
-28.7176
 20
4.7234
 30
0.0
  0
SPLINE
  5
A9
330
1F
100
AcDbEntity
  8
DEFAULT_1
 62
   250
100
AcDbSpline
210
0.0
220
0.0
230
1.0
 70
     8
 71
     3
 72
     8
 73
     4
 74
     0
 42
0.0000000001
 43
0.0000000001
 40
0.0
 40
0.0
 40
0.0
 40
0.0
 40
1.0
 40
1.0
 40
1.0
 40
1.0
 10
-26.0968
 20
4.3085
 30
0.0
 10
-25.8774
 20
4.3085
 30
0.0
 10
-25.6939
 20
4.4746
 30
0.0
 10
-25.6721
 20
4.6929
 30
0.0
  0
SPLINE
  5
AA
330
1F
100
AcDbEntity
  8
DEFAULT_1
 62
   250
100
AcDbSpline
210
0.0
220
0.0
230
1.0
 70
     8
 71
     3
 72
     8
 73
     4
 74
     0
 42
0.0000000001
 43
0.0000000001
 40
0.0
 40
0.0
 40
0.0
 40
0.0
 40
1.0
 40
1.0
 40
1.0
 40
1.0
 10
-29.1218
 20
5.7142
 30
0.0
 10
-29.1315
 20
5.8245
 30
0.0
 10
-29.2237
 20
5.9091
 30
0.0
 10
-29.3344
 20
5.9091
 30
0.0
  0
SPLINE
  5
AB
330
1F
100
AcDbEntity
  8
DEFAULT_1
 62
   250
100
AcDbSpline
210
0.0
220
0.0
230
1.0
 70
     8
 71
     3
 72
     8
 73
     4
 74
     0
 42
0.0000000001
 43
0.0000000001
 40
0.0
 40
0.0
 40
0.0
 40
0.0
 40
1.0
 40
1.0
 40
1.0
 40
1.0
 10
-22.2048
 20
5.0554
 30
0.0
 10
-22.2048
 20
4.9375
 30
0.0
 10
-22.1092
 20
4.8421
 30
0.0
 10
-21.9913
 20
4.8421
 30
0.0
  0
SPLINE
  5
AC
330
1F
100
AcDbEntity
  8
DEFAULT_1
 62
   250
100
AcDbSpline
210
0.0
220
0.0
230
1.0
 70
     8
 71
     3
 72
     8
 73
     4
 74
     0
 42
0.0000000001
 43
0.0000000001
 40
0.0
 40
0.0
 40
0.0
 40
0.0
 40
1.0
 40
1.0
 40
1.0
 40
1.0
 10
-21.778
 20
4.8421
 30
0.0
 10
-21.6601
 20
4.8421
 30
0.0
 10
-21.5645
 20
4.9375
 30
0.0
 10
-21.5645
 20
5.0554
 30
0.0
  0
SPLINE
  5
AD
330
1F
100
AcDbEntity
  8
DEFAULT_1
 62
   250
100
AcDbSpline
210
0.0
220
0.0
230
1.0
 70
     8
 71
     3
 72
     8
 73
     4
 74
     0
 42
0.0000000001
 43
0.0000000001
 40
0.0
 40
0.0
 40
0.0
 40
0.0
 40
1.0
 40
1.0
 40
1.0
 40
1.0
 10
-28.7176
 20
27.795
 30
0.0
 10
-28.9078
 20
27.7614
 30
0.0
 10
-29.0518
 20
27.6043
 30
0.0
 10
-29.0687
 20
27.4119
 30
0.0
  0
SPLINE
  5
AE
330
1F
100
AcDbEntity
  8
DEFAULT_1
 62
   250
100
AcDbSpline
210
0.0
220
0.0
230
1.0
 70
     8
 71
     3
 72
     8
 73
     4
 74
     0
 42
0.0000000001
 43
0.0000000001
 40
0.0
 40
0.0
 40
0.0
 40
0.0
 40
1.0
 40
1.0
 40
1.0
 40
1.0
 10
-25.6721
 20
27.8256
 30
0.0
 10
-25.6939
 20
28.0437
 30
0.0
 10
-25.8774
 20
28.2099
 30
0.0
 10
-26.0968
 20
28.2099
 30
0.0
  0
SPLINE
  5
AF
330
1F
100
AcDbEntity
  8
DEFAULT_1
 62
   250
100
AcDbSpline
210
0.0
220
0.0
230
1.0
 70
     8
 71
     3
 72
     8
 73
     4
 74
     0
 42
0.0000000001
 43
0.0000000001
 40
0.0
 40
0.0
 40
0.0
 40
0.0
 40
1.0
 40
1.0
 40
1.0
 40
1.0
 10
-29.3344
 20
26.6094
 30
0.0
 10
-29.2237
 20
26.6094
 30
0.0
 10
-29.1315
 20
26.694
 30
0.0
 10
-29.1218
 20
26.8041
 30
0.0
  0
SPLINE
  5
B0
330
1F
100
AcDbEntity
  8
DEFAULT_1
 62
   250
100
AcDbSpline
210
0.0
220
0.0
230
1.0
 70
     8
 71
     3
 72
     8
 73
     4
 74
     0
 42
0.0000000001
 43
0.0000000001
 40
0.0
 40
0.0
 40
0.0
 40
0.0
 40
1.0
 40
1.0
 40
1.0
 40
1.0
 10
-21.9913
 20
27.6764
 30
0.0
 10
-22.1092
 20
27.6764
 30
0.0
 10
-22.2048
 20
27.5808
 30
0.0
 10
-22.2048
 20
27.463
 30
0.0
  0
SPLINE
  5
B1
330
1F
100
AcDbEntity
  8
DEFAULT_1
 62
   250
100
AcDbSpline
210
0.0
220
0.0
230
1.0
 70
     8
 71
     3
 72
     8
 73
     4
 74
     0
 42
0.0000000001
 43
0.0000000001
 40
0.0
 40
0.0
 40
0.0
 40
0.0
 40
1.0
 40
1.0
 40
1.0
 40
1.0
 10
-21.5645
 20
27.463
 30
0.0
 10
-21.5645
 20
27.5808
 30
0.0
 10
-21.6601
 20
27.6764
 30
0.0
 10
-21.778
 20
27.6764
 30
0.0
  0
SPLINE
  5
B2
330
1F
100
AcDbEntity
  8
DEFAULT_1
 62
   250
100
AcDbSpline
210
0.0
220
0.0
230
1.0
 70
     8
 71
     3
 72
     8
 73
     4
 74
     0
 42
0.0000000001
 43
0.0000000001
 40
0.0
 40
0.0
 40
0.0
 40
0.0
 40
1.0
 40
1.0
 40
1.0
 40
1.0
 10
29.1232
 20
4.7234
 30
0.0
 10
29.3135
 20
4.7569
 30
0.0
 10
29.4574
 20
4.914
 30
0.0
 10
29.4743
 20
5.1065
 30
0.0
  0
SPLINE
  5
B3
330
1F
100
AcDbEntity
  8
DEFAULT_1
 62
   250
100
AcDbSpline
210
0.0
220
0.0
230
1.0
 70
     8
 71
     3
 72
     8
 73
     4
 74
     0
 42
0.0000000001
 43
0.0000000001
 40
0.0
 40
0.0
 40
0.0
 40
0.0
 40
1.0
 40
1.0
 40
1.0
 40
1.0
 10
26.0777
 20
4.6929
 30
0.0
 10
26.0996
 20
4.4746
 30
0.0
 10
26.2832
 20
4.3085
 30
0.0
 10
26.5024
 20
4.3085
 30
0.0
  0
SPLINE
  5
B4
330
1F
100
AcDbEntity
  8
DEFAULT_1
 62
   250
100
AcDbSpline
210
0.0
220
0.0
230
1.0
 70
     8
 71
     3
 72
     8
 73
     4
 74
     0
 42
0.0000000001
 43
0.0000000001
 40
0.0
 40
0.0
 40
0.0
 40
0.0
 40
1.0
 40
1.0
 40
1.0
 40
1.0
 10
29.7401
 20
5.9091
 30
0.0
 10
29.6294
 20
5.9091
 30
0.0
 10
29.5371
 20
5.8245
 30
0.0
 10
29.5275
 20
5.7142
 30
0.0
  0
SPLINE
  5
B5
330
1F
100
AcDbEntity
  8
DEFAULT_1
 62
   250
100
AcDbSpline
210
0.0
220
0.0
230
1.0
 70
     8
 71
     3
 72
     8
 73
     4
 74
     0
 42
0.0000000001
 43
0.0000000001
 40
0.0
 40
0.0
 40
0.0
 40
0.0
 40
1.0
 40
1.0
 40
1.0
 40
1.0
 10
22.397
 20
4.8421
 30
0.0
 10
22.5149
 20
4.8421
 30
0.0
 10
22.6104
 20
4.9375
 30
0.0
 10
22.6104
 20
5.0554
 30
0.0
  0
SPLINE
  5
B6
330
1F
100
AcDbEntity
  8
DEFAULT_1
 62
   250
100
AcDbSpline
210
0.0
220
0.0
230
1.0
 70
     8
 71
     3
 72
     8
 73
     4
 74
     0
 42
0.0000000001
 43
0.0000000001
 40
0.0
 40
0.0
 40
0.0
 40
0.0
 40
1.0
 40
1.0
 40
1.0
 40
1.0
 10
21.9702
 20
5.0554
 30
0.0
 10
21.9702
 20
4.9375
 30
0.0
 10
22.0658
 20
4.8421
 30
0.0
 10
22.1836
 20
4.8421
 30
0.0
  0
SPLINE
  5
B7
330
1F
100
AcDbEntity
  8
DEFAULT_1
 62
   250
100
AcDbSpline
210
0.0
220
0.0
230
1.0
 70
     8
 71
     3
 72
     8
 73
     4
 74
     0
 42
0.0000000001
 43
0.0000000001
 40
0.0
 40
0.0
 40
0.0
 40
0.0
 40
1.0
 40
1.0
 40
1.0
 40
1.0
 10
29.4743
 20
27.4119
 30
0.0
 10
29.4574
 20
27.6043
 30
0.0
 10
29.3135
 20
27.7614
 30
0.0
 10
29.1232
 20
27.795
 30
0.0
  0
SPLINE
  5
B8
330
1F
100
AcDbEntity
  8
DEFAULT_1
 62
   250
100
AcDbSpline
210
0.0
220
0.0
230
1.0
 70
     8
 71
     3
 72
     8
 73
     4
 74
     0
 42
0.0000000001
 43
0.0000000001
 40
0.0
 40
0.0
 40
0.0
 40
0.0
 40
1.0
 40
1.0
 40
1.0
 40
1.0
 10
26.5024
 20
28.2099
 30
0.0
 10
26.2832
 20
28.2099
 30
0.0
 10
26.0996
 20
28.0437
 30
0.0
 10
26.0777
 20
27.8256
 30
0.0
  0
SPLINE
  5
B9
330
1F
100
AcDbEntity
  8
DEFAULT_1
 62
   250
100
AcDbSpline
210
0.0
220
0.0
230
1.0
 70
     8
 71
     3
 72
     8
 73
     4
 74
     0
 42
0.0000000001
 43
0.0000000001
 40
0.0
 40
0.0
 40
0.0
 40
0.0
 40
1.0
 40
1.0
 40
1.0
 40
1.0
 10
29.5275
 20
26.8041
 30
0.0
 10
29.5371
 20
26.694
 30
0.0
 10
29.6294
 20
26.6094
 30
0.0
 10
29.7401
 20
26.6094
 30
0.0
  0
SPLINE
  5
BA
330
1F
100
AcDbEntity
  8
DEFAULT_1
 62
   250
100
AcDbSpline
210
0.0
220
0.0
230
1.0
 70
     8
 71
     3
 72
     8
 73
     4
 74
     0
 42
0.0000000001
 43
0.0000000001
 40
0.0
 40
0.0
 40
0.0
 40
0.0
 40
1.0
 40
1.0
 40
1.0
 40
1.0
 10
22.6104
 20
27.463
 30
0.0
 10
22.6104
 20
27.5808
 30
0.0
 10
22.5149
 20
27.6764
 30
0.0
 10
22.397
 20
27.6764
 30
0.0
  0
SPLINE
  5
BB
330
1F
100
AcDbEntity
  8
DEFAULT_1
 62
   250
100
AcDbSpline
210
0.0
220
0.0
230
1.0
 70
     8
 71
     3
 72
     8
 73
     4
 74
     0
 42
0.0000000001
 43
0.0000000001
 40
0.0
 40
0.0
 40
0.0
 40
0.0
 40
1.0
 40
1.0
 40
1.0
 40
1.0
 10
22.1836
 20
27.6764
 30
0.0
 10
22.0658
 20
27.6764
 30
0.0
 10
21.9702
 20
27.5808
 30
0.0
 10
21.9702
 20
27.463
 30
0.0
  0
SPLINE
  5
BC
330
1F
100
AcDbEntity
  8
DEFAULT_1
 62
   250
100
AcDbSpline
210
0.0
220
0.0
230
1.0
 70
     8
 71
     3
 72
    48
 73
    44
 74
     0
 42
0.0000000001
 43
0.0000000001
 40
0.0
 40
0.0
 40
0.0
 40
0.0
 40
0.0833333333333333
 40
0.0833333333333333
 40
0.0833333333333333
 40
0.0833333333333333
 40
0.1666666666666667
 40
0.1666666666666667
 40
0.1666666666666667
 40
0.1666666666666667
 40
0.25
 40
0.25
 40
0.25
 40
0.25
 40
0.3333333333333333
 40
0.3333333333333333
 40
0.3333333333333333
 40
0.3333333333333333
 40
0.4166666666666667
 40
0.4166666666666667
 40
0.4166666666666667
 40
0.4166666666666667
 40
0.5
 40
0.5
 40
0.5
 40
0.5
 40
0.5833333333333334
 40
0.5833333333333334
 40
0.5833333333333334
 40
0.5833333333333334
 40
0.6666666666666666
 40
0.6666666666666666
 40
0.6666666666666666
 40
0.6666666666666666
 40
0.75
 40
0.75
 40
0.75
 40
0.75
 40
0.8333333333333334
 40
0.8333333333333334
 40
0.8333333333333334
 40
0.8333333333333334
 40
1.0
 40
1.0
 40
1.0
 40
1.0
 10
0.2028
 20
-11.0456
 30
0.0
 10
0.2028
 20
-11.0456
 30
0.0
 10
1.6475
 20
-11.0447
 30
0.0
 10
1.6475
 20
-11.0447
 30
0.0
 10
1.6475
 20
-11.0447
 30
0.0
 10
1.6475
 20
-11.0447
 30
0.0
 10
3.395
 20
-11.0374
 30
0.0
 10
3.395
 20
-11.0374
 30
0.0
 10
3.395
 20
-11.0374
 30
0.0
 10
3.395
 20
-11.0374
 30
0.0
 10
5.1466
 20
-11.0241
 30
0.0
 10
5.1466
 20
-11.0241
 30
0.0
 10
5.1466
 20
-11.0241
 30
0.0
 10
5.1466
 20
-11.0241
 30
0.0
 10
6.7699
 20
-11.0053
 30
0.0
 10
6.7699
 20
-11.0053
 30
0.0
 10
6.7699
 20
-11.0053
 30
0.0
 10
6.7699
 20
-11.0053
 30
0.0
 10
8.2186
 20
-10.982
 30
0.0
 10
8.2186
 20
-10.982
 30
0.0
 10
8.2186
 20
-10.982
 30
0.0
 10
8.2186
 20
-10.982
 30
0.0
 10
9.4621
 20
-10.9553
 30
0.0
 10
9.4621
 20
-10.9553
 30
0.0
 10
9.4621
 20
-10.9553
 30
0.0
 10
9.4621
 20
-10.9553
 30
0.0
 10
10.4652
 20
-10.9265
 30
0.0
 10
10.4652
 20
-10.9265
 30
0.0
 10
10.4652
 20
-10.9265
 30
0.0
 10
10.4652
 20
-10.9265
 30
0.0
 10
11.2078
 20
-10.8975
 30
0.0
 10
11.2078
 20
-10.8975
 30
0.0
 10
11.2078
 20
-10.8975
 30
0.0
 10
11.2078
 20
-10.8975
 30
0.0
 10
11.6686
 20
-10.8699
 30
0.0
 10
11.6686
 20
-10.8699
 30
0.0
 10
11.6686
 20
-10.8699
 30
0.0
 10
11.6686
 20
-10.8699
 30
0.0
 10
11.8378
 20
-10.8451
 30
0.0
 10
11.8378
 20
-10.8451
 30
0.0
 10
11.8378
 20
-10.8451
 30
0.0
 10
11.8378
 20
-10.8451
 30
0.0
 10
11.837
 20
-10.8444
 30
0.0
 10
11.837
 20
-10.8444
 30
0.0
  0
SPLINE
  5
BD
330
1F
100
AcDbEntity
  8
DEFAULT_1
 62
   250
100
AcDbSpline
210
0.0
220
0.0
230
1.0
 70
     8
 71
     3
 72
    48
 73
    44
 74
     0
 42
0.0000000001
 43
0.0000000001
 40
0.0
 40
0.0
 40
0.0
 40
0.0
 40
0.0833333333333333
 40
0.0833333333333333
 40
0.0833333333333333
 40
0.0833333333333333
 40
0.1666666666666667
 40
0.1666666666666667
 40
0.1666666666666667
 40
0.1666666666666667
 40
0.25
 40
0.25
 40
0.25
 40
0.25
 40
0.3333333333333333
 40
0.3333333333333333
 40
0.3333333333333333
 40
0.3333333333333333
 40
0.4166666666666667
 40
0.4166666666666667
 40
0.4166666666666667
 40
0.4166666666666667
 40
0.5
 40
0.5
 40
0.5
 40
0.5
 40
0.5833333333333334
 40
0.5833333333333334
 40
0.5833333333333334
 40
0.5833333333333334
 40
0.6666666666666666
 40
0.6666666666666666
 40
0.6666666666666666
 40
0.6666666666666666
 40
0.75
 40
0.75
 40
0.75
 40
0.75
 40
0.8333333333333334
 40
0.8333333333333334
 40
0.8333333333333334
 40
0.8333333333333334
 40
1.0
 40
1.0
 40
1.0
 40
1.0
 10
-11.4311
 20
-10.8449
 30
0.0
 10
-11.4311
 20
-10.8449
 30
0.0
 10
-11.4317
 20
-10.8455
 30
0.0
 10
-11.4317
 20
-10.8455
 30
0.0
 10
-11.4317
 20
-10.8455
 30
0.0
 10
-11.4317
 20
-10.8455
 30
0.0
 10
-11.2574
 20
-10.8705
 30
0.0
 10
-11.2574
 20
-10.8705
 30
0.0
 10
-11.2574
 20
-10.8705
 30
0.0
 10
-11.2574
 20
-10.8705
 30
0.0
 10
-10.7907
 20
-10.898
 30
0.0
 10
-10.7907
 20
-10.898
 30
0.0
 10
-10.7907
 20
-10.898
 30
0.0
 10
-10.7907
 20
-10.898
 30
0.0
 10
-10.0415
 20
-10.9271
 30
0.0
 10
-10.0415
 20
-10.9271
 30
0.0
 10
-10.0415
 20
-10.9271
 30
0.0
 10
-10.0415
 20
-10.9271
 30
0.0
 10
-9.0317
 20
-10.9558
 30
0.0
 10
-9.0317
 20
-10.9558
 30
0.0
 10
-9.0317
 20
-10.9558
 30
0.0
 10
-9.0317
 20
-10.9558
 30
0.0
 10
-7.781
 20
-10.9826
 30
0.0
 10
-7.781
 20
-10.9826
 30
0.0
 10
-7.781
 20
-10.9826
 30
0.0
 10
-7.781
 20
-10.9826
 30
0.0
 10
-6.3254
 20
-11.0058
 30
0.0
 10
-6.3254
 20
-11.0058
 30
0.0
 10
-6.3254
 20
-11.0058
 30
0.0
 10
-6.3254
 20
-11.0058
 30
0.0
 10
-4.6955
 20
-11.0246
 30
0.0
 10
-4.6955
 20
-11.0246
 30
0.0
 10
-4.6955
 20
-11.0246
 30
0.0
 10
-4.6955
 20
-11.0246
 30
0.0
 10
-2.9415
 20
-11.0377
 30
0.0
 10
-2.9415
 20
-11.0377
 30
0.0
 10
-2.9415
 20
-11.0377
 30
0.0
 10
-2.9415
 20
-11.0377
 30
0.0
 10
-1.2053
 20
-11.0448
 30
0.0
 10
-1.2053
 20
-11.0448
 30
0.0
 10
-1.2053
 20
-11.0448
 30
0.0
 10
-1.2053
 20
-11.0448
 30
0.0
 10
0.2028
 20
-11.0456
 30
0.0
 10
0.2028
 20
-11.0456
 30
0.0
  0
SPLINE
  5
BE
330
1F
100
AcDbEntity
  8
DEFAULT_1
 62
   250
100
AcDbSpline
210
0.0
220
0.0
230
1.0
 70
    24
 71
     3
 72
     8
 73
     4
 74
     0
 42
0.0000000001
 43
0.0000000001
 40
0.0
 40
0.0
 40
0.0
 40
0.0
 40
1.0
 40
1.0
 40
1.0
 40
1.0
 10
-11.5345
 20
-11.2739
 30
0.0
 10
-11.5345
 20
-11.2739
 30
0.0
 10
-11.5345
 20
-36.8684
 30
0.0
 10
-11.5345
 20
-36.8684
 30
0.0
  0
SPLINE
  5
BF
330
1F
100
AcDbEntity
  8
DEFAULT_1
 62
   250
100
AcDbSpline
210
0.0
220
0.0
230
1.0
 70
    24
 71
     3
 72
     8
 73
     4
 74
     0
 42
0.0000000001
 43
0.0000000001
 40
0.0
 40
0.0
 40
0.0
 40
0.0
 40
1.0
 40
1.0
 40
1.0
 40
1.0
 10
11.9401
 20
-11.2739
 30
0.0
 10
11.9401
 20
-11.2739
 30
0.0
 10
11.9401
 20
-36.8684
 30
0.0
 10
11.9401
 20
-36.8684
 30
0.0
  0
SPLINE
  5
C0
330
1F
100
AcDbEntity
  8
DEFAULT_1
  6
NEW_LINE5
 62
   250
100
AcDbSpline
210
0.0
220
0.0
230
1.0
 70
    24
 71
     3
 72
     8
 73
     4
 74
     0
 42
0.0000000001
 43
0.0000000001
 40
0.0
 40
0.0
 40
0.0
 40
0.0
 40
1.0
 40
1.0
 40
1.0
 40
1.0
 10
15.9425
 20
16.2592
 30
0.0
 10
15.9425
 20
16.2592
 30
0.0
 10
32.0446
 20
16.2592
 30
0.0
 10
32.0446
 20
16.2592
 30
0.0
  0
SPLINE
  5
C2
330
1F
100
AcDbEntity
  8
DEFAULT_1
 62
   250
100
AcDbSpline
210
0.0
220
0.0
230
1.0
 70
    11
 71
     3
 72
    92
 73
    88
 74
     0
 42
0.0000000001
 43
0.0000000001
 40
0.0
 40
0.0
 40
0.0
 40
0.0
 40
0.0434782608695652
 40
0.0434782608695652
 40
0.0434782608695652
 40
0.0434782608695652
 40
0.0869565217391304
 40
0.0869565217391304
 40
0.0869565217391304
 40
0.0869565217391304
 40
0.1304347826086956
 40
0.1304347826086956
 40
0.1304347826086956
 40
0.1304347826086956
 40
0.1739130434782609
 40
0.1739130434782609
 40
0.1739130434782609
 40
0.1739130434782609
 40
0.2173913043478261
 40
0.2173913043478261
 40
0.2173913043478261
 40
0.2173913043478261
 40
0.2608695652173913
 40
0.2608695652173913
 40
0.2608695652173913
 40
0.2608695652173913
 40
0.3043478260869565
 40
0.3043478260869565
 40
0.3043478260869565
 40
0.3043478260869565
 40
0.3478260869565217
 40
0.3478260869565217
 40
0.3478260869565217
 40
0.3478260869565217
 40
0.391304347826087
 40
0.391304347826087
 40
0.391304347826087
 40
0.391304347826087
 40
0.4347826086956522
 40
0.4347826086956522
 40
0.4347826086956522
 40
0.4347826086956522
 40
0.4782608695652174
 40
0.4782608695652174
 40
0.4782608695652174
 40
0.4782608695652174
 40
0.5217391304347826
 40
0.5217391304347826
 40
0.5217391304347826
 40
0.5217391304347826
 40
0.5652173913043478
 40
0.5652173913043478
 40
0.5652173913043478
 40
0.5652173913043478
 40
0.6086956521739131
 40
0.6086956521739131
 40
0.6086956521739131
 40
0.6086956521739131
 40
0.6521739130434783
 40
0.6521739130434783
 40
0.6521739130434783
 40
0.6521739130434783
 40
0.6956521739130435
 40
0.6956521739130435
 40
0.6956521739130435
 40
0.6956521739130435
 40
0.7391304347826086
 40
0.7391304347826086
 40
0.7391304347826086
 40
0.7391304347826086
 40
0.782608695652174
 40
0.782608695652174
 40
0.782608695652174
 40
0.782608695652174
 40
0.8260869565217391
 40
0.8260869565217391
 40
0.8260869565217391
 40
0.8260869565217391
 40
0.8695652173913043
 40
0.8695652173913043
 40
0.8695652173913043
 40
0.8695652173913043
 40
0.9130434782608695
 40
0.9130434782608695
 40
0.9130434782608695
 40
0.9130434782608695
 40
1.0
 40
1.0
 40
1.0
 40
1.0
 10
-0.9137
 20
47.1845
 30
0.0
 10
-0.9137
 20
47.1845
 30
0.0
 10
-0.9137
 20
46.8652
 30
0.0
 10
-0.9137
 20
46.8652
 30
0.0
 10
-0.9137
 20
46.8652
 30
0.0
 10
-0.9137
 20
46.8652
 30
0.0
 10
-2.7019
 20
46.8652
 30
0.0
 10
-2.7019
 20
46.8652
 30
0.0
 10
-2.7019
 20
46.8652
 30
0.0
 10
-2.7044
 20
46.9452
 30
0.0
 10
-2.6918
 20
47.022
 30
0.0
 10
-2.6634
 20
47.0957
 30
0.0
 10
-2.6634
 20
47.0957
 30
0.0
 10
-2.6181
 20
47.2179
 30
0.0
 10
-2.545
 20
47.3376
 30
0.0
 10
-2.4449
 20
47.456
 30
0.0
 10
-2.4449
 20
47.456
 30
0.0
 10
-2.3441
 20
47.5738
 30
0.0
 10
-2.1992
 20
47.7105
 30
0.0
 10
-2.0103
 20
47.8654
 30
0.0
 10
-2.0103
 20
47.8654
 30
0.0
 10
-1.7161
 20
48.1067
 30
0.0
 10
-1.5171
 20
48.2975
 30
0.0
 10
-1.4138
 20
48.4386
 30
0.0
 10
-1.4138
 20
48.4386
 30
0.0
 10
-1.3105
 20
48.5791
 30
0.0
 10
-1.2588
 20
48.7126
 30
0.0
 10
-1.2588
 20
48.8379
 30
0.0
 10
-1.2588
 20
48.8379
 30
0.0
 10
-1.2588
 20
48.9696
 30
0.0
 10
-1.3061
 20
49.0804
 30
0.0
 10
-1.3999
 20
49.1711
 30
0.0
 10
-1.3999
 20
49.1711
 30
0.0
 10
-1.4944
 20
49.2612
 30
0.0
 10
-1.6172
 20
49.3066
 30
0.0
 10
-1.7684
 20
49.3066
 30
0.0
 10
-1.7684
 20
49.3066
 30
0.0
 10
-1.9284
 20
49.3066
 30
0.0
 10
-2.0563
 20
49.2587
 30
0.0
 10
-2.152
 20
49.1623
 30
0.0
 10
-2.152
 20
49.1623
 30
0.0
 10
-2.2484
 20
49.0666
 30
0.0
 10
-2.2969
 20
48.9337
 30
0.0
 10
-2.2981
 20
48.7642
 30
0.0
 10
-2.2981
 20
48.7642
 30
0.0
 10
-2.2981
 20
48.7642
 30
0.0
 10
-2.6395
 20
48.7989
 30
0.0
 10
-2.6395
 20
48.7989
 30
0.0
 10
-2.6395
 20
48.7989
 30
0.0
 10
-2.6162
 20
49.054
 30
0.0
 10
-2.528
 20
49.248
 30
0.0
 10
-2.3756
 20
49.3815
 30
0.0
 10
-2.3756
 20
49.3815
 30
0.0
 10
-2.2232
 20
49.515
 30
0.0
 10
-2.0178
 20
49.5818
 30
0.0
 10
-1.7608
 20
49.5818
 30
0.0
 10
-1.7608
 20
49.5818
 30
0.0
 10
-1.5013
 20
49.5818
 30
0.0
 10
-1.296
 20
49.5094
 30
0.0
 10
-1.1448
 20
49.3658
 30
0.0
 10
-1.1448
 20
49.3658
 30
0.0
 10
-0.993
 20
49.2215
 30
0.0
 10
-0.9175
 20
49.0433
 30
0.0
 10
-0.9175
 20
48.8304
 30
0.0
 10
-0.9175
 20
48.8304
 30
0.0
 10
-0.9175
 20
48.722
 30
0.0
 10
-0.9395
 20
48.6156
 30
0.0
 10
-0.9842
 20
48.511
 30
0.0
 10
-0.9842
 20
48.511
 30
0.0
 10
-1.0283
 20
48.4065
 30
0.0
 10
-1.102
 20
48.2963
 30
0.0
 10
-1.2047
 20
48.181
 30
0.0
 10
-1.2047
 20
48.181
 30
0.0
 10
-1.3073
 20
48.0651
 30
0.0
 10
-1.478
 20
47.9064
 30
0.0
 10
-1.7168
 20
47.7048
 30
0.0
 10
-1.7168
 20
47.7048
 30
0.0
 10
-1.9158
 20
47.5373
 30
0.0
 10
-2.0437
 20
47.4239
 30
0.0
 10
-2.1003
 20
47.3641
 30
0.0
 10
-2.1003
 20
47.3641
 30
0.0
 10
-2.157
 20
47.3048
 30
0.0
 10
-2.2036
 20
47.245
 30
0.0
 10
-2.2408
 20
47.1845
 30
0.0
 10
-2.2408
 20
47.1845
 30
0.0
 10
-2.2408
 20
47.1845
 30
0.0
 10
-0.9137
 20
47.1845
 30
0.0
 10
-0.9137
 20
47.1845
 30
0.0
  0
SPLINE
  5
C3
330
1F
100
AcDbEntity
  8
DEFAULT_1
 62
   250
100
AcDbSpline
210
0.0
220
0.0
230
1.0
 70
    11
 71
     3
 72
    68
 73
    64
 74
     0
 42
0.0000000001
 43
0.0000000001
 40
0.0
 40
0.0
 40
0.0
 40
0.0
 40
0.0588235294117647
 40
0.0588235294117647
 40
0.0588235294117647
 40
0.0588235294117647
 40
0.1176470588235294
 40
0.1176470588235294
 40
0.1176470588235294
 40
0.1176470588235294
 40
0.1764705882352941
 40
0.1764705882352941
 40
0.1764705882352941
 40
0.1764705882352941
 40
0.2352941176470588
 40
0.2352941176470588
 40
0.2352941176470588
 40
0.2352941176470588
 40
0.2941176470588235
 40
0.2941176470588235
 40
0.2941176470588235
 40
0.2941176470588235
 40
0.3529411764705883
 40
0.3529411764705883
 40
0.3529411764705883
 40
0.3529411764705883
 40
0.4117647058823529
 40
0.4117647058823529
 40
0.4117647058823529
 40
0.4117647058823529
 40
0.4705882352941176
 40
0.4705882352941176
 40
0.4705882352941176
 40
0.4705882352941176
 40
0.5294117647058824
 40
0.5294117647058824
 40
0.5294117647058824
 40
0.5294117647058824
 40
0.5882352941176471
 40
0.5882352941176471
 40
0.5882352941176471
 40
0.5882352941176471
 40
0.6470588235294118
 40
0.6470588235294118
 40
0.6470588235294118
 40
0.6470588235294118
 40
0.7058823529411765
 40
0.7058823529411765
 40
0.7058823529411765
 40
0.7058823529411765
 40
0.7647058823529411
 40
0.7647058823529411
 40
0.7647058823529411
 40
0.7647058823529411
 40
0.8235294117647058
 40
0.8235294117647058
 40
0.8235294117647058
 40
0.8235294117647058
 40
0.8823529411764706
 40
0.8823529411764706
 40
0.8823529411764706
 40
0.8823529411764706
 40
1.0
 40
1.0
 40
1.0
 40
1.0
 10
-0.0463
 20
48.3322
 30
0.0
 10
-0.1843
 20
48.3825
 30
0.0
 10
-0.2863
 20
48.4544
 30
0.0
 10
-0.3531
 20
48.5482
 30
0.0
 10
-0.3531
 20
48.5482
 30
0.0
 10
-0.4192
 20
48.6414
 30
0.0
 10
-0.4526
 20
48.7535
 30
0.0
 10
-0.4526
 20
48.8839
 30
0.0
 10
-0.4526
 20
48.8839
 30
0.0
 10
-0.4526
 20
49.0811
 30
0.0
 10
-0.382
 20
49.2461
 30
0.0
 10
-0.2403
 20
49.3803
 30
0.0
 10
-0.2403
 20
49.3803
 30
0.0
 10
-0.0986
 20
49.5144
 30
0.0
 10
0.0891
 20
49.5818
 30
0.0
 10
0.3241
 20
49.5818
 30
0.0
 10
0.3241
 20
49.5818
 30
0.0
 10
0.5603
 20
49.5818
 30
0.0
 10
0.7505
 20
49.5132
 30
0.0
 10
0.8947
 20
49.3758
 30
0.0
 10
0.8947
 20
49.3758
 30
0.0
 10
1.0383
 20
49.2385
 30
0.0
 10
1.1101
 20
49.0716
 30
0.0
 10
1.1101
 20
48.8745
 30
0.0
 10
1.1101
 20
48.8745
 30
0.0
 10
1.1101
 20
48.7491
 30
0.0
 10
1.0774
 20
48.6402
 30
0.0
 10
1.0119
 20
48.5469
 30
0.0
 10
1.0119
 20
48.5469
 30
0.0
 10
0.9457
 20
48.4544
 30
0.0
 10
0.8462
 20
48.3825
 30
0.0
 10
0.712
 20
48.3322
 30
0.0
 10
0.712
 20
48.3322
 30
0.0
 10
0.8777
 20
48.278
 30
0.0
 10
1.0043
 20
48.1911
 30
0.0
 10
1.0912
 20
48.0701
 30
0.0
 10
1.0912
 20
48.0701
 30
0.0
 10
1.1775
 20
47.9498
 30
0.0
 10
1.221
 20
47.8056
 30
0.0
 10
1.221
 20
47.6387
 30
0.0
 10
1.221
 20
47.6387
 30
0.0
 10
1.221
 20
47.4069
 30
0.0
 10
1.1391
 20
47.2129
 30
0.0
 10
0.976
 20
47.0554
 30
0.0
 10
0.976
 20
47.0554
 30
0.0
 10
0.8122
 20
46.898
 30
0.0
 10
0.5968
 20
46.8192
 30
0.0
 10
0.3297
 20
46.8192
 30
0.0
 10
0.3297
 20
46.8192
 30
0.0
 10
0.0627
 20
46.8192
 30
0.0
 10
-0.1521
 20
46.898
 30
0.0
 10
-0.3159
 20
47.056
 30
0.0
 10
-0.3159
 20
47.056
 30
0.0
 10
-0.4797
 20
47.2141
 30
0.0
 10
-0.5615
 20
47.4113
 30
0.0
 10
-0.5615
 20
47.6475
 30
0.0
 10
-0.5615
 20
47.6475
 30
0.0
 10
-0.5615
 20
47.8232
 30
0.0
 10
-0.5168
 20
47.9706
 30
0.0
 10
-0.4274
 20
48.0897
 30
0.0
 10
-0.4274
 20
48.0897
 30
0.0
 10
-0.3386
 20
48.2081
 30
0.0
 10
-0.2113
 20
48.2893
 30
0.0
 10
-0.0463
 20
48.3322
 30
0.0
  0
SPLINE
  5
C4
330
1F
100
AcDbEntity
  8
DEFAULT_1
 62
   250
100
AcDbSpline
210
0.0
220
0.0
230
1.0
 70
    11
 71
     3
 72
    36
 73
    32
 74
     0
 42
0.0000000001
 43
0.0000000001
 40
0.0
 40
0.0
 40
0.0
 40
0.0
 40
0.1111111111111111
 40
0.1111111111111111
 40
0.1111111111111111
 40
0.1111111111111111
 40
0.2222222222222222
 40
0.2222222222222222
 40
0.2222222222222222
 40
0.2222222222222222
 40
0.3333333333333333
 40
0.3333333333333333
 40
0.3333333333333333
 40
0.3333333333333333
 40
0.4444444444444444
 40
0.4444444444444444
 40
0.4444444444444444
 40
0.4444444444444444
 40
0.5555555555555556
 40
0.5555555555555556
 40
0.5555555555555556
 40
0.5555555555555556
 40
0.6666666666666666
 40
0.6666666666666666
 40
0.6666666666666666
 40
0.6666666666666666
 40
0.7777777777777778
 40
0.7777777777777778
 40
0.7777777777777778
 40
0.7777777777777778
 40
1.0
 40
1.0
 40
1.0
 40
1.0
 10
-0.1131
 20
48.8953
 30
0.0
 10
-0.1131
 20
48.7674
 30
0.0
 10
-0.0715
 20
48.6628
 30
0.0
 10
0.0104
 20
48.5816
 30
0.0
 10
0.0104
 20
48.5816
 30
0.0
 10
0.0929
 20
48.5003
 30
0.0
 10
0.2
 20
48.4594
 30
0.0
 10
0.3316
 20
48.4594
 30
0.0
 10
0.3316
 20
48.4594
 30
0.0
 10
0.4595
 20
48.4594
 30
0.0
 10
0.5647
 20
48.4997
 30
0.0
 10
0.6465
 20
48.5803
 30
0.0
 10
0.6465
 20
48.5803
 30
0.0
 10
0.7284
 20
48.6609
 30
0.0
 10
0.7687
 20
48.7598
 30
0.0
 10
0.7687
 20
48.8764
 30
0.0
 10
0.7687
 20
48.8764
 30
0.0
 10
0.7687
 20
48.9986
 30
0.0
 10
0.7272
 20
49.1006
 30
0.0
 10
0.6428
 20
49.1837
 30
0.0
 10
0.6428
 20
49.1837
 30
0.0
 10
0.5584
 20
49.2669
 30
0.0
 10
0.4538
 20
49.3085
 30
0.0
 10
0.3278
 20
49.3085
 30
0.0
 10
0.3278
 20
49.3085
 30
0.0
 10
0.2012
 20
49.3085
 30
0.0
 10
0.096
 20
49.2675
 30
0.0
 10
0.0123
 20
49.1869
 30
0.0
 10
0.0123
 20
49.1869
 30
0.0
 10
-0.0715
 20
49.1056
 30
0.0
 10
-0.1131
 20
49.008
 30
0.0
 10
-0.1131
 20
48.8953
 30
0.0
  0
SPLINE
  5
C5
330
1F
100
AcDbEntity
  8
DEFAULT_1
 62
   250
100
AcDbSpline
210
0.0
220
0.0
230
1.0
 70
    11
 71
     3
 72
    40
 73
    36
 74
     0
 42
0.0000000001
 43
0.0000000001
 40
0.0
 40
0.0
 40
0.0
 40
0.0
 40
0.1
 40
0.1
 40
0.1
 40
0.1
 40
0.2
 40
0.2
 40
0.2
 40
0.2
 40
0.3
 40
0.3
 40
0.3
 40
0.3
 40
0.4
 40
0.4
 40
0.4
 40
0.4
 40
0.5
 40
0.5
 40
0.5
 40
0.5
 40
0.6
 40
0.6
 40
0.6
 40
0.6
 40
0.7
 40
0.7
 40
0.7
 40
0.7
 40
0.8
 40
0.8
 40
0.8
 40
0.8
 40
1.0
 40
1.0
 40
1.0
 40
1.0
 10
-0.2202
 20
47.6456
 30
0.0
 10
-0.2202
 20
47.5511
 30
0.0
 10
-0.1975
 20
47.4592
 30
0.0
 10
-0.1528
 20
47.371
 30
0.0
 10
-0.1528
 20
47.371
 30
0.0
 10
-0.108
 20
47.2822
 30
0.0
 10
-0.0413
 20
47.2135
 30
0.0
 10
0.0475
 20
47.165
 30
0.0
 10
0.0475
 20
47.165
 30
0.0
 10
0.1363
 20
47.1165
 30
0.0
 10
0.2315
 20
47.092
 30
0.0
 10
0.3335
 20
47.092
 30
0.0
 10
0.3335
 20
47.092
 30
0.0
 10
0.4922
 20
47.092
 30
0.0
 10
0.6232
 20
47.143
 30
0.0
 10
0.7265
 20
47.2456
 30
0.0
 10
0.7265
 20
47.2456
 30
0.0
 10
0.8298
 20
47.3477
 30
0.0
 10
0.8815
 20
47.4774
 30
0.0
 10
0.8815
 20
47.6349
 30
0.0
 10
0.8815
 20
47.6349
 30
0.0
 10
0.8815
 20
47.7949
 30
0.0
 10
0.8286
 20
47.9272
 30
0.0
 10
0.7221
 20
48.0317
 30
0.0
 10
0.7221
 20
48.0317
 30
0.0
 10
0.6157
 20
48.1363
 30
0.0
 10
0.4821
 20
48.1885
 30
0.0
 10
0.3222
 20
48.1885
 30
0.0
 10
0.3222
 20
48.1885
 30
0.0
 10
0.166
 20
48.1885
 30
0.0
 10
0.0368
 20
48.1369
 30
0.0
 10
-0.0658
 20
48.0336
 30
0.0
 10
-0.0658
 20
48.0336
 30
0.0
 10
-0.1685
 20
47.9297
 30
0.0
 10
-0.2202
 20
47.8006
 30
0.0
 10
-0.2202
 20
47.6456
 30
0.0
  0
SPLINE
  5
C6
330
1F
100
AcDbEntity
  8
DEFAULT_1
 62
   250
100
AcDbSpline
210
0.0
220
0.0
230
1.0
 70
    11
 71
     3
 72
    52
 73
    48
 74
     0
 42
0.0000000001
 43
0.0000000001
 40
0.0
 40
0.0
 40
0.0
 40
0.0
 40
0.0769230769230769
 40
0.0769230769230769
 40
0.0769230769230769
 40
0.0769230769230769
 40
0.1538461538461539
 40
0.1538461538461539
 40
0.1538461538461539
 40
0.1538461538461539
 40
0.2307692307692308
 40
0.2307692307692308
 40
0.2307692307692308
 40
0.2307692307692308
 40
0.3076923076923077
 40
0.3076923076923077
 40
0.3076923076923077
 40
0.3076923076923077
 40
0.3846153846153846
 40
0.3846153846153846
 40
0.3846153846153846
 40
0.3846153846153846
 40
0.4615384615384616
 40
0.4615384615384616
 40
0.4615384615384616
 40
0.4615384615384616
 40
0.5384615384615384
 40
0.5384615384615384
 40
0.5384615384615384
 40
0.5384615384615384
 40
0.6153846153846154
 40
0.6153846153846154
 40
0.6153846153846154
 40
0.6153846153846154
 40
0.6923076923076923
 40
0.6923076923076923
 40
0.6923076923076923
 40
0.6923076923076923
 40
0.7692307692307693
 40
0.7692307692307693
 40
0.7692307692307693
 40
0.7692307692307693
 40
0.8461538461538461
 40
0.8461538461538461
 40
0.8461538461538461
 40
0.8461538461538461
 40
1.0
 40
1.0
 40
1.0
 40
1.0
 10
1.5441
 20
48.1993
 30
0.0
 10
1.5441
 20
48.5192
 30
0.0
 10
1.5769
 20
48.7768
 30
0.0
 10
1.643
 20
48.9715
 30
0.0
 10
1.643
 20
48.9715
 30
0.0
 10
1.7085
 20
49.1667
 30
0.0
 10
1.8068
 20
49.3173
 30
0.0
 10
1.9365
 20
49.4231
 30
0.0
 10
1.9365
 20
49.4231
 30
0.0
 10
2.0663
 20
49.5289
 30
0.0
 10
2.2294
 20
49.5818
 30
0.0
 10
2.426
 20
49.5818
 30
0.0
 10
2.426
 20
49.5818
 30
0.0
 10
2.5714
 20
49.5818
 30
0.0
 10
2.6987
 20
49.5522
 30
0.0
 10
2.8083
 20
49.4936
 30
0.0
 10
2.8083
 20
49.4936
 30
0.0
 10
2.9179
 20
49.4357
 30
0.0
 10
3.0079
 20
49.3513
 30
0.0
 10
3.0798
 20
49.2411
 30
0.0
 10
3.0798
 20
49.2411
 30
0.0
 10
3.1509
 20
49.1308
 30
0.0
 10
3.207
 20
48.9967
 30
0.0
 10
3.2473
 20
48.8386
 30
0.0
 10
3.2473
 20
48.8386
 30
0.0
 10
3.2882
 20
48.6805
 30
0.0
 10
3.3084
 20
48.4676
 30
0.0
 10
3.3084
 20
48.1993
 30
0.0
 10
3.3084
 20
48.1993
 30
0.0
 10
3.3084
 20
47.8818
 30
0.0
 10
3.2756
 20
47.6261
 30
0.0
 10
3.2108
 20
47.4308
 30
0.0
 10
3.2108
 20
47.4308
 30
0.0
 10
3.1453
 20
47.2356
 30
0.0
 10
3.0476
 20
47.085
 30
0.0
 10
2.9179
 20
46.9786
 30
0.0
 10
2.9179
 20
46.9786
 30
0.0
 10
2.7881
 20
46.8721
 30
0.0
 10
2.6244
 20
46.8192
 30
0.0
 10
2.426
 20
46.8192
 30
0.0
 10
2.426
 20
46.8192
 30
0.0
 10
2.1652
 20
46.8192
 30
0.0
 10
1.9605
 20
46.9124
 30
0.0
 10
1.8118
 20
47.0995
 30
0.0
 10
1.8118
 20
47.0995
 30
0.0
 10
1.6336
 20
47.3244
 30
0.0
 10
1.5441
 20
47.6916
 30
0.0
 10
1.5441
 20
48.1993
 30
0.0
  0
SPLINE
  5
C7
330
1F
100
AcDbEntity
  8
DEFAULT_1
 62
   250
100
AcDbSpline
210
0.0
220
0.0
230
1.0
 70
    11
 71
     3
 72
    36
 73
    32
 74
     0
 42
0.0000000001
 43
0.0000000001
 40
0.0
 40
0.0
 40
0.0
 40
0.0
 40
0.1111111111111111
 40
0.1111111111111111
 40
0.1111111111111111
 40
0.1111111111111111
 40
0.2222222222222222
 40
0.2222222222222222
 40
0.2222222222222222
 40
0.2222222222222222
 40
0.3333333333333333
 40
0.3333333333333333
 40
0.3333333333333333
 40
0.3333333333333333
 40
0.4444444444444444
 40
0.4444444444444444
 40
0.4444444444444444
 40
0.4444444444444444
 40
0.5555555555555556
 40
0.5555555555555556
 40
0.5555555555555556
 40
0.5555555555555556
 40
0.6666666666666666
 40
0.6666666666666666
 40
0.6666666666666666
 40
0.6666666666666666
 40
0.7777777777777778
 40
0.7777777777777778
 40
0.7777777777777778
 40
0.7777777777777778
 40
1.0
 40
1.0
 40
1.0
 40
1.0
 10
1.8855
 20
48.1993
 30
0.0
 10
1.8855
 20
47.7552
 30
0.0
 10
1.9378
 20
47.4598
 30
0.0
 10
2.0417
 20
47.3124
 30
0.0
 10
2.0417
 20
47.3124
 30
0.0
 10
2.1457
 20
47.1656
 30
0.0
 10
2.2735
 20
47.092
 30
0.0
 10
2.426
 20
47.092
 30
0.0
 10
2.426
 20
47.092
 30
0.0
 10
2.579
 20
47.092
 30
0.0
 10
2.7069
 20
47.1663
 30
0.0
 10
2.8108
 20
47.3137
 30
0.0
 10
2.8108
 20
47.3137
 30
0.0
 10
2.9147
 20
47.4611
 30
0.0
 10
2.967
 20
47.7565
 30
0.0
 10
2.967
 20
48.1993
 30
0.0
 10
2.967
 20
48.1993
 30
0.0
 10
2.967
 20
48.6446
 30
0.0
 10
2.9147
 20
48.9406
 30
0.0
 10
2.8108
 20
49.0867
 30
0.0
 10
2.8108
 20
49.0867
 30
0.0
 10
2.7069
 20
49.2335
 30
0.0
 10
2.5777
 20
49.3066
 30
0.0
 10
2.4228
 20
49.3066
 30
0.0
 10
2.4228
 20
49.3066
 30
0.0
 10
2.2697
 20
49.3066
 30
0.0
 10
2.1482
 20
49.2417
 30
0.0
 10
2.0568
 20
49.1126
 30
0.0
 10
2.0568
 20
49.1126
 30
0.0
 10
1.9428
 20
48.9482
 30
0.0
 10
1.8855
 20
48.6433
 30
0.0
 10
1.8855
 20
48.1993
 30
0.0
  0
SPLINE
  5
C8
330
1F
100
AcDbEntity
  8
DEFAULT_1
 62
   250
100
AcDbSpline
210
0.0
220
0.0
230
1.0
 70
    11
 71
     3
 72
    20
 73
    16
 74
     0
 42
0.0000000001
 43
0.0000000001
 40
0.0
 40
0.0
 40
0.0
 40
0.0
 40
0.2
 40
0.2
 40
0.2
 40
0.2
 40
0.4
 40
0.4
 40
0.4
 40
0.4
 40
0.6
 40
0.6
 40
0.6
 40
0.6
 40
1.0
 40
1.0
 40
1.0
 40
1.0
 10
25.942
 20
46.422
 30
0.0
 10
25.942
 20
46.422
 30
0.0
 10
30.0425
 20
45.8433
 30
0.0
 10
30.0425
 20
45.8433
 30
0.0
 10
30.0425
 20
45.8433
 30
0.0
 10
30.0425
 20
45.8433
 30
0.0
 10
30.0425
 20
45.7147
 30
0.0
 10
30.0425
 20
45.7147
 30
0.0
 10
30.0425
 20
45.7147
 30
0.0
 10
30.0425
 20
45.7147
 30
0.0
 10
25.942
 20
45.0976
 30
0.0
 10
25.942
 20
45.0976
 30
0.0
 10
25.942
 20
45.0976
 30
0.0
 10
25.942
 20
45.0976
 30
0.0
 10
25.942
 20
46.422
 30
0.0
 10
25.942
 20
46.422
 30
0.0
  0
SPLINE
  5
C9
330
1F
100
AcDbEntity
  8
DEFAULT_1
 62
   250
100
AcDbSpline
210
0.0
220
0.0
230
1.0
 70
    11
 71
     3
 72
    20
 73
    16
 74
     0
 42
0.0000000001
 43
0.0000000001
 40
0.0
 40
0.0
 40
0.0
 40
0.0
 40
0.2
 40
0.2
 40
0.2
 40
0.2
 40
0.4
 40
0.4
 40
0.4
 40
0.4
 40
0.6
 40
0.6
 40
0.6
 40
0.6
 40
1.0
 40
1.0
 40
1.0
 40
1.0
 10
-25.5198
 20
45.0848
 30
0.0
 10
-25.5198
 20
45.0848
 30
0.0
 10
-29.6203
 20
45.6635
 30
0.0
 10
-29.6203
 20
45.6635
 30
0.0
 10
-29.6203
 20
45.6635
 30
0.0
 10
-29.6203
 20
45.6635
 30
0.0
 10
-29.6203
 20
45.7921
 30
0.0
 10
-29.6203
 20
45.7921
 30
0.0
 10
-29.6203
 20
45.7921
 30
0.0
 10
-29.6203
 20
45.7921
 30
0.0
 10
-25.5198
 20
46.4092
 30
0.0
 10
-25.5198
 20
46.4092
 30
0.0
 10
-25.5198
 20
46.4092
 30
0.0
 10
-25.5198
 20
46.4092
 30
0.0
 10
-25.5198
 20
45.0848
 30
0.0
 10
-25.5198
 20
45.0848
 30
0.0
  0
SPLINE
  5
CA
330
1F
100
AcDbEntity
  8
DEFAULT_1
 62
   250
100
AcDbSpline
210
0.0
220
0.0
230
1.0
 70
    11
 71
     3
 72
    92
 73
    88
 74
     0
 42
0.0000000001
 43
0.0000000001
 40
0.0
 40
0.0
 40
0.0
 40
0.0
 40
0.0434782608695652
 40
0.0434782608695652
 40
0.0434782608695652
 40
0.0434782608695652
 40
0.0869565217391304
 40
0.0869565217391304
 40
0.0869565217391304
 40
0.0869565217391304
 40
0.1304347826086956
 40
0.1304347826086956
 40
0.1304347826086956
 40
0.1304347826086956
 40
0.1739130434782609
 40
0.1739130434782609
 40
0.1739130434782609
 40
0.1739130434782609
 40
0.2173913043478261
 40
0.2173913043478261
 40
0.2173913043478261
 40
0.2173913043478261
 40
0.2608695652173913
 40
0.2608695652173913
 40
0.2608695652173913
 40
0.2608695652173913
 40
0.3043478260869565
 40
0.3043478260869565
 40
0.3043478260869565
 40
0.3043478260869565
 40
0.3478260869565217
 40
0.3478260869565217
 40
0.3478260869565217
 40
0.3478260869565217
 40
0.391304347826087
 40
0.391304347826087
 40
0.391304347826087
 40
0.391304347826087
 40
0.4347826086956522
 40
0.4347826086956522
 40
0.4347826086956522
 40
0.4347826086956522
 40
0.4782608695652174
 40
0.4782608695652174
 40
0.4782608695652174
 40
0.4782608695652174
 40
0.5217391304347826
 40
0.5217391304347826
 40
0.5217391304347826
 40
0.5217391304347826
 40
0.5652173913043478
 40
0.5652173913043478
 40
0.5652173913043478
 40
0.5652173913043478
 40
0.6086956521739131
 40
0.6086956521739131
 40
0.6086956521739131
 40
0.6086956521739131
 40
0.6521739130434783
 40
0.6521739130434783
 40
0.6521739130434783
 40
0.6521739130434783
 40
0.6956521739130435
 40
0.6956521739130435
 40
0.6956521739130435
 40
0.6956521739130435
 40
0.7391304347826086
 40
0.7391304347826086
 40
0.7391304347826086
 40
0.7391304347826086
 40
0.782608695652174
 40
0.782608695652174
 40
0.782608695652174
 40
0.782608695652174
 40
0.8260869565217391
 40
0.8260869565217391
 40
0.8260869565217391
 40
0.8260869565217391
 40
0.8695652173913043
 40
0.8695652173913043
 40
0.8695652173913043
 40
0.8695652173913043
 40
0.9130434782608695
 40
0.9130434782608695
 40
0.9130434782608695
 40
0.9130434782608695
 40
1.0
 40
1.0
 40
1.0
 40
1.0
 10
-36.1273
 20
-12.9414
 30
0.0
 10
-36.1273
 20
-12.9414
 30
0.0
 10
-35.808
 20
-12.9414
 30
0.0
 10
-35.808
 20
-12.9414
 30
0.0
 10
-35.808
 20
-12.9414
 30
0.0
 10
-35.808
 20
-12.9414
 30
0.0
 10
-35.808
 20
-14.7296
 30
0.0
 10
-35.808
 20
-14.7296
 30
0.0
 10
-35.808
 20
-14.7296
 30
0.0
 10
-35.888
 20
-14.7321
 30
0.0
 10
-35.9648
 20
-14.7195
 30
0.0
 10
-36.0385
 20
-14.6911
 30
0.0
 10
-36.0385
 20
-14.6911
 30
0.0
 10
-36.1607
 20
-14.6458
 30
0.0
 10
-36.2804
 20
-14.5727
 30
0.0
 10
-36.3988
 20
-14.4726
 30
0.0
 10
-36.3988
 20
-14.4726
 30
0.0
 10
-36.5166
 20
-14.3718
 30
0.0
 10
-36.6533
 20
-14.2269
 30
0.0
 10
-36.8082
 20
-14.038
 30
0.0
 10
-36.8082
 20
-14.038
 30
0.0
 10
-37.0495
 20
-13.7438
 30
0.0
 10
-37.2403
 20
-13.5448
 30
0.0
 10
-37.3814
 20
-13.4415
 30
0.0
 10
-37.3814
 20
-13.4415
 30
0.0
 10
-37.5219
 20
-13.3382
 30
0.0
 10
-37.6554
 20
-13.2865
 30
0.0
 10
-37.7807
 20
-13.2865
 30
0.0
 10
-37.7807
 20
-13.2865
 30
0.0
 10
-37.9124
 20
-13.2865
 30
0.0
 10
-38.0232
 20
-13.3338
 30
0.0
 10
-38.1139
 20
-13.4276
 30
0.0
 10
-38.1139
 20
-13.4276
 30
0.0
 10
-38.204
 20
-13.5221
 30
0.0
 10
-38.2494
 20
-13.6449
 30
0.0
 10
-38.2494
 20
-13.7961
 30
0.0
 10
-38.2494
 20
-13.7961
 30
0.0
 10
-38.2494
 20
-13.9561
 30
0.0
 10
-38.2015
 20
-14.084
 30
0.0
 10
-38.1051
 20
-14.1797
 30
0.0
 10
-38.1051
 20
-14.1797
 30
0.0
 10
-38.0094
 20
-14.2761
 30
0.0
 10
-37.8765
 20
-14.3246
 30
0.0
 10
-37.707
 20
-14.3258
 30
0.0
 10
-37.707
 20
-14.3258
 30
0.0
 10
-37.707
 20
-14.3258
 30
0.0
 10
-37.7417
 20
-14.6672
 30
0.0
 10
-37.7417
 20
-14.6672
 30
0.0
 10
-37.7417
 20
-14.6672
 30
0.0
 10
-37.9968
 20
-14.6439
 30
0.0
 10
-38.1908
 20
-14.5557
 30
0.0
 10
-38.3243
 20
-14.4033
 30
0.0
 10
-38.3243
 20
-14.4033
 30
0.0
 10
-38.4578
 20
-14.2509
 30
0.0
 10
-38.5246
 20
-14.0455
 30
0.0
 10
-38.5246
 20
-13.7885
 30
0.0
 10
-38.5246
 20
-13.7885
 30
0.0
 10
-38.5246
 20
-13.529
 30
0.0
 10
-38.4522
 20
-13.3237
 30
0.0
 10
-38.3086
 20
-13.1725
 30
0.0
 10
-38.3086
 20
-13.1725
 30
0.0
 10
-38.1643
 20
-13.0207
 30
0.0
 10
-37.9861
 20
-12.9452
 30
0.0
 10
-37.7732
 20
-12.9452
 30
0.0
 10
-37.7732
 20
-12.9452
 30
0.0
 10
-37.6648
 20
-12.9452
 30
0.0
 10
-37.5584
 20
-12.9672
 30
0.0
 10
-37.4538
 20
-13.0119
 30
0.0
 10
-37.4538
 20
-13.0119
 30
0.0
 10
-37.3493
 20
-13.056
 30
0.0
 10
-37.2391
 20
-13.1297
 30
0.0
 10
-37.1238
 20
-13.2324
 30
0.0
 10
-37.1238
 20
-13.2324
 30
0.0
 10
-37.0079
 20
-13.335
 30
0.0
 10
-36.8492
 20
-13.5057
 30
0.0
 10
-36.6476
 20
-13.7445
 30
0.0
 10
-36.6476
 20
-13.7445
 30
0.0
 10
-36.4801
 20
-13.9435
 30
0.0
 10
-36.3667
 20
-14.0714
 30
0.0
 10
-36.3069
 20
-14.128
 30
0.0
 10
-36.3069
 20
-14.128
 30
0.0
 10
-36.2476
 20
-14.1847
 30
0.0
 10
-36.1878
 20
-14.2313
 30
0.0
 10
-36.1273
 20
-14.2685
 30
0.0
 10
-36.1273
 20
-14.2685
 30
0.0
 10
-36.1273
 20
-14.2685
 30
0.0
 10
-36.1273
 20
-12.9414
 30
0.0
 10
-36.1273
 20
-12.9414
 30
0.0
  0
SPLINE
  5
CB
330
1F
100
AcDbEntity
  8
DEFAULT_1
 62
   250
100
AcDbSpline
210
0.0
220
0.0
230
1.0
 70
    11
 71
     3
 72
    92
 73
    88
 74
     0
 42
0.0000000001
 43
0.0000000001
 40
0.0
 40
0.0
 40
0.0
 40
0.0
 40
0.0434782608695652
 40
0.0434782608695652
 40
0.0434782608695652
 40
0.0434782608695652
 40
0.0869565217391304
 40
0.0869565217391304
 40
0.0869565217391304
 40
0.0869565217391304
 40
0.1304347826086956
 40
0.1304347826086956
 40
0.1304347826086956
 40
0.1304347826086956
 40
0.1739130434782609
 40
0.1739130434782609
 40
0.1739130434782609
 40
0.1739130434782609
 40
0.2173913043478261
 40
0.2173913043478261
 40
0.2173913043478261
 40
0.2173913043478261
 40
0.2608695652173913
 40
0.2608695652173913
 40
0.2608695652173913
 40
0.2608695652173913
 40
0.3043478260869565
 40
0.3043478260869565
 40
0.3043478260869565
 40
0.3043478260869565
 40
0.3478260869565217
 40
0.3478260869565217
 40
0.3478260869565217
 40
0.3478260869565217
 40
0.391304347826087
 40
0.391304347826087
 40
0.391304347826087
 40
0.391304347826087
 40
0.4347826086956522
 40
0.4347826086956522
 40
0.4347826086956522
 40
0.4347826086956522
 40
0.4782608695652174
 40
0.4782608695652174
 40
0.4782608695652174
 40
0.4782608695652174
 40
0.5217391304347826
 40
0.5217391304347826
 40
0.5217391304347826
 40
0.5217391304347826
 40
0.5652173913043478
 40
0.5652173913043478
 40
0.5652173913043478
 40
0.5652173913043478
 40
0.6086956521739131
 40
0.6086956521739131
 40
0.6086956521739131
 40
0.6086956521739131
 40
0.6521739130434783
 40
0.6521739130434783
 40
0.6521739130434783
 40
0.6521739130434783
 40
0.6956521739130435
 40
0.6956521739130435
 40
0.6956521739130435
 40
0.6956521739130435
 40
0.7391304347826086
 40
0.7391304347826086
 40
0.7391304347826086
 40
0.7391304347826086
 40
0.782608695652174
 40
0.782608695652174
 40
0.782608695652174
 40
0.782608695652174
 40
0.8260869565217391
 40
0.8260869565217391
 40
0.8260869565217391
 40
0.8260869565217391
 40
0.8695652173913043
 40
0.8695652173913043
 40
0.8695652173913043
 40
0.8695652173913043
 40
0.9130434782608695
 40
0.9130434782608695
 40
0.9130434782608695
 40
0.9130434782608695
 40
1.0
 40
1.0
 40
1.0
 40
1.0
 10
-36.5166
 20
-12.5855
 30
0.0
 10
-36.5166
 20
-12.5855
 30
0.0
 10
-36.5462
 20
-12.2365
 30
0.0
 10
-36.5462
 20
-12.2365
 30
0.0
 10
-36.5462
 20
-12.2365
 30
0.0
 10
-36.3761
 20
-12.2107
 30
0.0
 10
-36.2489
 20
-12.1509
 30
0.0
 10
-36.1632
 20
-12.057
 30
0.0
 10
-36.1632
 20
-12.057
 30
0.0
 10
-36.0776
 20
-11.9625
 30
0.0
 10
-36.0348
 20
-11.8491
 30
0.0
 10
-36.0348
 20
-11.7162
 30
0.0
 10
-36.0348
 20
-11.7162
 30
0.0
 10
-36.0348
 20
-11.5563
 30
0.0
 10
-36.0952
 20
-11.4208
 30
0.0
 10
-36.2155
 20
-11.3106
 30
0.0
 10
-36.2155
 20
-11.3106
 30
0.0
 10
-36.3365
 20
-11.1998
 30
0.0
 10
-36.4964
 20
-11.1443
 30
0.0
 10
-36.6955
 20
-11.1443
 30
0.0
 10
-36.6955
 20
-11.1443
 30
0.0
 10
-36.8851
 20
-11.1443
 30
0.0
 10
-37.0344
 20
-11.1972
 30
0.0
 10
-37.1439
 20
-11.3037
 30
0.0
 10
-37.1439
 20
-11.3037
 30
0.0
 10
-37.2535
 20
-11.4101
 30
0.0
 10
-37.3083
 20
-11.5493
 30
0.0
 10
-37.3083
 20
-11.7219
 30
0.0
 10
-37.3083
 20
-11.7219
 30
0.0
 10
-37.3083
 20
-11.829
 30
0.0
 10
-37.2838
 20
-11.9254
 30
0.0
 10
-37.2353
 20
-12.0117
 30
0.0
 10
-37.2353
 20
-12.0117
 30
0.0
 10
-37.1868
 20
-12.0979
 30
0.0
 10
-37.1238
 20
-12.1653
 30
0.0
 10
-37.0463
 20
-12.2145
 30
0.0
 10
-37.0463
 20
-12.2145
 30
0.0
 10
-37.0463
 20
-12.2145
 30
0.0
 10
-37.0866
 20
-12.5263
 30
0.0
 10
-37.0866
 20
-12.5263
 30
0.0
 10
-37.0866
 20
-12.5263
 30
0.0
 10
-37.0866
 20
-12.5263
 30
0.0
 10
-38.4761
 20
-12.2642
 30
0.0
 10
-38.4761
 20
-12.2642
 30
0.0
 10
-38.4761
 20
-12.2642
 30
0.0
 10
-38.4761
 20
-12.2642
 30
0.0
 10
-38.4761
 20
-10.9188
 30
0.0
 10
-38.4761
 20
-10.9188
 30
0.0
 10
-38.4761
 20
-10.9188
 30
0.0
 10
-38.4761
 20
-10.9188
 30
0.0
 10
-38.1587
 20
-10.9188
 30
0.0
 10
-38.1587
 20
-10.9188
 30
0.0
 10
-38.1587
 20
-10.9188
 30
0.0
 10
-38.1587
 20
-10.9188
 30
0.0
 10
-38.1587
 20
-11.9984
 30
0.0
 10
-38.1587
 20
-11.9984
 30
0.0
 10
-38.1587
 20
-11.9984
 30
0.0
 10
-38.1587
 20
-11.9984
 30
0.0
 10
-37.4318
 20
-12.1446
 30
0.0
 10
-37.4318
 20
-12.1446
 30
0.0
 10
-37.4318
 20
-12.1446
 30
0.0
 10
-37.5452
 20
-11.9821
 30
0.0
 10
-37.6019
 20
-11.8114
 30
0.0
 10
-37.6019
 20
-11.6331
 30
0.0
 10
-37.6019
 20
-11.6331
 30
0.0
 10
-37.6019
 20
-11.3969
 30
0.0
 10
-37.52
 20
-11.1979
 30
0.0
 10
-37.3562
 20
-11.0354
 30
0.0
 10
-37.3562
 20
-11.0354
 30
0.0
 10
-37.1924
 20
-10.8729
 30
0.0
 10
-36.9821
 20
-10.7916
 30
0.0
 10
-36.7251
 20
-10.7916
 30
0.0
 10
-36.7251
 20
-10.7916
 30
0.0
 10
-36.4801
 20
-10.7916
 30
0.0
 10
-36.2684
 20
-10.8634
 30
0.0
 10
-36.0902
 20
-11.0058
 30
0.0
 10
-36.0902
 20
-11.0058
 30
0.0
 10
-35.8716
 20
-11.1796
 30
0.0
 10
-35.762
 20
-11.4164
 30
0.0
 10
-35.762
 20
-11.7162
 30
0.0
 10
-35.762
 20
-11.7162
 30
0.0
 10
-35.762
 20
-11.9625
 30
0.0
 10
-35.8307
 20
-12.1635
 30
0.0
 10
-35.9686
 20
-12.319
 30
0.0
 10
-35.9686
 20
-12.319
 30
0.0
 10
-36.1066
 20
-12.4746
 30
0.0
 10
-36.2892
 20
-12.5634
 30
0.0
 10
-36.5166
 20
-12.5855
 30
0.0
  0
SPLINE
  5
CC
330
1F
100
AcDbEntity
  8
DEFAULT_1
 62
   250
100
AcDbSpline
210
0.0
220
0.0
230
1.0
 70
    11
 71
     3
 72
   124
 73
   120
 74
     0
 42
0.0000000001
 43
0.0000000001
 40
0.0
 40
0.0
 40
0.0
 40
0.0
 40
0.032258064516129
 40
0.032258064516129
 40
0.032258064516129
 40
0.032258064516129
 40
0.0645161290322581
 40
0.0645161290322581
 40
0.0645161290322581
 40
0.0645161290322581
 40
0.0967741935483871
 40
0.0967741935483871
 40
0.0967741935483871
 40
0.0967741935483871
 40
0.1290322580645161
 40
0.1290322580645161
 40
0.1290322580645161
 40
0.1290322580645161
 40
0.1612903225806452
 40
0.1612903225806452
 40
0.1612903225806452
 40
0.1612903225806452
 40
0.1935483870967742
 40
0.1935483870967742
 40
0.1935483870967742
 40
0.1935483870967742
 40
0.2258064516129032
 40
0.2258064516129032
 40
0.2258064516129032
 40
0.2258064516129032
 40
0.2580645161290323
 40
0.2580645161290323
 40
0.2580645161290323
 40
0.2580645161290323
 40
0.2903225806451613
 40
0.2903225806451613
 40
0.2903225806451613
 40
0.2903225806451613
 40
0.3225806451612903
 40
0.3225806451612903
 40
0.3225806451612903
 40
0.3225806451612903
 40
0.3548387096774194
 40
0.3548387096774194
 40
0.3548387096774194
 40
0.3548387096774194
 40
0.3870967741935484
 40
0.3870967741935484
 40
0.3870967741935484
 40
0.3870967741935484
 40
0.4193548387096774
 40
0.4193548387096774
 40
0.4193548387096774
 40
0.4193548387096774
 40
0.4516129032258064
 40
0.4516129032258064
 40
0.4516129032258064
 40
0.4516129032258064
 40
0.4838709677419355
 40
0.4838709677419355
 40
0.4838709677419355
 40
0.4838709677419355
 40
0.5161290322580645
 40
0.5161290322580645
 40
0.5161290322580645
 40
0.5161290322580645
 40
0.5483870967741935
 40
0.5483870967741935
 40
0.5483870967741935
 40
0.5483870967741935
 40
0.5806451612903226
 40
0.5806451612903226
 40
0.5806451612903226
 40
0.5806451612903226
 40
0.6129032258064516
 40
0.6129032258064516
 40
0.6129032258064516
 40
0.6129032258064516
 40
0.6451612903225806
 40
0.6451612903225806
 40
0.6451612903225806
 40
0.6451612903225806
 40
0.6774193548387096
 40
0.6774193548387096
 40
0.6774193548387096
 40
0.6774193548387096
 40
0.7096774193548387
 40
0.7096774193548387
 40
0.7096774193548387
 40
0.7096774193548387
 40
0.7419354838709677
 40
0.7419354838709677
 40
0.7419354838709677
 40
0.7419354838709677
 40
0.7741935483870968
 40
0.7741935483870968
 40
0.7741935483870968
 40
0.7741935483870968
 40
0.8064516129032258
 40
0.8064516129032258
 40
0.8064516129032258
 40
0.8064516129032258
 40
0.8387096774193549
 40
0.8387096774193549
 40
0.8387096774193549
 40
0.8387096774193549
 40
0.8709677419354839
 40
0.8709677419354839
 40
0.8709677419354839
 40
0.8709677419354839
 40
0.9032258064516129
 40
0.9032258064516129
 40
0.9032258064516129
 40
0.9032258064516129
 40
0.9354838709677419
 40
0.9354838709677419
 40
0.9354838709677419
 40
0.9354838709677419
 40
1.0
 40
1.0
 40
1.0
 40
1.0
 10
-36.5223
 20
-10.4817
 30
0.0
 10
-36.5223
 20
-10.4817
 30
0.0
 10
-36.5664
 20
-10.1497
 30
0.0
 10
-36.5664
 20
-10.1497
 30
0.0
 10
-36.5664
 20
-10.1497
 30
0.0
 10
-36.378
 20
-10.1113
 30
0.0
 10
-36.2426
 20
-10.0464
 30
0.0
 10
-36.1595
 20
-9.9551
 30
0.0
 10
-36.1595
 20
-9.9551
 30
0.0
 10
-36.0763
 20
-9.8631
 30
0.0
 10
-36.0348
 20
-9.7517
 30
0.0
 10
-36.0348
 20
-9.62
 30
0.0
 10
-36.0348
 20
-9.62
 30
0.0
 10
-36.0348
 20
-9.4638
 30
0.0
 10
-36.0889
 20
-9.3315
 30
0.0
 10
-36.1973
 20
-9.2238
 30
0.0
 10
-36.1973
 20
-9.2238
 30
0.0
 10
-36.3056
 20
-9.1168
 30
0.0
 10
-36.4398
 20
-9.0626
 30
0.0
 10
-36.5997
 20
-9.0626
 30
0.0
 10
-36.5997
 20
-9.0626
 30
0.0
 10
-36.7522
 20
-9.0626
 30
0.0
 10
-36.8781
 20
-9.1123
 30
0.0
 10
-36.977
 20
-9.2119
 30
0.0
 10
-36.977
 20
-9.2119
 30
0.0
 10
-37.0759
 20
-9.312
 30
0.0
 10
-37.1257
 20
-9.4386
 30
0.0
 10
-37.1257
 20
-9.5923
 30
0.0
 10
-37.1257
 20
-9.5923
 30
0.0
 10
-37.1257
 20
-9.6553
 30
0.0
 10
-37.1131
 20
-9.7334
 30
0.0
 10
-37.0885
 20
-9.8266
 30
0.0
 10
-37.0885
 20
-9.8266
 30
0.0
 10
-37.0885
 20
-9.8266
 30
0.0
 10
-37.3801
 20
-9.7895
 30
0.0
 10
-37.3801
 20
-9.7895
 30
0.0
 10
-37.3801
 20
-9.7895
 30
0.0
 10
-37.3776
 20
-9.7674
 30
0.0
 10
-37.3764
 20
-9.7498
 30
0.0
 10
-37.3764
 20
-9.7359
 30
0.0
 10
-37.3764
 20
-9.7359
 30
0.0
 10
-37.3764
 20
-9.5948
 30
0.0
 10
-37.4135
 20
-9.4676
 30
0.0
 10
-37.4872
 20
-9.3542
 30
0.0
 10
-37.4872
 20
-9.3542
 30
0.0
 10
-37.5609
 20
-9.2408
 30
0.0
 10
-37.6749
 20
-9.1841
 30
0.0
 10
-37.8286
 20
-9.1841
 30
0.0
 10
-37.8286
 20
-9.1841
 30
0.0
 10
-37.9502
 20
-9.1841
 30
0.0
 10
-38.0516
 20
-9.2257
 30
0.0
 10
-38.1309
 20
-9.3082
 30
0.0
 10
-38.1309
 20
-9.3082
 30
0.0
 10
-38.2109
 20
-9.3907
 30
0.0
 10
-38.2513
 20
-9.4972
 30
0.0
 10
-38.2513
 20
-9.6276
 30
0.0
 10
-38.2513
 20
-9.6276
 30
0.0
 10
-38.2513
 20
-9.7567
 30
0.0
 10
-38.2103
 20
-9.8644
 30
0.0
 10
-38.1297
 20
-9.9501
 30
0.0
 10
-38.1297
 20
-9.9501
 30
0.0
 10
-38.0484
 20
-10.0364
 30
0.0
 10
-37.9262
 20
-10.0918
 30
0.0
 10
-37.7637
 20
-10.1164
 30
0.0
 10
-37.7637
 20
-10.1164
 30
0.0
 10
-37.7637
 20
-10.1164
 30
0.0
 10
-37.8229
 20
-10.4483
 30
0.0
 10
-37.8229
 20
-10.4483
 30
0.0
 10
-37.8229
 20
-10.4483
 30
0.0
 10
-38.0459
 20
-10.408
 30
0.0
 10
-38.2185
 20
-10.3154
 30
0.0
 10
-38.3407
 20
-10.1718
 30
0.0
 10
-38.3407
 20
-10.1718
 30
0.0
 10
-38.4629
 20
-10.0275
 30
0.0
 10
-38.5246
 20
-9.8487
 30
0.0
 10
-38.5246
 20
-9.6345
 30
0.0
 10
-38.5246
 20
-9.6345
 30
0.0
 10
-38.5246
 20
-9.4871
 30
0.0
 10
-38.4925
 20
-9.3511
 30
0.0
 10
-38.4295
 20
-9.227
 30
0.0
 10
-38.4295
 20
-9.227
 30
0.0
 10
-38.3659
 20
-9.1029
 30
0.0
 10
-38.2796
 20
-9.0078
 30
0.0
 10
-38.17
 20
-8.9416
 30
0.0
 10
-38.17
 20
-8.9416
 30
0.0
 10
-38.0604
 20
-8.8761
 30
0.0
 10
-37.9445
 20
-8.8428
 30
0.0
 10
-37.8211
 20
-8.8428
 30
0.0
 10
-37.8211
 20
-8.8428
 30
0.0
 10
-37.7045
 20
-8.8428
 30
0.0
 10
-37.5981
 20
-8.8743
 30
0.0
 10
-37.5017
 20
-8.9372
 30
0.0
 10
-37.5017
 20
-8.9372
 30
0.0
 10
-37.406
 20
-9.0002
 30
0.0
 10
-37.3298
 20
-9.0928
 30
0.0
 10
-37.2731
 20
-9.2156
 30
0.0
 10
-37.2731
 20
-9.2156
 30
0.0
 10
-37.2365
 20
-9.0557
 30
0.0
 10
-37.1597
 20
-8.9316
 30
0.0
 10
-37.0432
 20
-8.8428
 30
0.0
 10
-37.0432
 20
-8.8428
 30
0.0
 10
-36.9273
 20
-8.7546
 30
0.0
 10
-36.7818
 20
-8.7105
 30
0.0
 10
-36.6073
 20
-8.7105
 30
0.0
 10
-36.6073
 20
-8.7105
 30
0.0
 10
-36.3711
 20
-8.7105
 30
0.0
 10
-36.1708
 20
-8.7962
 30
0.0
 10
-36.0064
 20
-8.9687
 30
0.0
 10
-36.0064
 20
-8.9687
 30
0.0
 10
-35.842
 20
-9.1407
 30
0.0
 10
-35.7601
 20
-9.3586
 30
0.0
 10
-35.7601
 20
-9.6219
 30
0.0
 10
-35.7601
 20
-9.6219
 30
0.0
 10
-35.7601
 20
-9.8594
 30
0.0
 10
-35.8307
 20
-10.0565
 30
0.0
 10
-35.9724
 20
-10.2134
 30
0.0
 10
-35.9724
 20
-10.2134
 30
0.0
 10
-36.1135
 20
-10.3702
 30
0.0
 10
-36.2968
 20
-10.4596
 30
0.0
 10
-36.5223
 20
-10.4817
 30
0.0
  0
SPLINE
  5
CD
330
1F
100
AcDbEntity
  8
DEFAULT_1
 62
   250
100
AcDbSpline
210
0.0
220
0.0
230
1.0
 70
    11
 71
     3
 72
    84
 73
    80
 74
     0
 42
0.0000000001
 43
0.0000000001
 40
0.0
 40
0.0
 40
0.0
 40
0.0
 40
0.0476190476190476
 40
0.0476190476190476
 40
0.0476190476190476
 40
0.0476190476190476
 40
0.0952380952380952
 40
0.0952380952380952
 40
0.0952380952380952
 40
0.0952380952380952
 40
0.1428571428571428
 40
0.1428571428571428
 40
0.1428571428571428
 40
0.1428571428571428
 40
0.1904761904761905
 40
0.1904761904761905
 40
0.1904761904761905
 40
0.1904761904761905
 40
0.2380952380952381
 40
0.2380952380952381
 40
0.2380952380952381
 40
0.2380952380952381
 40
0.2857142857142857
 40
0.2857142857142857
 40
0.2857142857142857
 40
0.2857142857142857
 40
0.3333333333333333
 40
0.3333333333333333
 40
0.3333333333333333
 40
0.3333333333333333
 40
0.3809523809523809
 40
0.3809523809523809
 40
0.3809523809523809
 40
0.3809523809523809
 40
0.4285714285714285
 40
0.4285714285714285
 40
0.4285714285714285
 40
0.4285714285714285
 40
0.4761904761904762
 40
0.4761904761904762
 40
0.4761904761904762
 40
0.4761904761904762
 40
0.5238095238095238
 40
0.5238095238095238
 40
0.5238095238095238
 40
0.5238095238095238
 40
0.5714285714285714
 40
0.5714285714285714
 40
0.5714285714285714
 40
0.5714285714285714
 40
0.6190476190476191
 40
0.6190476190476191
 40
0.6190476190476191
 40
0.6190476190476191
 40
0.6666666666666666
 40
0.6666666666666666
 40
0.6666666666666666
 40
0.6666666666666666
 40
0.7142857142857143
 40
0.7142857142857143
 40
0.7142857142857143
 40
0.7142857142857143
 40
0.7619047619047619
 40
0.7619047619047619
 40
0.7619047619047619
 40
0.7619047619047619
 40
0.8095238095238095
 40
0.8095238095238095
 40
0.8095238095238095
 40
0.8095238095238095
 40
0.8571428571428571
 40
0.8571428571428571
 40
0.8571428571428571
 40
0.8571428571428571
 40
0.9047619047619048
 40
0.9047619047619048
 40
0.9047619047619048
 40
0.9047619047619048
 40
1.0
 40
1.0
 40
1.0
 40
1.0
 10
-2.6496
 20
-45.5061
 30
0.0
 10
-2.6496
 20
-45.5061
 30
0.0
 10
-2.3397
 20
-45.159
 30
0.0
 10
-2.3397
 20
-45.159
 30
0.0
 10
-2.3397
 20
-45.159
 30
0.0
 10
-2.3397
 20
-45.159
 30
0.0
 10
-2.1571
 20
-45.314
 30
0.0
 10
-2.1571
 20
-45.314
 30
0.0
 10
-2.1571
 20
-45.314
 30
0.0
 10
-2.1571
 20
-45.314
 30
0.0
 10
-2.4815
 20
-45.6793
 30
0.0
 10
-2.4815
 20
-45.6793
 30
0.0
 10
-2.4815
 20
-45.6793
 30
0.0
 10
-2.3756
 20
-45.8367
 30
0.0
 10
-2.3045
 20
-45.9747
 30
0.0
 10
-2.2673
 20
-46.0925
 30
0.0
 10
-2.2673
 20
-46.0925
 30
0.0
 10
-2.2182
 20
-46.2474
 30
0.0
 10
-2.1936
 20
-46.4213
 30
0.0
 10
-2.1936
 20
-46.6127
 30
0.0
 10
-2.1936
 20
-46.6127
 30
0.0
 10
-2.1936
 20
-46.8899
 30
0.0
 10
-2.2497
 20
-47.1368
 30
0.0
 10
-2.3618
 20
-47.3528
 30
0.0
 10
-2.3618
 20
-47.3528
 30
0.0
 10
-2.4739
 20
-47.5695
 30
0.0
 10
-2.6307
 20
-47.7333
 30
0.0
 10
-2.8329
 20
-47.8441
 30
0.0
 10
-2.8329
 20
-47.8441
 30
0.0
 10
-3.0357
 20
-47.9544
 30
0.0
 10
-3.2505
 20
-48.0098
 30
0.0
 10
-3.4779
 20
-48.0098
 30
0.0
 10
-3.4779
 20
-48.0098
 30
0.0
 10
-3.648
 20
-48.0098
 30
0.0
 10
-3.8017
 20
-47.9858
 30
0.0
 10
-3.9396
 20
-47.938
 30
0.0
 10
-3.9396
 20
-47.938
 30
0.0
 10
-4.0454
 20
-47.9008
 30
0.0
 10
-4.1689
 20
-47.8303
 30
0.0
 10
-4.3106
 20
-47.7257
 30
0.0
 10
-4.3106
 20
-47.7257
 30
0.0
 10
-4.3106
 20
-47.7257
 30
0.0
 10
-4.6205
 20
-48.0728
 30
0.0
 10
-4.6205
 20
-48.0728
 30
0.0
 10
-4.6205
 20
-48.0728
 30
0.0
 10
-4.6205
 20
-48.0728
 30
0.0
 10
-4.8031
 20
-47.9178
 30
0.0
 10
-4.8031
 20
-47.9178
 30
0.0
 10
-4.8031
 20
-47.9178
 30
0.0
 10
-4.8031
 20
-47.9178
 30
0.0
 10
-4.4781
 20
-47.5544
 30
0.0
 10
-4.4781
 20
-47.5544
 30
0.0
 10
-4.4781
 20
-47.5544
 30
0.0
 10
-4.5991
 20
-47.3711
 30
0.0
 10
-4.6797
 20
-47.2143
 30
0.0
 10
-4.72
 20
-47.0845
 30
0.0
 10
-4.72
 20
-47.0845
 30
0.0
 10
-4.7603
 20
-46.9548
 30
0.0
 10
-4.7811
 20
-46.7985
 30
0.0
 10
-4.7811
 20
-46.6165
 30
0.0
 10
-4.7811
 20
-46.6165
 30
0.0
 10
-4.7811
 20
-46.3387
 30
0.0
 10
-4.7257
 20
-46.0912
 30
0.0
 10
-4.6148
 20
-45.8739
 30
0.0
 10
-4.6148
 20
-45.8739
 30
0.0
 10
-4.504
 20
-45.6566
 30
0.0
 10
-4.349
 20
-45.4922
 30
0.0
 10
-4.1487
 20
-45.3801
 30
0.0
 10
-4.1487
 20
-45.3801
 30
0.0
 10
-3.949
 20
-45.2686
 30
0.0
 10
-3.7267
 20
-45.2125
 30
0.0
 10
-3.4817
 20
-45.2125
 30
0.0
 10
-3.4817
 20
-45.2125
 30
0.0
 10
-3.3167
 20
-45.2125
 30
0.0
 10
-3.1724
 20
-45.234
 30
0.0
 10
-3.049
 20
-45.278
 30
0.0
 10
-3.049
 20
-45.278
 30
0.0
 10
-2.9255
 20
-45.3215
 30
0.0
 10
-2.792
 20
-45.3977
 30
0.0
 10
-2.6496
 20
-45.5061
 30
0.0
  0
SPLINE
  5
CE
330
1F
100
AcDbEntity
  8
DEFAULT_1
 62
   250
100
AcDbSpline
210
0.0
220
0.0
230
1.0
 70
    11
 71
     3
 72
    32
 73
    28
 74
     0
 42
0.0000000001
 43
0.0000000001
 40
0.0
 40
0.0
 40
0.0
 40
0.0
 40
0.125
 40
0.125
 40
0.125
 40
0.125
 40
0.25
 40
0.25
 40
0.25
 40
0.25
 40
0.375
 40
0.375
 40
0.375
 40
0.375
 40
0.5
 40
0.5
 40
0.5
 40
0.5
 40
0.625
 40
0.625
 40
0.625
 40
0.625
 40
0.75
 40
0.75
 40
0.75
 40
0.75
 40
1.0
 40
1.0
 40
1.0
 40
1.0
 10
-2.8707
 20
-45.7549
 30
0.0
 10
-2.9866
 20
-45.6642
 30
0.0
 10
-3.088
 20
-45.6018
 30
0.0
 10
-3.1743
 20
-45.5684
 30
0.0
 10
-3.1743
 20
-45.5684
 30
0.0
 10
-3.2612
 20
-45.5357
 30
0.0
 10
-3.3633
 20
-45.5187
 30
0.0
 10
-3.4798
 20
-45.5187
 30
0.0
 10
-3.4798
 20
-45.5187
 30
0.0
 10
-3.7494
 20
-45.5187
 30
0.0
 10
-3.9717
 20
-45.61
 30
0.0
 10
-4.1481
 20
-45.7926
 30
0.0
 10
-4.1481
 20
-45.7926
 30
0.0
 10
-4.3238
 20
-45.9753
 30
0.0
 10
-4.412
 20
-46.248
 30
0.0
 10
-4.412
 20
-46.6115
 30
0.0
 10
-4.412
 20
-46.6115
 30
0.0
 10
-4.412
 20
-46.7538
 30
0.0
 10
-4.3981
 20
-46.8804
 30
0.0
 10
-4.3711
 20
-46.9913
 30
0.0
 10
-4.3711
 20
-46.9913
 30
0.0
 10
-4.3515
 20
-47.0738
 30
0.0
 10
-4.3106
 20
-47.1752
 30
0.0
 10
-4.2476
 20
-47.2955
 30
0.0
 10
-4.2476
 20
-47.2955
 30
0.0
 10
-4.2476
 20
-47.2955
 30
0.0
 10
-2.8707
 20
-45.7549
 30
0.0
 10
-2.8707
 20
-45.7549
 30
0.0
  0
SPLINE
  5
CF
330
1F
100
AcDbEntity
  8
DEFAULT_1
 62
   250
100
AcDbSpline
210
0.0
220
0.0
230
1.0
 70
    11
 71
     3
 72
    28
 73
    24
 74
     0
 42
0.0000000001
 43
0.0000000001
 40
0.0
 40
0.0
 40
0.0
 40
0.0
 40
0.1428571428571428
 40
0.1428571428571428
 40
0.1428571428571428
 40
0.1428571428571428
 40
0.2857142857142857
 40
0.2857142857142857
 40
0.2857142857142857
 40
0.2857142857142857
 40
0.4285714285714285
 40
0.4285714285714285
 40
0.4285714285714285
 40
0.4285714285714285
 40
0.5714285714285714
 40
0.5714285714285714
 40
0.5714285714285714
 40
0.5714285714285714
 40
0.7142857142857143
 40
0.7142857142857143
 40
0.7142857142857143
 40
0.7142857142857143
 40
1.0
 40
1.0
 40
1.0
 40
1.0
 10
-2.7195
 20
-45.9451
 30
0.0
 10
-2.7195
 20
-45.9451
 30
0.0
 10
-4.0908
 20
-47.4801
 30
0.0
 10
-4.0908
 20
-47.4801
 30
0.0
 10
-4.0908
 20
-47.4801
 30
0.0
 10
-3.9963
 20
-47.5575
 30
0.0
 10
-3.9087
 20
-47.6117
 30
0.0
 10
-3.8287
 20
-47.6426
 30
0.0
 10
-3.8287
 20
-47.6426
 30
0.0
 10
-3.7242
 20
-47.6835
 30
0.0
 10
-3.6108
 20
-47.7037
 30
0.0
 10
-3.4892
 20
-47.7037
 30
0.0
 10
-3.4892
 20
-47.7037
 30
0.0
 10
-3.2209
 20
-47.7037
 30
0.0
 10
-2.9998
 20
-47.6092
 30
0.0
 10
-2.8247
 20
-47.4196
 30
0.0
 10
-2.8247
 20
-47.4196
 30
0.0
 10
-2.6503
 20
-47.23
 30
0.0
 10
-2.5627
 20
-46.9642
 30
0.0
 10
-2.5627
 20
-46.6222
 30
0.0
 10
-2.5627
 20
-46.6222
 30
0.0
 10
-2.5627
 20
-46.3665
 30
0.0
 10
-2.615
 20
-46.1403
 30
0.0
 10
-2.7195
 20
-45.9451
 30
0.0
  0
SPLINE
  5
D0
330
1F
100
AcDbEntity
  8
DEFAULT_1
 62
   250
100
AcDbSpline
210
0.0
220
0.0
230
1.0
 70
    11
 71
     3
 72
    40
 73
    36
 74
     0
 42
0.0000000001
 43
0.0000000001
 40
0.0
 40
0.0
 40
0.0
 40
0.0
 40
0.1
 40
0.1
 40
0.1
 40
0.1
 40
0.2
 40
0.2
 40
0.2
 40
0.2
 40
0.3
 40
0.3
 40
0.3
 40
0.3
 40
0.4
 40
0.4
 40
0.4
 40
0.4
 40
0.5
 40
0.5
 40
0.5
 40
0.5
 40
0.6
 40
0.6
 40
0.6
 40
0.6
 40
0.7
 40
0.7
 40
0.7
 40
0.7
 40
0.8
 40
0.8
 40
0.8
 40
0.8
 40
1.0
 40
1.0
 40
1.0
 40
1.0
 10
-0.6088
 20
-47.9638
 30
0.0
 10
-0.6088
 20
-47.9638
 30
0.0
 10
-0.9408
 20
-47.9638
 30
0.0
 10
-0.9408
 20
-47.9638
 30
0.0
 10
-0.9408
 20
-47.9638
 30
0.0
 10
-0.9408
 20
-47.9638
 30
0.0
 10
-0.9408
 20
-45.8474
 30
0.0
 10
-0.9408
 20
-45.8474
 30
0.0
 10
-0.9408
 20
-45.8474
 30
0.0
 10
-1.0208
 20
-45.9237
 30
0.0
 10
-1.1253
 20
-45.9999
 30
0.0
 10
-1.2551
 20
-46.0761
 30
0.0
 10
-1.2551
 20
-46.0761
 30
0.0
 10
-1.3855
 20
-46.1523
 30
0.0
 10
-1.502
 20
-46.2096
 30
0.0
 10
-1.6053
 20
-46.2474
 30
0.0
 10
-1.6053
 20
-46.2474
 30
0.0
 10
-1.6053
 20
-46.2474
 30
0.0
 10
-1.6053
 20
-45.9268
 30
0.0
 10
-1.6053
 20
-45.9268
 30
0.0
 10
-1.6053
 20
-45.9268
 30
0.0
 10
-1.4195
 20
-45.8393
 30
0.0
 10
-1.257
 20
-45.7334
 30
0.0
 10
-1.1178
 20
-45.6094
 30
0.0
 10
-1.1178
 20
-45.6094
 30
0.0
 10
-0.9792
 20
-45.4846
 30
0.0
 10
-0.8803
 20
-45.3643
 30
0.0
 10
-0.8224
 20
-45.2472
 30
0.0
 10
-0.8224
 20
-45.2472
 30
0.0
 10
-0.8224
 20
-45.2472
 30
0.0
 10
-0.6088
 20
-45.2472
 30
0.0
 10
-0.6088
 20
-45.2472
 30
0.0
 10
-0.6088
 20
-45.2472
 30
0.0
 10
-0.6088
 20
-45.2472
 30
0.0
 10
-0.6088
 20
-47.9638
 30
0.0
 10
-0.6088
 20
-47.9638
 30
0.0
  0
SPLINE
  5
D1
330
1F
100
AcDbEntity
  8
DEFAULT_1
 62
   250
100
AcDbSpline
210
0.0
220
0.0
230
1.0
 70
    11
 71
     3
 72
    40
 73
    36
 74
     0
 42
0.0000000001
 43
0.0000000001
 40
0.0
 40
0.0
 40
0.0
 40
0.0
 40
0.1
 40
0.1
 40
0.1
 40
0.1
 40
0.2
 40
0.2
 40
0.2
 40
0.2
 40
0.3
 40
0.3
 40
0.3
 40
0.3
 40
0.4
 40
0.4
 40
0.4
 40
0.4
 40
0.5
 40
0.5
 40
0.5
 40
0.5
 40
0.6
 40
0.6
 40
0.6
 40
0.6
 40
0.7
 40
0.7
 40
0.7
 40
0.7
 40
0.8
 40
0.8
 40
0.8
 40
0.8
 40
1.0
 40
1.0
 40
1.0
 40
1.0
 10
1.2128
 20
-47.9638
 30
0.0
 10
1.2128
 20
-47.9638
 30
0.0
 10
0.8808
 20
-47.9638
 30
0.0
 10
0.8808
 20
-47.9638
 30
0.0
 10
0.8808
 20
-47.9638
 30
0.0
 10
0.8808
 20
-47.9638
 30
0.0
 10
0.8808
 20
-45.8474
 30
0.0
 10
0.8808
 20
-45.8474
 30
0.0
 10
0.8808
 20
-45.8474
 30
0.0
 10
0.8008
 20
-45.9237
 30
0.0
 10
0.6963
 20
-45.9999
 30
0.0
 10
0.5665
 20
-46.0761
 30
0.0
 10
0.5665
 20
-46.0761
 30
0.0
 10
0.4361
 20
-46.1523
 30
0.0
 10
0.3196
 20
-46.2096
 30
0.0
 10
0.2163
 20
-46.2474
 30
0.0
 10
0.2163
 20
-46.2474
 30
0.0
 10
0.2163
 20
-46.2474
 30
0.0
 10
0.2163
 20
-45.9268
 30
0.0
 10
0.2163
 20
-45.9268
 30
0.0
 10
0.2163
 20
-45.9268
 30
0.0
 10
0.4021
 20
-45.8393
 30
0.0
 10
0.5646
 20
-45.7334
 30
0.0
 10
0.7038
 20
-45.6094
 30
0.0
 10
0.7038
 20
-45.6094
 30
0.0
 10
0.8424
 20
-45.4846
 30
0.0
 10
0.9413
 20
-45.3643
 30
0.0
 10
0.9992
 20
-45.2472
 30
0.0
 10
0.9992
 20
-45.2472
 30
0.0
 10
0.9992
 20
-45.2472
 30
0.0
 10
1.2128
 20
-45.2472
 30
0.0
 10
1.2128
 20
-45.2472
 30
0.0
 10
1.2128
 20
-45.2472
 30
0.0
 10
1.2128
 20
-45.2472
 30
0.0
 10
1.2128
 20
-47.9638
 30
0.0
 10
1.2128
 20
-47.9638
 30
0.0
  0
SPLINE
  5
D2
330
1F
100
AcDbEntity
  8
DEFAULT_1
 62
   250
100
AcDbSpline
210
0.0
220
0.0
230
1.0
 70
    11
 71
     3
 72
    52
 73
    48
 74
     0
 42
0.0000000001
 43
0.0000000001
 40
0.0
 40
0.0
 40
0.0
 40
0.0
 40
0.0769230769230769
 40
0.0769230769230769
 40
0.0769230769230769
 40
0.0769230769230769
 40
0.1538461538461539
 40
0.1538461538461539
 40
0.1538461538461539
 40
0.1538461538461539
 40
0.2307692307692308
 40
0.2307692307692308
 40
0.2307692307692308
 40
0.2307692307692308
 40
0.3076923076923077
 40
0.3076923076923077
 40
0.3076923076923077
 40
0.3076923076923077
 40
0.3846153846153846
 40
0.3846153846153846
 40
0.3846153846153846
 40
0.3846153846153846
 40
0.4615384615384616
 40
0.4615384615384616
 40
0.4615384615384616
 40
0.4615384615384616
 40
0.5384615384615384
 40
0.5384615384615384
 40
0.5384615384615384
 40
0.5384615384615384
 40
0.6153846153846154
 40
0.6153846153846154
 40
0.6153846153846154
 40
0.6153846153846154
 40
0.6923076923076923
 40
0.6923076923076923
 40
0.6923076923076923
 40
0.6923076923076923
 40
0.7692307692307693
 40
0.7692307692307693
 40
0.7692307692307693
 40
0.7692307692307693
 40
0.8461538461538461
 40
0.8461538461538461
 40
0.8461538461538461
 40
0.8461538461538461
 40
1.0
 40
1.0
 40
1.0
 40
1.0
 10
2.0637
 20
-46.6297
 30
0.0
 10
2.0637
 20
-46.3098
 30
0.0
 10
2.0965
 20
-46.0522
 30
0.0
 10
2.1626
 20
-45.8575
 30
0.0
 10
2.1626
 20
-45.8575
 30
0.0
 10
2.2281
 20
-45.6623
 30
0.0
 10
2.3264
 20
-45.5117
 30
0.0
 10
2.4561
 20
-45.4059
 30
0.0
 10
2.4561
 20
-45.4059
 30
0.0
 10
2.5859
 20
-45.3001
 30
0.0
 10
2.749
 20
-45.2472
 30
0.0
 10
2.9456
 20
-45.2472
 30
0.0
 10
2.9456
 20
-45.2472
 30
0.0
 10
3.091
 20
-45.2472
 30
0.0
 10
3.2183
 20
-45.2768
 30
0.0
 10
3.3279
 20
-45.3354
 30
0.0
 10
3.3279
 20
-45.3354
 30
0.0
 10
3.4375
 20
-45.3933
 30
0.0
 10
3.5275
 20
-45.4777
 30
0.0
 10
3.5994
 20
-45.5879
 30
0.0
 10
3.5994
 20
-45.5879
 30
0.0
 10
3.6705
 20
-45.6982
 30
0.0
 10
3.7266
 20
-45.8323
 30
0.0
 10
3.7669
 20
-45.9904
 30
0.0
 10
3.7669
 20
-45.9904
 30
0.0
 10
3.8078
 20
-46.1485
 30
0.0
 10
3.828
 20
-46.3614
 30
0.0
 10
3.828
 20
-46.6297
 30
0.0
 10
3.828
 20
-46.6297
 30
0.0
 10
3.828
 20
-46.9472
 30
0.0
 10
3.7952
 20
-47.2029
 30
0.0
 10
3.7304
 20
-47.3982
 30
0.0
 10
3.7304
 20
-47.3982
 30
0.0
 10
3.6649
 20
-47.5934
 30
0.0
 10
3.5672
 20
-47.744
 30
0.0
 10
3.4375
 20
-47.8504
 30
0.0
 10
3.4375
 20
-47.8504
 30
0.0
 10
3.3077
 20
-47.9569
 30
0.0
 10
3.144
 20
-48.0098
 30
0.0
 10
2.9456
 20
-48.0098
 30
0.0
 10
2.9456
 20
-48.0098
 30
0.0
 10
2.6848
 20
-48.0098
 30
0.0
 10
2.4801
 20
-47.9166
 30
0.0
 10
2.3314
 20
-47.7295
 30
0.0
 10
2.3314
 20
-47.7295
 30
0.0
 10
2.1532
 20
-47.5046
 30
0.0
 10
2.0637
 20
-47.1374
 30
0.0
 10
2.0637
 20
-46.6297
 30
0.0
  0
SPLINE
  5
D3
330
1F
100
AcDbEntity
  8
DEFAULT_1
 62
   250
100
AcDbSpline
210
0.0
220
0.0
230
1.0
 70
    11
 71
     3
 72
    36
 73
    32
 74
     0
 42
0.0000000001
 43
0.0000000001
 40
0.0
 40
0.0
 40
0.0
 40
0.0
 40
0.1111111111111111
 40
0.1111111111111111
 40
0.1111111111111111
 40
0.1111111111111111
 40
0.2222222222222222
 40
0.2222222222222222
 40
0.2222222222222222
 40
0.2222222222222222
 40
0.3333333333333333
 40
0.3333333333333333
 40
0.3333333333333333
 40
0.3333333333333333
 40
0.4444444444444444
 40
0.4444444444444444
 40
0.4444444444444444
 40
0.4444444444444444
 40
0.5555555555555556
 40
0.5555555555555556
 40
0.5555555555555556
 40
0.5555555555555556
 40
0.6666666666666666
 40
0.6666666666666666
 40
0.6666666666666666
 40
0.6666666666666666
 40
0.7777777777777778
 40
0.7777777777777778
 40
0.7777777777777778
 40
0.7777777777777778
 40
1.0
 40
1.0
 40
1.0
 40
1.0
 10
2.4051
 20
-46.6297
 30
0.0
 10
2.4051
 20
-47.0738
 30
0.0
 10
2.4574
 20
-47.3692
 30
0.0
 10
2.5613
 20
-47.5166
 30
0.0
 10
2.5613
 20
-47.5166
 30
0.0
 10
2.6653
 20
-47.6634
 30
0.0
 10
2.7931
 20
-47.737
 30
0.0
 10
2.9456
 20
-47.737
 30
0.0
 10
2.9456
 20
-47.737
 30
0.0
 10
3.0986
 20
-47.737
 30
0.0
 10
3.2265
 20
-47.6627
 30
0.0
 10
3.3304
 20
-47.5153
 30
0.0
 10
3.3304
 20
-47.5153
 30
0.0
 10
3.4343
 20
-47.3679
 30
0.0
 10
3.4866
 20
-47.0725
 30
0.0
 10
3.4866
 20
-46.6297
 30
0.0
 10
3.4866
 20
-46.6297
 30
0.0
 10
3.4866
 20
-46.1844
 30
0.0
 10
3.4343
 20
-45.8884
 30
0.0
 10
3.3304
 20
-45.7423
 30
0.0
 10
3.3304
 20
-45.7423
 30
0.0
 10
3.2265
 20
-45.5955
 30
0.0
 10
3.0973
 20
-45.5224
 30
0.0
 10
2.9424
 20
-45.5224
 30
0.0
 10
2.9424
 20
-45.5224
 30
0.0
 10
2.7893
 20
-45.5224
 30
0.0
 10
2.6678
 20
-45.5873
 30
0.0
 10
2.5764
 20
-45.7164
 30
0.0
 10
2.5764
 20
-45.7164
 30
0.0
 10
2.4624
 20
-45.8808
 30
0.0
 10
2.4051
 20
-46.1857
 30
0.0
 10
2.4051
 20
-46.6297
 30
0.0
  0
SPLINE
  5
D4
330
1F
100
AcDbEntity
  8
DEFAULT_1
 62
   250
100
AcDbSpline
210
0.0
220
0.0
230
1.0
 70
    11
 71
     3
 72
    92
 73
    88
 74
     0
 42
0.0000000001
 43
0.0000000001
 40
0.0
 40
0.0
 40
0.0
 40
0.0
 40
0.0434782608695652
 40
0.0434782608695652
 40
0.0434782608695652
 40
0.0434782608695652
 40
0.0869565217391304
 40
0.0869565217391304
 40
0.0869565217391304
 40
0.0869565217391304
 40
0.1304347826086956
 40
0.1304347826086956
 40
0.1304347826086956
 40
0.1304347826086956
 40
0.1739130434782609
 40
0.1739130434782609
 40
0.1739130434782609
 40
0.1739130434782609
 40
0.2173913043478261
 40
0.2173913043478261
 40
0.2173913043478261
 40
0.2173913043478261
 40
0.2608695652173913
 40
0.2608695652173913
 40
0.2608695652173913
 40
0.2608695652173913
 40
0.3043478260869565
 40
0.3043478260869565
 40
0.3043478260869565
 40
0.3043478260869565
 40
0.3478260869565217
 40
0.3478260869565217
 40
0.3478260869565217
 40
0.3478260869565217
 40
0.391304347826087
 40
0.391304347826087
 40
0.391304347826087
 40
0.391304347826087
 40
0.4347826086956522
 40
0.4347826086956522
 40
0.4347826086956522
 40
0.4347826086956522
 40
0.4782608695652174
 40
0.4782608695652174
 40
0.4782608695652174
 40
0.4782608695652174
 40
0.5217391304347826
 40
0.5217391304347826
 40
0.5217391304347826
 40
0.5217391304347826
 40
0.5652173913043478
 40
0.5652173913043478
 40
0.5652173913043478
 40
0.5652173913043478
 40
0.6086956521739131
 40
0.6086956521739131
 40
0.6086956521739131
 40
0.6086956521739131
 40
0.6521739130434783
 40
0.6521739130434783
 40
0.6521739130434783
 40
0.6521739130434783
 40
0.6956521739130435
 40
0.6956521739130435
 40
0.6956521739130435
 40
0.6956521739130435
 40
0.7391304347826086
 40
0.7391304347826086
 40
0.7391304347826086
 40
0.7391304347826086
 40
0.782608695652174
 40
0.782608695652174
 40
0.782608695652174
 40
0.782608695652174
 40
0.8260869565217391
 40
0.8260869565217391
 40
0.8260869565217391
 40
0.8260869565217391
 40
0.8695652173913043
 40
0.8695652173913043
 40
0.8695652173913043
 40
0.8695652173913043
 40
0.9130434782608695
 40
0.9130434782608695
 40
0.9130434782608695
 40
0.9130434782608695
 40
1.0
 40
1.0
 40
1.0
 40
1.0
 10
-0.5854
 20
40.6502
 30
0.0
 10
-0.5854
 20
40.6502
 30
0.0
 10
-0.5854
 20
40.3309
 30
0.0
 10
-0.5854
 20
40.3309
 30
0.0
 10
-0.5854
 20
40.3309
 30
0.0
 10
-0.5854
 20
40.3309
 30
0.0
 10
-2.3736
 20
40.3309
 30
0.0
 10
-2.3736
 20
40.3309
 30
0.0
 10
-2.3736
 20
40.3309
 30
0.0
 10
-2.3761
 20
40.4109
 30
0.0
 10
-2.3635
 20
40.4877
 30
0.0
 10
-2.3351
 20
40.5614
 30
0.0
 10
-2.3351
 20
40.5614
 30
0.0
 10
-2.2898
 20
40.6836
 30
0.0
 10
-2.2167
 20
40.8033
 30
0.0
 10
-2.1166
 20
40.9217
 30
0.0
 10
-2.1166
 20
40.9217
 30
0.0
 10
-2.0158
 20
41.0395
 30
0.0
 10
-1.8709
 20
41.1762
 30
0.0
 10
-1.682
 20
41.3311
 30
0.0
 10
-1.682
 20
41.3311
 30
0.0
 10
-1.3878
 20
41.5724
 30
0.0
 10
-1.1888
 20
41.7632
 30
0.0
 10
-1.0855
 20
41.9043
 30
0.0
 10
-1.0855
 20
41.9043
 30
0.0
 10
-0.9822
 20
42.0448
 30
0.0
 10
-0.9305
 20
42.1783
 30
0.0
 10
-0.9305
 20
42.3036
 30
0.0
 10
-0.9305
 20
42.3036
 30
0.0
 10
-0.9305
 20
42.4353
 30
0.0
 10
-0.9778
 20
42.5461
 30
0.0
 10
-1.0716
 20
42.6368
 30
0.0
 10
-1.0716
 20
42.6368
 30
0.0
 10
-1.1661
 20
42.7269
 30
0.0
 10
-1.2889
 20
42.7723
 30
0.0
 10
-1.4401
 20
42.7723
 30
0.0
 10
-1.4401
 20
42.7723
 30
0.0
 10
-1.6001
 20
42.7723
 30
0.0
 10
-1.728
 20
42.7244
 30
0.0
 10
-1.8237
 20
42.628
 30
0.0
 10
-1.8237
 20
42.628
 30
0.0
 10
-1.9201
 20
42.5323
 30
0.0
 10
-1.9686
 20
42.3994
 30
0.0
 10
-1.9698
 20
42.2299
 30
0.0
 10
-1.9698
 20
42.2299
 30
0.0
 10
-1.9698
 20
42.2299
 30
0.0
 10
-2.3112
 20
42.2646
 30
0.0
 10
-2.3112
 20
42.2646
 30
0.0
 10
-2.3112
 20
42.2646
 30
0.0
 10
-2.2879
 20
42.5197
 30
0.0
 10
-2.1997
 20
42.7137
 30
0.0
 10
-2.0473
 20
42.8472
 30
0.0
 10
-2.0473
 20
42.8472
 30
0.0
 10
-1.8949
 20
42.9807
 30
0.0
 10
-1.6895
 20
43.0475
 30
0.0
 10
-1.4325
 20
43.0475
 30
0.0
 10
-1.4325
 20
43.0475
 30
0.0
 10
-1.173
 20
43.0475
 30
0.0
 10
-0.9677
 20
42.9751
 30
0.0
 10
-0.8165
 20
42.8315
 30
0.0
 10
-0.8165
 20
42.8315
 30
0.0
 10
-0.6647
 20
42.6872
 30
0.0
 10
-0.5892
 20
42.509
 30
0.0
 10
-0.5892
 20
42.2961
 30
0.0
 10
-0.5892
 20
42.2961
 30
0.0
 10
-0.5892
 20
42.1877
 30
0.0
 10
-0.6112
 20
42.0813
 30
0.0
 10
-0.6559
 20
41.9767
 30
0.0
 10
-0.6559
 20
41.9767
 30
0.0
 10
-0.7
 20
41.8722
 30
0.0
 10
-0.7737
 20
41.762
 30
0.0
 10
-0.8764
 20
41.6467
 30
0.0
 10
-0.8764
 20
41.6467
 30
0.0
 10
-0.979
 20
41.5308
 30
0.0
 10
-1.1497
 20
41.3721
 30
0.0
 10
-1.3885
 20
41.1705
 30
0.0
 10
-1.3885
 20
41.1705
 30
0.0
 10
-1.5875
 20
41.003
 30
0.0
 10
-1.7154
 20
40.8896
 30
0.0
 10
-1.772
 20
40.8298
 30
0.0
 10
-1.772
 20
40.8298
 30
0.0
 10
-1.8287
 20
40.7705
 30
0.0
 10
-1.8753
 20
40.7107
 30
0.0
 10
-1.9125
 20
40.6502
 30
0.0
 10
-1.9125
 20
40.6502
 30
0.0
 10
-1.9125
 20
40.6502
 30
0.0
 10
-0.5854
 20
40.6502
 30
0.0
 10
-0.5854
 20
40.6502
 30
0.0
  0
SPLINE
  5
D5
330
1F
100
AcDbEntity
  8
DEFAULT_1
 62
   250
100
AcDbSpline
210
0.0
220
0.0
230
1.0
 70
    11
 71
     3
 72
    40
 73
    36
 74
     0
 42
0.0000000001
 43
0.0000000001
 40
0.0
 40
0.0
 40
0.0
 40
0.0
 40
0.1
 40
0.1
 40
0.1
 40
0.1
 40
0.2
 40
0.2
 40
0.2
 40
0.2
 40
0.3
 40
0.3
 40
0.3
 40
0.3
 40
0.4
 40
0.4
 40
0.4
 40
0.4
 40
0.5
 40
0.5
 40
0.5
 40
0.5
 40
0.6
 40
0.6
 40
0.6
 40
0.6
 40
0.7
 40
0.7
 40
0.7
 40
0.7
 40
0.8
 40
0.8
 40
0.8
 40
0.8
 40
1.0
 40
1.0
 40
1.0
 40
1.0
 10
1.0215
 20
40.3309
 30
0.0
 10
1.0215
 20
40.3309
 30
0.0
 10
0.6895
 20
40.3309
 30
0.0
 10
0.6895
 20
40.3309
 30
0.0
 10
0.6895
 20
40.3309
 30
0.0
 10
0.6895
 20
40.3309
 30
0.0
 10
0.6895
 20
42.4473
 30
0.0
 10
0.6895
 20
42.4473
 30
0.0
 10
0.6895
 20
42.4473
 30
0.0
 10
0.6095
 20
42.371
 30
0.0
 10
0.505
 20
42.2948
 30
0.0
 10
0.3752
 20
42.2186
 30
0.0
 10
0.3752
 20
42.2186
 30
0.0
 10
0.2448
 20
42.1424
 30
0.0
 10
0.1283
 20
42.0851
 30
0.0
 10
0.025
 20
42.0473
 30
0.0
 10
0.025
 20
42.0473
 30
0.0
 10
0.025
 20
42.0473
 30
0.0
 10
0.025
 20
42.3679
 30
0.0
 10
0.025
 20
42.3679
 30
0.0
 10
0.025
 20
42.3679
 30
0.0
 10
0.2108
 20
42.4554
 30
0.0
 10
0.3733
 20
42.5613
 30
0.0
 10
0.5125
 20
42.6853
 30
0.0
 10
0.5125
 20
42.6853
 30
0.0
 10
0.6511
 20
42.8101
 30
0.0
 10
0.75
 20
42.9304
 30
0.0
 10
0.8079
 20
43.0475
 30
0.0
 10
0.8079
 20
43.0475
 30
0.0
 10
0.8079
 20
43.0475
 30
0.0
 10
1.0215
 20
43.0475
 30
0.0
 10
1.0215
 20
43.0475
 30
0.0
 10
1.0215
 20
43.0475
 30
0.0
 10
1.0215
 20
43.0475
 30
0.0
 10
1.0215
 20
40.3309
 30
0.0
 10
1.0215
 20
40.3309
 30
0.0
  0
SPLINE
  5
D6
330
1F
100
AcDbEntity
  8
DEFAULT_1
 62
   250
100
AcDbSpline
210
0.0
220
0.0
230
1.0
 70
    11
 71
     3
 72
    52
 73
    48
 74
     0
 42
0.0000000001
 43
0.0000000001
 40
0.0
 40
0.0
 40
0.0
 40
0.0
 40
0.0769230769230769
 40
0.0769230769230769
 40
0.0769230769230769
 40
0.0769230769230769
 40
0.1538461538461539
 40
0.1538461538461539
 40
0.1538461538461539
 40
0.1538461538461539
 40
0.2307692307692308
 40
0.2307692307692308
 40
0.2307692307692308
 40
0.2307692307692308
 40
0.3076923076923077
 40
0.3076923076923077
 40
0.3076923076923077
 40
0.3076923076923077
 40
0.3846153846153846
 40
0.3846153846153846
 40
0.3846153846153846
 40
0.3846153846153846
 40
0.4615384615384616
 40
0.4615384615384616
 40
0.4615384615384616
 40
0.4615384615384616
 40
0.5384615384615384
 40
0.5384615384615384
 40
0.5384615384615384
 40
0.5384615384615384
 40
0.6153846153846154
 40
0.6153846153846154
 40
0.6153846153846154
 40
0.6153846153846154
 40
0.6923076923076923
 40
0.6923076923076923
 40
0.6923076923076923
 40
0.6923076923076923
 40
0.7692307692307693
 40
0.7692307692307693
 40
0.7692307692307693
 40
0.7692307692307693
 40
0.8461538461538461
 40
0.8461538461538461
 40
0.8461538461538461
 40
0.8461538461538461
 40
1.0
 40
1.0
 40
1.0
 40
1.0
 10
1.8724
 20
41.665
 30
0.0
 10
1.8724
 20
41.9849
 30
0.0
 10
1.9052
 20
42.2425
 30
0.0
 10
1.9713
 20
42.4372
 30
0.0
 10
1.9713
 20
42.4372
 30
0.0
 10
2.0368
 20
42.6324
 30
0.0
 10
2.1351
 20
42.783
 30
0.0
 10
2.2648
 20
42.8888
 30
0.0
 10
2.2648
 20
42.8888
 30
0.0
 10
2.3946
 20
42.9946
 30
0.0
 10
2.5577
 20
43.0475
 30
0.0
 10
2.7543
 20
43.0475
 30
0.0
 10
2.7543
 20
43.0475
 30
0.0
 10
2.8997
 20
43.0475
 30
0.0
 10
3.027
 20
43.0179
 30
0.0
 10
3.1366
 20
42.9593
 30
0.0
 10
3.1366
 20
42.9593
 30
0.0
 10
3.2462
 20
42.9014
 30
0.0
 10
3.3362
 20
42.817
 30
0.0
 10
3.4081
 20
42.7068
 30
0.0
 10
3.4081
 20
42.7068
 30
0.0
 10
3.4792
 20
42.5965
 30
0.0
 10
3.5353
 20
42.4624
 30
0.0
 10
3.5756
 20
42.3043
 30
0.0
 10
3.5756
 20
42.3043
 30
0.0
 10
3.6165
 20
42.1462
 30
0.0
 10
3.6367
 20
41.9333
 30
0.0
 10
3.6367
 20
41.665
 30
0.0
 10
3.6367
 20
41.665
 30
0.0
 10
3.6367
 20
41.3475
 30
0.0
 10
3.6039
 20
41.0918
 30
0.0
 10
3.5391
 20
40.8965
 30
0.0
 10
3.5391
 20
40.8965
 30
0.0
 10
3.4736
 20
40.7013
 30
0.0
 10
3.3759
 20
40.5507
 30
0.0
 10
3.2462
 20
40.4443
 30
0.0
 10
3.2462
 20
40.4443
 30
0.0
 10
3.1164
 20
40.3378
 30
0.0
 10
2.9527
 20
40.2849
 30
0.0
 10
2.7543
 20
40.2849
 30
0.0
 10
2.7543
 20
40.2849
 30
0.0
 10
2.4935
 20
40.2849
 30
0.0
 10
2.2888
 20
40.3781
 30
0.0
 10
2.1401
 20
40.5652
 30
0.0
 10
2.1401
 20
40.5652
 30
0.0
 10
1.9619
 20
40.7901
 30
0.0
 10
1.8724
 20
41.1573
 30
0.0
 10
1.8724
 20
41.665
 30
0.0
  0
SPLINE
  5
D7
330
1F
100
AcDbEntity
  8
DEFAULT_1
 62
   250
100
AcDbSpline
210
0.0
220
0.0
230
1.0
 70
    11
 71
     3
 72
    36
 73
    32
 74
     0
 42
0.0000000001
 43
0.0000000001
 40
0.0
 40
0.0
 40
0.0
 40
0.0
 40
0.1111111111111111
 40
0.1111111111111111
 40
0.1111111111111111
 40
0.1111111111111111
 40
0.2222222222222222
 40
0.2222222222222222
 40
0.2222222222222222
 40
0.2222222222222222
 40
0.3333333333333333
 40
0.3333333333333333
 40
0.3333333333333333
 40
0.3333333333333333
 40
0.4444444444444444
 40
0.4444444444444444
 40
0.4444444444444444
 40
0.4444444444444444
 40
0.5555555555555556
 40
0.5555555555555556
 40
0.5555555555555556
 40
0.5555555555555556
 40
0.6666666666666666
 40
0.6666666666666666
 40
0.6666666666666666
 40
0.6666666666666666
 40
0.7777777777777778
 40
0.7777777777777778
 40
0.7777777777777778
 40
0.7777777777777778
 40
1.0
 40
1.0
 40
1.0
 40
1.0
 10
2.2138
 20
41.665
 30
0.0
 10
2.2138
 20
41.2209
 30
0.0
 10
2.2661
 20
40.9255
 30
0.0
 10
2.37
 20
40.7781
 30
0.0
 10
2.37
 20
40.7781
 30
0.0
 10
2.474
 20
40.6313
 30
0.0
 10
2.6018
 20
40.5577
 30
0.0
 10
2.7543
 20
40.5577
 30
0.0
 10
2.7543
 20
40.5577
 30
0.0
 10
2.9073
 20
40.5577
 30
0.0
 10
3.0352
 20
40.632
 30
0.0
 10
3.1391
 20
40.7794
 30
0.0
 10
3.1391
 20
40.7794
 30
0.0
 10
3.243
 20
40.9268
 30
0.0
 10
3.2953
 20
41.2222
 30
0.0
 10
3.2953
 20
41.665
 30
0.0
 10
3.2953
 20
41.665
 30
0.0
 10
3.2953
 20
42.1103
 30
0.0
 10
3.243
 20
42.4063
 30
0.0
 10
3.1391
 20
42.5524
 30
0.0
 10
3.1391
 20
42.5524
 30
0.0
 10
3.0352
 20
42.6992
 30
0.0
 10
2.906
 20
42.7723
 30
0.0
 10
2.7511
 20
42.7723
 30
0.0
 10
2.7511
 20
42.7723
 30
0.0
 10
2.598
 20
42.7723
 30
0.0
 10
2.4765
 20
42.7074
 30
0.0
 10
2.3851
 20
42.5783
 30
0.0
 10
2.3851
 20
42.5783
 30
0.0
 10
2.2711
 20
42.4139
 30
0.0
 10
2.2138
 20
42.109
 30
0.0
 10
2.2138
 20
41.665
 30
0.0
  0
SPLINE
  5
D8
330
1F
100
AcDbEntity
  8
DEFAULT_1
 62
   250
100
AcDbSpline
210
0.0
220
0.0
230
1.0
 70
    11
 71
     3
 72
    40
 73
    36
 74
     0
 42
0.0000000001
 43
0.0000000001
 40
0.0
 40
0.0
 40
0.0
 40
0.0
 40
0.1
 40
0.1
 40
0.1
 40
0.1
 40
0.2
 40
0.2
 40
0.2
 40
0.2
 40
0.3
 40
0.3
 40
0.3
 40
0.3
 40
0.4
 40
0.4
 40
0.4
 40
0.4
 40
0.5
 40
0.5
 40
0.5
 40
0.5
 40
0.6
 40
0.6
 40
0.6
 40
0.6
 40
0.7
 40
0.7
 40
0.7
 40
0.7
 40
0.8
 40
0.8
 40
0.8
 40
0.8
 40
1.0
 40
1.0
 40
1.0
 40
1.0
 10
-12.7549
 20
33.2933
 30
0.0
 10
-12.7549
 20
33.2933
 30
0.0
 10
-13.0869
 20
33.2933
 30
0.0
 10
-13.0869
 20
33.2933
 30
0.0
 10
-13.0869
 20
33.2933
 30
0.0
 10
-13.0869
 20
33.2933
 30
0.0
 10
-13.0869
 20
35.4097
 30
0.0
 10
-13.0869
 20
35.4097
 30
0.0
 10
-13.0869
 20
35.4097
 30
0.0
 10
-13.1669
 20
35.3334
 30
0.0
 10
-13.2714
 20
35.2572
 30
0.0
 10
-13.4012
 20
35.181
 30
0.0
 10
-13.4012
 20
35.181
 30
0.0
 10
-13.5316
 20
35.1048
 30
0.0
 10
-13.6481
 20
35.0475
 30
0.0
 10
-13.7514
 20
35.0097
 30
0.0
 10
-13.7514
 20
35.0097
 30
0.0
 10
-13.7514
 20
35.0097
 30
0.0
 10
-13.7514
 20
35.3303
 30
0.0
 10
-13.7514
 20
35.3303
 30
0.0
 10
-13.7514
 20
35.3303
 30
0.0
 10
-13.5656
 20
35.4178
 30
0.0
 10
-13.4031
 20
35.5237
 30
0.0
 10
-13.2639
 20
35.6477
 30
0.0
 10
-13.2639
 20
35.6477
 30
0.0
 10
-13.1253
 20
35.7725
 30
0.0
 10
-13.0264
 20
35.8928
 30
0.0
 10
-12.9685
 20
36.0099
 30
0.0
 10
-12.9685
 20
36.0099
 30
0.0
 10
-12.9685
 20
36.0099
 30
0.0
 10
-12.7549
 20
36.0099
 30
0.0
 10
-12.7549
 20
36.0099
 30
0.0
 10
-12.7549
 20
36.0099
 30
0.0
 10
-12.7549
 20
36.0099
 30
0.0
 10
-12.7549
 20
33.2933
 30
0.0
 10
-12.7549
 20
33.2933
 30
0.0
  0
SPLINE
  5
D9
330
1F
100
AcDbEntity
  8
DEFAULT_1
 62
   250
100
AcDbSpline
210
0.0
220
0.0
230
1.0
 70
    11
 71
     3
 72
    52
 73
    48
 74
     0
 42
0.0000000001
 43
0.0000000001
 40
0.0
 40
0.0
 40
0.0
 40
0.0
 40
0.0769230769230769
 40
0.0769230769230769
 40
0.0769230769230769
 40
0.0769230769230769
 40
0.1538461538461539
 40
0.1538461538461539
 40
0.1538461538461539
 40
0.1538461538461539
 40
0.2307692307692308
 40
0.2307692307692308
 40
0.2307692307692308
 40
0.2307692307692308
 40
0.3076923076923077
 40
0.3076923076923077
 40
0.3076923076923077
 40
0.3076923076923077
 40
0.3846153846153846
 40
0.3846153846153846
 40
0.3846153846153846
 40
0.3846153846153846
 40
0.4615384615384616
 40
0.4615384615384616
 40
0.4615384615384616
 40
0.4615384615384616
 40
0.5384615384615384
 40
0.5384615384615384
 40
0.5384615384615384
 40
0.5384615384615384
 40
0.6153846153846154
 40
0.6153846153846154
 40
0.6153846153846154
 40
0.6153846153846154
 40
0.6923076923076923
 40
0.6923076923076923
 40
0.6923076923076923
 40
0.6923076923076923
 40
0.7692307692307693
 40
0.7692307692307693
 40
0.7692307692307693
 40
0.7692307692307693
 40
0.8461538461538461
 40
0.8461538461538461
 40
0.8461538461538461
 40
0.8461538461538461
 40
1.0
 40
1.0
 40
1.0
 40
1.0
 10
-11.904
 20
34.6274
 30
0.0
 10
-11.904
 20
34.9473
 30
0.0
 10
-11.8712
 20
35.2049
 30
0.0
 10
-11.8051
 20
35.3996
 30
0.0
 10
-11.8051
 20
35.3996
 30
0.0
 10
-11.7396
 20
35.5948
 30
0.0
 10
-11.6413
 20
35.7454
 30
0.0
 10
-11.5116
 20
35.8512
 30
0.0
 10
-11.5116
 20
35.8512
 30
0.0
 10
-11.3818
 20
35.957
 30
0.0
 10
-11.2187
 20
36.0099
 30
0.0
 10
-11.0221
 20
36.0099
 30
0.0
 10
-11.0221
 20
36.0099
 30
0.0
 10
-10.8767
 20
36.0099
 30
0.0
 10
-10.7494
 20
35.9803
 30
0.0
 10
-10.6398
 20
35.9217
 30
0.0
 10
-10.6398
 20
35.9217
 30
0.0
 10
-10.5302
 20
35.8638
 30
0.0
 10
-10.4402
 20
35.7794
 30
0.0
 10
-10.3683
 20
35.6692
 30
0.0
 10
-10.3683
 20
35.6692
 30
0.0
 10
-10.2972
 20
35.5589
 30
0.0
 10
-10.2411
 20
35.4248
 30
0.0
 10
-10.2008
 20
35.2667
 30
0.0
 10
-10.2008
 20
35.2667
 30
0.0
 10
-10.1599
 20
35.1086
 30
0.0
 10
-10.1397
 20
34.8957
 30
0.0
 10
-10.1397
 20
34.6274
 30
0.0
 10
-10.1397
 20
34.6274
 30
0.0
 10
-10.1397
 20
34.3099
 30
0.0
 10
-10.1725
 20
34.0542
 30
0.0
 10
-10.2373
 20
33.8589
 30
0.0
 10
-10.2373
 20
33.8589
 30
0.0
 10
-10.3028
 20
33.6637
 30
0.0
 10
-10.4005
 20
33.5131
 30
0.0
 10
-10.5302
 20
33.4067
 30
0.0
 10
-10.5302
 20
33.4067
 30
0.0
 10
-10.66
 20
33.3002
 30
0.0
 10
-10.8237
 20
33.2473
 30
0.0
 10
-11.0221
 20
33.2473
 30
0.0
 10
-11.0221
 20
33.2473
 30
0.0
 10
-11.2829
 20
33.2473
 30
0.0
 10
-11.4876
 20
33.3405
 30
0.0
 10
-11.6363
 20
33.5276
 30
0.0
 10
-11.6363
 20
33.5276
 30
0.0
 10
-11.8145
 20
33.7525
 30
0.0
 10
-11.904
 20
34.1197
 30
0.0
 10
-11.904
 20
34.6274
 30
0.0
  0
SPLINE
  5
DA
330
1F
100
AcDbEntity
  8
DEFAULT_1
 62
   250
100
AcDbSpline
210
0.0
220
0.0
230
1.0
 70
    11
 71
     3
 72
    36
 73
    32
 74
     0
 42
0.0000000001
 43
0.0000000001
 40
0.0
 40
0.0
 40
0.0
 40
0.0
 40
0.1111111111111111
 40
0.1111111111111111
 40
0.1111111111111111
 40
0.1111111111111111
 40
0.2222222222222222
 40
0.2222222222222222
 40
0.2222222222222222
 40
0.2222222222222222
 40
0.3333333333333333
 40
0.3333333333333333
 40
0.3333333333333333
 40
0.3333333333333333
 40
0.4444444444444444
 40
0.4444444444444444
 40
0.4444444444444444
 40
0.4444444444444444
 40
0.5555555555555556
 40
0.5555555555555556
 40
0.5555555555555556
 40
0.5555555555555556
 40
0.6666666666666666
 40
0.6666666666666666
 40
0.6666666666666666
 40
0.6666666666666666
 40
0.7777777777777778
 40
0.7777777777777778
 40
0.7777777777777778
 40
0.7777777777777778
 40
1.0
 40
1.0
 40
1.0
 40
1.0
 10
-11.5626
 20
34.6274
 30
0.0
 10
-11.5626
 20
34.1833
 30
0.0
 10
-11.5103
 20
33.8879
 30
0.0
 10
-11.4064
 20
33.7405
 30
0.0
 10
-11.4064
 20
33.7405
 30
0.0
 10
-11.3024
 20
33.5937
 30
0.0
 10
-11.1746
 20
33.5201
 30
0.0
 10
-11.0221
 20
33.5201
 30
0.0
 10
-11.0221
 20
33.5201
 30
0.0
 10
-10.8691
 20
33.5201
 30
0.0
 10
-10.7412
 20
33.5944
 30
0.0
 10
-10.6373
 20
33.7418
 30
0.0
 10
-10.6373
 20
33.7418
 30
0.0
 10
-10.5334
 20
33.8892
 30
0.0
 10
-10.4811
 20
34.1846
 30
0.0
 10
-10.4811
 20
34.6274
 30
0.0
 10
-10.4811
 20
34.6274
 30
0.0
 10
-10.4811
 20
35.0727
 30
0.0
 10
-10.5334
 20
35.3687
 30
0.0
 10
-10.6373
 20
35.5148
 30
0.0
 10
-10.6373
 20
35.5148
 30
0.0
 10
-10.7412
 20
35.6616
 30
0.0
 10
-10.8704
 20
35.7347
 30
0.0
 10
-11.0253
 20
35.7347
 30
0.0
 10
-11.0253
 20
35.7347
 30
0.0
 10
-11.1784
 20
35.7347
 30
0.0
 10
-11.2999
 20
35.6698
 30
0.0
 10
-11.3913
 20
35.5407
 30
0.0
 10
-11.3913
 20
35.5407
 30
0.0
 10
-11.5053
 20
35.3763
 30
0.0
 10
-11.5626
 20
35.0714
 30
0.0
 10
-11.5626
 20
34.6274
 30
0.0
  0
SPLINE
  5
DB
330
1F
100
AcDbEntity
  8
DEFAULT_1
 62
   250
100
AcDbSpline
210
0.0
220
0.0
230
1.0
 70
    11
 71
     3
 72
    92
 73
    88
 74
     0
 42
0.0000000001
 43
0.0000000001
 40
0.0
 40
0.0
 40
0.0
 40
0.0
 40
0.0434782608695652
 40
0.0434782608695652
 40
0.0434782608695652
 40
0.0434782608695652
 40
0.0869565217391304
 40
0.0869565217391304
 40
0.0869565217391304
 40
0.0869565217391304
 40
0.1304347826086956
 40
0.1304347826086956
 40
0.1304347826086956
 40
0.1304347826086956
 40
0.1739130434782609
 40
0.1739130434782609
 40
0.1739130434782609
 40
0.1739130434782609
 40
0.2173913043478261
 40
0.2173913043478261
 40
0.2173913043478261
 40
0.2173913043478261
 40
0.2608695652173913
 40
0.2608695652173913
 40
0.2608695652173913
 40
0.2608695652173913
 40
0.3043478260869565
 40
0.3043478260869565
 40
0.3043478260869565
 40
0.3043478260869565
 40
0.3478260869565217
 40
0.3478260869565217
 40
0.3478260869565217
 40
0.3478260869565217
 40
0.391304347826087
 40
0.391304347826087
 40
0.391304347826087
 40
0.391304347826087
 40
0.4347826086956522
 40
0.4347826086956522
 40
0.4347826086956522
 40
0.4347826086956522
 40
0.4782608695652174
 40
0.4782608695652174
 40
0.4782608695652174
 40
0.4782608695652174
 40
0.5217391304347826
 40
0.5217391304347826
 40
0.5217391304347826
 40
0.5217391304347826
 40
0.5652173913043478
 40
0.5652173913043478
 40
0.5652173913043478
 40
0.5652173913043478
 40
0.6086956521739131
 40
0.6086956521739131
 40
0.6086956521739131
 40
0.6086956521739131
 40
0.6521739130434783
 40
0.6521739130434783
 40
0.6521739130434783
 40
0.6521739130434783
 40
0.6956521739130435
 40
0.6956521739130435
 40
0.6956521739130435
 40
0.6956521739130435
 40
0.7391304347826086
 40
0.7391304347826086
 40
0.7391304347826086
 40
0.7391304347826086
 40
0.782608695652174
 40
0.782608695652174
 40
0.782608695652174
 40
0.782608695652174
 40
0.8260869565217391
 40
0.8260869565217391
 40
0.8260869565217391
 40
0.8260869565217391
 40
0.8695652173913043
 40
0.8695652173913043
 40
0.8695652173913043
 40
0.8695652173913043
 40
0.9130434782608695
 40
0.9130434782608695
 40
0.9130434782608695
 40
0.9130434782608695
 40
1.0
 40
1.0
 40
1.0
 40
1.0
 10
-9.8021
 20
34.0019
 30
0.0
 10
-9.8021
 20
34.0019
 30
0.0
 10
-9.4531
 20
34.0315
 30
0.0
 10
-9.4531
 20
34.0315
 30
0.0
 10
-9.4531
 20
34.0315
 30
0.0
 10
-9.4273
 20
33.8614
 30
0.0
 10
-9.3675
 20
33.7342
 30
0.0
 10
-9.2736
 20
33.6485
 30
0.0
 10
-9.2736
 20
33.6485
 30
0.0
 10
-9.1791
 20
33.5629
 30
0.0
 10
-9.0657
 20
33.5201
 30
0.0
 10
-8.9328
 20
33.5201
 30
0.0
 10
-8.9328
 20
33.5201
 30
0.0
 10
-8.7729
 20
33.5201
 30
0.0
 10
-8.6374
 20
33.5805
 30
0.0
 10
-8.5272
 20
33.7008
 30
0.0
 10
-8.5272
 20
33.7008
 30
0.0
 10
-8.4164
 20
33.8218
 30
0.0
 10
-8.3609
 20
33.9817
 30
0.0
 10
-8.3609
 20
34.1808
 30
0.0
 10
-8.3609
 20
34.1808
 30
0.0
 10
-8.3609
 20
34.3704
 30
0.0
 10
-8.4138
 20
34.5197
 30
0.0
 10
-8.5203
 20
34.6292
 30
0.0
 10
-8.5203
 20
34.6292
 30
0.0
 10
-8.6267
 20
34.7388
 30
0.0
 10
-8.7659
 20
34.7936
 30
0.0
 10
-8.9385
 20
34.7936
 30
0.0
 10
-8.9385
 20
34.7936
 30
0.0
 10
-9.0456
 20
34.7936
 30
0.0
 10
-9.142
 20
34.7691
 30
0.0
 10
-9.2283
 20
34.7206
 30
0.0
 10
-9.2283
 20
34.7206
 30
0.0
 10
-9.3145
 20
34.6721
 30
0.0
 10
-9.3819
 20
34.6091
 30
0.0
 10
-9.4311
 20
34.5316
 30
0.0
 10
-9.4311
 20
34.5316
 30
0.0
 10
-9.4311
 20
34.5316
 30
0.0
 10
-9.7429
 20
34.5719
 30
0.0
 10
-9.7429
 20
34.5719
 30
0.0
 10
-9.7429
 20
34.5719
 30
0.0
 10
-9.7429
 20
34.5719
 30
0.0
 10
-9.4808
 20
35.9614
 30
0.0
 10
-9.4808
 20
35.9614
 30
0.0
 10
-9.4808
 20
35.9614
 30
0.0
 10
-9.4808
 20
35.9614
 30
0.0
 10
-8.1354
 20
35.9614
 30
0.0
 10
-8.1354
 20
35.9614
 30
0.0
 10
-8.1354
 20
35.9614
 30
0.0
 10
-8.1354
 20
35.9614
 30
0.0
 10
-8.1354
 20
35.644
 30
0.0
 10
-8.1354
 20
35.644
 30
0.0
 10
-8.1354
 20
35.644
 30
0.0
 10
-8.1354
 20
35.644
 30
0.0
 10
-9.215
 20
35.644
 30
0.0
 10
-9.215
 20
35.644
 30
0.0
 10
-9.215
 20
35.644
 30
0.0
 10
-9.215
 20
35.644
 30
0.0
 10
-9.3612
 20
34.9171
 30
0.0
 10
-9.3612
 20
34.9171
 30
0.0
 10
-9.3612
 20
34.9171
 30
0.0
 10
-9.1987
 20
35.0305
 30
0.0
 10
-9.028
 20
35.0872
 30
0.0
 10
-8.8497
 20
35.0872
 30
0.0
 10
-8.8497
 20
35.0872
 30
0.0
 10
-8.6135
 20
35.0872
 30
0.0
 10
-8.4145
 20
35.0053
 30
0.0
 10
-8.252
 20
34.8415
 30
0.0
 10
-8.252
 20
34.8415
 30
0.0
 10
-8.0895
 20
34.6777
 30
0.0
 10
-8.0082
 20
34.4674
 30
0.0
 10
-8.0082
 20
34.2104
 30
0.0
 10
-8.0082
 20
34.2104
 30
0.0
 10
-8.0082
 20
33.9654
 30
0.0
 10
-8.08
 20
33.7537
 30
0.0
 10
-8.2224
 20
33.5755
 30
0.0
 10
-8.2224
 20
33.5755
 30
0.0
 10
-8.3962
 20
33.3569
 30
0.0
 10
-8.633
 20
33.2473
 30
0.0
 10
-8.9328
 20
33.2473
 30
0.0
 10
-8.9328
 20
33.2473
 30
0.0
 10
-9.1791
 20
33.2473
 30
0.0
 10
-9.3801
 20
33.316
 30
0.0
 10
-9.5356
 20
33.4539
 30
0.0
 10
-9.5356
 20
33.4539
 30
0.0
 10
-9.6912
 20
33.5919
 30
0.0
 10
-9.78
 20
33.7745
 30
0.0
 10
-9.8021
 20
34.0019
 30
0.0
  0
SPLINE
  5
DC
330
1F
100
AcDbEntity
  8
DEFAULT_1
 62
   250
100
AcDbSpline
210
0.0
220
0.0
230
1.0
 70
    11
 71
     3
 72
    48
 73
    44
 74
     0
 42
0.0000000001
 43
0.0000000001
 40
0.0
 40
0.0
 40
0.0
 40
0.0
 40
0.0833333333333333
 40
0.0833333333333333
 40
0.0833333333333333
 40
0.0833333333333333
 40
0.1666666666666667
 40
0.1666666666666667
 40
0.1666666666666667
 40
0.1666666666666667
 40
0.25
 40
0.25
 40
0.25
 40
0.25
 40
0.3333333333333333
 40
0.3333333333333333
 40
0.3333333333333333
 40
0.3333333333333333
 40
0.4166666666666667
 40
0.4166666666666667
 40
0.4166666666666667
 40
0.4166666666666667
 40
0.5
 40
0.5
 40
0.5
 40
0.5
 40
0.5833333333333334
 40
0.5833333333333334
 40
0.5833333333333334
 40
0.5833333333333334
 40
0.6666666666666666
 40
0.6666666666666666
 40
0.6666666666666666
 40
0.6666666666666666
 40
0.75
 40
0.75
 40
0.75
 40
0.75
 40
0.8333333333333334
 40
0.8333333333333334
 40
0.8333333333333334
 40
0.8333333333333334
 40
1.0
 40
1.0
 40
1.0
 40
1.0
 10
-11.18
 20
24.9894
 30
0.0
 10
-11.18
 20
24.9894
 30
0.0
 10
-11.363
 20
25.6105
 30
0.0
 10
-11.363
 20
25.6105
 30
0.0
 10
-11.363
 20
25.6105
 30
0.0
 10
-11.363
 20
25.6105
 30
0.0
 10
-12.4886
 20
25.2789
 30
0.0
 10
-12.4886
 20
25.2789
 30
0.0
 10
-12.4886
 20
25.2789
 30
0.0
 10
-12.4886
 20
25.2789
 30
0.0
 10
-12.5747
 20
25.5714
 30
0.0
 10
-12.5747
 20
25.5714
 30
0.0
 10
-12.5747
 20
25.5714
 30
0.0
 10
-12.5747
 20
25.5714
 30
0.0
 10
-11.886
 20
27.6017
 30
0.0
 10
-11.886
 20
27.6017
 30
0.0
 10
-11.886
 20
27.6017
 30
0.0
 10
-11.886
 20
27.6017
 30
0.0
 10
-11.6255
 20
27.6784
 30
0.0
 10
-11.6255
 20
27.6784
 30
0.0
 10
-11.6255
 20
27.6784
 30
0.0
 10
-11.6255
 20
27.6784
 30
0.0
 10
-11.1301
 20
25.997
 30
0.0
 10
-11.1301
 20
25.997
 30
0.0
 10
-11.1301
 20
25.997
 30
0.0
 10
-11.1301
 20
25.997
 30
0.0
 10
-10.7797
 20
26.1002
 30
0.0
 10
-10.7797
 20
26.1002
 30
0.0
 10
-10.7797
 20
26.1002
 30
0.0
 10
-10.7797
 20
26.1002
 30
0.0
 10
-10.6936
 20
25.8077
 30
0.0
 10
-10.6936
 20
25.8077
 30
0.0
 10
-10.6936
 20
25.8077
 30
0.0
 10
-10.6936
 20
25.8077
 30
0.0
 10
-11.044
 20
25.7045
 30
0.0
 10
-11.044
 20
25.7045
 30
0.0
 10
-11.044
 20
25.7045
 30
0.0
 10
-11.044
 20
25.7045
 30
0.0
 10
-10.861
 20
25.0834
 30
0.0
 10
-10.861
 20
25.0834
 30
0.0
 10
-10.861
 20
25.0834
 30
0.0
 10
-10.861
 20
25.0834
 30
0.0
 10
-11.18
 20
24.9894
 30
0.0
 10
-11.18
 20
24.9894
 30
0.0
  0
SPLINE
  5
DD
330
1F
100
AcDbEntity
  8
DEFAULT_1
 62
   250
100
AcDbSpline
210
0.0
220
0.0
230
1.0
 70
    11
 71
     3
 72
    16
 73
    12
 74
     0
 42
0.0000000001
 43
0.0000000001
 40
0.0
 40
0.0
 40
0.0
 40
0.0
 40
0.25
 40
0.25
 40
0.25
 40
0.25
 40
0.5
 40
0.5
 40
0.5
 40
0.5
 40
1.0
 40
1.0
 40
1.0
 40
1.0
 10
-11.4492
 20
25.903
 30
0.0
 10
-11.4492
 20
25.903
 30
0.0
 10
-11.7938
 20
27.0727
 30
0.0
 10
-11.7938
 20
27.0727
 30
0.0
 10
-11.7938
 20
27.0727
 30
0.0
 10
-11.7938
 20
27.0727
 30
0.0
 10
-12.2612
 20
25.6637
 30
0.0
 10
-12.2612
 20
25.6637
 30
0.0
 10
-12.2612
 20
25.6637
 30
0.0
 10
-12.2612
 20
25.6637
 30
0.0
 10
-11.4492
 20
25.903
 30
0.0
 10
-11.4492
 20
25.903
 30
0.0
  0
SPLINE
  5
DE
330
1F
100
AcDbEntity
  8
DEFAULT_1
 62
   250
100
AcDbSpline
210
0.0
220
0.0
230
1.0
 70
    11
 71
     3
 72
    52
 73
    48
 74
     0
 42
0.0000000001
 43
0.0000000001
 40
0.0
 40
0.0
 40
0.0
 40
0.0
 40
0.0769230769230769
 40
0.0769230769230769
 40
0.0769230769230769
 40
0.0769230769230769
 40
0.1538461538461539
 40
0.1538461538461539
 40
0.1538461538461539
 40
0.1538461538461539
 40
0.2307692307692308
 40
0.2307692307692308
 40
0.2307692307692308
 40
0.2307692307692308
 40
0.3076923076923077
 40
0.3076923076923077
 40
0.3076923076923077
 40
0.3076923076923077
 40
0.3846153846153846
 40
0.3846153846153846
 40
0.3846153846153846
 40
0.3846153846153846
 40
0.4615384615384616
 40
0.4615384615384616
 40
0.4615384615384616
 40
0.4615384615384616
 40
0.5384615384615384
 40
0.5384615384615384
 40
0.5384615384615384
 40
0.5384615384615384
 40
0.6153846153846154
 40
0.6153846153846154
 40
0.6153846153846154
 40
0.6153846153846154
 40
0.6923076923076923
 40
0.6923076923076923
 40
0.6923076923076923
 40
0.6923076923076923
 40
0.7692307692307693
 40
0.7692307692307693
 40
0.7692307692307693
 40
0.7692307692307693
 40
0.8461538461538461
 40
0.8461538461538461
 40
0.8461538461538461
 40
0.8461538461538461
 40
1.0
 40
1.0
 40
1.0
 40
1.0
 10
-10.5619
 20
26.5623
 30
0.0
 10
-10.6523
 20
26.8691
 30
0.0
 10
-10.6937
 20
27.1255
 30
0.0
 10
-10.6853
 20
27.331
 30
0.0
 10
-10.6853
 20
27.331
 30
0.0
 10
-10.6776
 20
27.5367
 30
0.0
 10
-10.6259
 20
27.709
 30
0.0
 10
-10.5314
 20
27.8471
 30
0.0
 10
-10.5314
 20
27.8471
 30
0.0
 10
-10.4368
 20
27.9853
 30
0.0
 10
-10.2953
 20
28.0821
 30
0.0
 10
-10.1067
 20
28.1377
 30
0.0
 10
-10.1067
 20
28.1377
 30
0.0
 10
-9.9672
 20
28.1788
 30
0.0
 10
-9.8368
 20
28.1863
 30
0.0
 10
-9.7151
 20
28.1611
 30
0.0
 10
-9.7151
 20
28.1611
 30
0.0
 10
-9.5936
 20
28.1365
 30
0.0
 10
-9.4834
 20
28.081
 30
0.0
 10
-9.3833
 20
27.9956
 30
0.0
 10
-9.3833
 20
27.9956
 30
0.0
 10
-9.2839
 20
27.9099
 30
0.0
 10
-9.1922
 20
27.7971
 30
0.0
 10
-9.1088
 20
27.6569
 30
0.0
 10
-9.1088
 20
27.6569
 30
0.0
 10
-9.0249
 20
27.5168
 30
0.0
 10
-8.9454
 20
27.3183
 30
0.0
 10
-8.8696
 20
27.0609
 30
0.0
 10
-8.8696
 20
27.0609
 30
0.0
 10
-8.7798
 20
26.7563
 30
0.0
 10
-8.739
 20
26.5018
 30
0.0
 10
-8.746
 20
26.2961
 30
0.0
 10
-8.746
 20
26.2961
 30
0.0
 10
-8.7537
 20
26.0904
 30
0.0
 10
-8.8048
 20
25.9183
 30
0.0
 10
-8.8992
 20
25.7796
 30
0.0
 10
-8.8992
 20
25.7796
 30
0.0
 10
-8.9936
 20
25.6408
 30
0.0
 10
-9.1356
 20
25.5438
 30
0.0
 10
-9.326
 20
25.4877
 30
0.0
 10
-9.326
 20
25.4877
 30
0.0
 10
-9.5761
 20
25.414
 30
0.0
 10
-9.7988
 20
25.4455
 30
0.0
 10
-9.9943
 20
25.583
 30
0.0
 10
-9.9943
 20
25.583
 30
0.0
 10
-10.2288
 20
25.7483
 30
0.0
 10
-10.4185
 20
26.0753
 30
0.0
 10
-10.5619
 20
26.5623
 30
0.0
  0
SPLINE
  5
DF
330
1F
100
AcDbEntity
  8
DEFAULT_1
 62
   250
100
AcDbSpline
210
0.0
220
0.0
230
1.0
 70
    11
 71
     3
 72
    36
 73
    32
 74
     0
 42
0.0000000001
 43
0.0000000001
 40
0.0
 40
0.0
 40
0.0
 40
0.0
 40
0.1111111111111111
 40
0.1111111111111111
 40
0.1111111111111111
 40
0.1111111111111111
 40
0.2222222222222222
 40
0.2222222222222222
 40
0.2222222222222222
 40
0.2222222222222222
 40
0.3333333333333333
 40
0.3333333333333333
 40
0.3333333333333333
 40
0.3333333333333333
 40
0.4444444444444444
 40
0.4444444444444444
 40
0.4444444444444444
 40
0.4444444444444444
 40
0.5555555555555556
 40
0.5555555555555556
 40
0.5555555555555556
 40
0.5555555555555556
 40
0.6666666666666666
 40
0.6666666666666666
 40
0.6666666666666666
 40
0.6666666666666666
 40
0.7777777777777778
 40
0.7777777777777778
 40
0.7777777777777778
 40
0.7777777777777778
 40
1.0
 40
1.0
 40
1.0
 40
1.0
 10
-10.2345
 20
26.6588
 30
0.0
 10
-10.1089
 20
26.2328
 30
0.0
 10
-9.9753
 20
25.9642
 30
0.0
 10
-9.834
 20
25.8522
 30
0.0
 10
-9.834
 20
25.8522
 30
0.0
 10
-9.6927
 20
25.7407
 30
0.0
 10
-9.5493
 20
25.7063
 30
0.0
 10
-9.4031
 20
25.7494
 30
0.0
 10
-9.4031
 20
25.7494
 30
0.0
 10
-9.2563
 20
25.7926
 30
0.0
 10
-9.1546
 20
25.9
 30
0.0
 10
-9.0966
 20
26.0708
 30
0.0
 10
-9.0966
 20
26.0708
 30
0.0
 10
-9.0386
 20
26.2415
 30
0.0
 10
-9.0719
 20
26.5397
 30
0.0
 10
-9.197
 20
26.9644
 30
0.0
 10
-9.197
 20
26.9644
 30
0.0
 10
-9.3229
 20
27.3916
 30
0.0
 10
-9.4567
 20
27.6607
 30
0.0
 10
-9.5977
 20
27.7715
 30
0.0
 10
-9.5977
 20
27.7715
 30
0.0
 10
-9.7388
 20
27.8829
 30
0.0
 10
-9.8834
 20
27.9166
 30
0.0
 10
-10.032
 20
27.8728
 30
0.0
 10
-10.032
 20
27.8728
 30
0.0
 10
-10.1789
 20
27.8295
 30
0.0
 10
-10.2771
 20
27.7329
 30
0.0
 10
-10.3282
 20
27.5833
 30
0.0
 10
-10.3282
 20
27.5833
 30
0.0
 10
-10.3911
 20
27.3933
 30
0.0
 10
-10.3599
 20
27.0847
 30
0.0
 10
-10.2345
 20
26.6588
 30
0.0
  0
SPLINE
  5
E0
330
1F
100
AcDbEntity
  8
DEFAULT_1
 62
   250
100
AcDbSpline
210
0.0
220
0.0
230
1.0
 70
    11
 71
     3
 72
    36
 73
    32
 74
     0
 42
0.0000000001
 43
0.0000000001
 40
0.0
 40
0.0
 40
0.0
 40
0.0
 40
0.1111111111111111
 40
0.1111111111111111
 40
0.1111111111111111
 40
0.1111111111111111
 40
0.2222222222222222
 40
0.2222222222222222
 40
0.2222222222222222
 40
0.2222222222222222
 40
0.3333333333333333
 40
0.3333333333333333
 40
0.3333333333333333
 40
0.3333333333333333
 40
0.4444444444444444
 40
0.4444444444444444
 40
0.4444444444444444
 40
0.4444444444444444
 40
0.5555555555555556
 40
0.5555555555555556
 40
0.5555555555555556
 40
0.5555555555555556
 40
0.6666666666666666
 40
0.6666666666666666
 40
0.6666666666666666
 40
0.6666666666666666
 40
0.7777777777777778
 40
0.7777777777777778
 40
0.7777777777777778
 40
0.7777777777777778
 40
1.0
 40
1.0
 40
1.0
 40
1.0
 10
-8.7257
 20
28.0481
 30
0.0
 10
-8.7656
 20
28.1835
 30
0.0
 10
-8.7514
 20
28.3138
 30
0.0
 10
-8.6835
 20
28.4375
 30
0.0
 10
-8.6835
 20
28.4375
 30
0.0
 10
-8.6155
 20
28.5613
 30
0.0
 10
-8.5142
 20
28.643
 30
0.0
 10
-8.3794
 20
28.6827
 30
0.0
 10
-8.3794
 20
28.6827
 30
0.0
 10
-8.2429
 20
28.7229
 30
0.0
 10
-8.1129
 20
28.7093
 30
0.0
 10
-7.9887
 20
28.6422
 30
0.0
 10
-7.9887
 20
28.6422
 30
0.0
 10
-7.8651
 20
28.5749
 30
0.0
 10
-7.7831
 20
28.4729
 30
0.0
 10
-7.7432
 20
28.3376
 30
0.0
 10
-7.7432
 20
28.3376
 30
0.0
 10
-7.7032
 20
28.2016
 30
0.0
 10
-7.7174
 20
28.0714
 30
0.0
 10
-7.7852
 20
27.947
 30
0.0
 10
-7.7852
 20
27.947
 30
0.0
 10
-7.8529
 20
27.8227
 30
0.0
 10
-7.9547
 20
27.7401
 30
0.0
 10
-8.09
 20
27.7003
 30
0.0
 10
-8.09
 20
27.7003
 30
0.0
 10
-8.2248
 20
27.6606
 30
0.0
 10
-8.3542
 20
27.6743
 30
0.0
 10
-8.4785
 20
27.7415
 30
0.0
 10
-8.4785
 20
27.7415
 30
0.0
 10
-8.6028
 20
27.8092
 30
0.0
 10
-8.6853
 20
27.911
 30
0.0
 10
-8.7257
 20
28.0481
 30
0.0
  0
SPLINE
  5
E1
330
1F
100
AcDbEntity
  8
DEFAULT_1
 62
   250
100
AcDbSpline
210
0.0
220
0.0
230
1.0
 70
    11
 71
     3
 72
    36
 73
    32
 74
     0
 42
0.0000000001
 43
0.0000000001
 40
0.0
 40
0.0
 40
0.0
 40
0.0
 40
0.1111111111111111
 40
0.1111111111111111
 40
0.1111111111111111
 40
0.1111111111111111
 40
0.2222222222222222
 40
0.2222222222222222
 40
0.2222222222222222
 40
0.2222222222222222
 40
0.3333333333333333
 40
0.3333333333333333
 40
0.3333333333333333
 40
0.3333333333333333
 40
0.4444444444444444
 40
0.4444444444444444
 40
0.4444444444444444
 40
0.4444444444444444
 40
0.5555555555555556
 40
0.5555555555555556
 40
0.5555555555555556
 40
0.5555555555555556
 40
0.6666666666666666
 40
0.6666666666666666
 40
0.6666666666666666
 40
0.6666666666666666
 40
0.7777777777777778
 40
0.7777777777777778
 40
0.7777777777777778
 40
0.7777777777777778
 40
1.0
 40
1.0
 40
1.0
 40
1.0
 10
-8.533
 20
28.1049
 30
0.0
 10
-8.5086
 20
28.0221
 30
0.0
 10
-8.4581
 20
27.9601
 30
0.0
 10
-8.383
 20
27.9193
 30
0.0
 10
-8.383
 20
27.9193
 30
0.0
 10
-8.3071
 20
27.878
 30
0.0
 10
-8.228
 20
27.8698
 30
0.0
 10
-8.1458
 20
27.894
 30
0.0
 10
-8.1458
 20
27.894
 30
0.0
 10
-8.0643
 20
27.918
 30
0.0
 10
-8.0027
 20
27.9677
 30
0.0
 10
-7.9613
 20
28.0435
 30
0.0
 10
-7.9613
 20
28.0435
 30
0.0
 10
-7.9204
 20
28.1186
 30
0.0
 10
-7.9117
 20
28.198
 30
0.0
 10
-7.9361
 20
28.2807
 30
0.0
 10
-7.9361
 20
28.2807
 30
0.0
 10
-7.9603
 20
28.363
 30
0.0
 10
-8.0106
 20
28.4249
 30
0.0
 10
-8.0859
 20
28.4665
 30
0.0
 10
-8.0859
 20
28.4665
 30
0.0
 10
-8.1617
 20
28.5072
 30
0.0
 10
-8.2405
 20
28.5161
 30
0.0
 10
-8.322
 20
28.4921
 30
0.0
 10
-8.322
 20
28.4921
 30
0.0
 10
-8.4042
 20
28.4679
 30
0.0
 10
-8.4661
 20
28.4175
 30
0.0
 10
-8.5076
 20
28.3422
 30
0.0
 10
-8.5076
 20
28.3422
 30
0.0
 10
-8.5484
 20
28.2665
 30
0.0
 10
-8.5572
 20
28.1871
 30
0.0
 10
-8.533
 20
28.1049
 30
0.0
  0
SPLINE
  5
E2
330
1F
100
AcDbEntity
  8
DEFAULT_1
 62
   250
100
AcDbSpline
210
0.0
220
0.0
230
1.0
 70
    11
 71
     3
 72
    48
 73
    44
 74
     0
 42
0.0000000001
 43
0.0000000001
 40
0.0
 40
0.0
 40
0.0
 40
0.0
 40
0.0833333333333333
 40
0.0833333333333333
 40
0.0833333333333333
 40
0.0833333333333333
 40
0.1666666666666667
 40
0.1666666666666667
 40
0.1666666666666667
 40
0.1666666666666667
 40
0.25
 40
0.25
 40
0.25
 40
0.25
 40
0.3333333333333333
 40
0.3333333333333333
 40
0.3333333333333333
 40
0.3333333333333333
 40
0.4166666666666667
 40
0.4166666666666667
 40
0.4166666666666667
 40
0.4166666666666667
 40
0.5
 40
0.5
 40
0.5
 40
0.5
 40
0.5833333333333334
 40
0.5833333333333334
 40
0.5833333333333334
 40
0.5833333333333334
 40
0.6666666666666666
 40
0.6666666666666666
 40
0.6666666666666666
 40
0.6666666666666666
 40
0.75
 40
0.75
 40
0.75
 40
0.75
 40
0.8333333333333334
 40
0.8333333333333334
 40
0.8333333333333334
 40
0.8333333333333334
 40
1.0
 40
1.0
 40
1.0
 40
1.0
 10
6.0235
 20
26.3295
 30
0.0
 10
6.0235
 20
26.3295
 30
0.0
 10
6.1669
 20
26.9609
 30
0.0
 10
6.1669
 20
26.9609
 30
0.0
 10
6.1669
 20
26.9609
 30
0.0
 10
6.1669
 20
26.9609
 30
0.0
 10
5.0226
 20
27.2206
 30
0.0
 10
5.0226
 20
27.2206
 30
0.0
 10
5.0226
 20
27.2206
 30
0.0
 10
5.0226
 20
27.2206
 30
0.0
 10
5.0901
 20
27.518
 30
0.0
 10
5.0901
 20
27.518
 30
0.0
 10
5.0901
 20
27.518
 30
0.0
 10
5.0901
 20
27.518
 30
0.0
 10
6.6819
 20
28.9541
 30
0.0
 10
6.6819
 20
28.9541
 30
0.0
 10
6.6819
 20
28.9541
 30
0.0
 10
6.6819
 20
28.9541
 30
0.0
 10
6.9467
 20
28.8941
 30
0.0
 10
6.9467
 20
28.8941
 30
0.0
 10
6.9467
 20
28.8941
 30
0.0
 10
6.9467
 20
28.8941
 30
0.0
 10
6.5587
 20
27.1846
 30
0.0
 10
6.5587
 20
27.1846
 30
0.0
 10
6.5587
 20
27.1846
 30
0.0
 10
6.5587
 20
27.1846
 30
0.0
 10
6.9149
 20
27.1038
 30
0.0
 10
6.9149
 20
27.1038
 30
0.0
 10
6.9149
 20
27.1038
 30
0.0
 10
6.9149
 20
27.1038
 30
0.0
 10
6.8475
 20
26.8064
 30
0.0
 10
6.8475
 20
26.8064
 30
0.0
 10
6.8475
 20
26.8064
 30
0.0
 10
6.8475
 20
26.8064
 30
0.0
 10
6.4912
 20
26.8873
 30
0.0
 10
6.4912
 20
26.8873
 30
0.0
 10
6.4912
 20
26.8873
 30
0.0
 10
6.4912
 20
26.8873
 30
0.0
 10
6.3479
 20
26.2559
 30
0.0
 10
6.3479
 20
26.2559
 30
0.0
 10
6.3479
 20
26.2559
 30
0.0
 10
6.3479
 20
26.2559
 30
0.0
 10
6.0235
 20
26.3295
 30
0.0
 10
6.0235
 20
26.3295
 30
0.0
  0
SPLINE
  5
E3
330
1F
100
AcDbEntity
  8
DEFAULT_1
 62
   250
100
AcDbSpline
210
0.0
220
0.0
230
1.0
 70
    11
 71
     3
 72
    16
 73
    12
 74
     0
 42
0.0000000001
 43
0.0000000001
 40
0.0
 40
0.0
 40
0.0
 40
0.0
 40
0.25
 40
0.25
 40
0.25
 40
0.25
 40
0.5
 40
0.5
 40
0.5
 40
0.5
 40
1.0
 40
1.0
 40
1.0
 40
1.0
 10
6.2344
 20
27.2583
 30
0.0
 10
6.2344
 20
27.2583
 30
0.0
 10
6.5043
 20
28.4474
 30
0.0
 10
6.5043
 20
28.4474
 30
0.0
 10
6.5043
 20
28.4474
 30
0.0
 10
6.5043
 20
28.4474
 30
0.0
 10
5.4089
 20
27.4456
 30
0.0
 10
5.4089
 20
27.4456
 30
0.0
 10
5.4089
 20
27.4456
 30
0.0
 10
5.4089
 20
27.4456
 30
0.0
 10
6.2344
 20
27.2583
 30
0.0
 10
6.2344
 20
27.2583
 30
0.0
  0
SPLINE
  5
E4
330
1F
100
AcDbEntity
  8
DEFAULT_1
 62
   250
100
AcDbSpline
210
0.0
220
0.0
230
1.0
 70
    11
 71
     3
 72
    52
 73
    48
 74
     0
 42
0.0000000001
 43
0.0000000001
 40
0.0
 40
0.0
 40
0.0
 40
0.0
 40
0.0769230769230769
 40
0.0769230769230769
 40
0.0769230769230769
 40
0.0769230769230769
 40
0.1538461538461539
 40
0.1538461538461539
 40
0.1538461538461539
 40
0.1538461538461539
 40
0.2307692307692308
 40
0.2307692307692308
 40
0.2307692307692308
 40
0.2307692307692308
 40
0.3076923076923077
 40
0.3076923076923077
 40
0.3076923076923077
 40
0.3076923076923077
 40
0.3846153846153846
 40
0.3846153846153846
 40
0.3846153846153846
 40
0.3846153846153846
 40
0.4615384615384616
 40
0.4615384615384616
 40
0.4615384615384616
 40
0.4615384615384616
 40
0.5384615384615384
 40
0.5384615384615384
 40
0.5384615384615384
 40
0.5384615384615384
 40
0.6153846153846154
 40
0.6153846153846154
 40
0.6153846153846154
 40
0.6153846153846154
 40
0.6923076923076923
 40
0.6923076923076923
 40
0.6923076923076923
 40
0.6923076923076923
 40
0.7692307692307693
 40
0.7692307692307693
 40
0.7692307692307693
 40
0.7692307692307693
 40
0.8461538461538461
 40
0.8461538461538461
 40
0.8461538461538461
 40
0.8461538461538461
 40
1.0
 40
1.0
 40
1.0
 40
1.0
 10
7.3305
 20
27.4009
 30
0.0
 10
7.4013
 20
27.7128
 30
0.0
 10
7.4903
 20
27.9568
 30
0.0
 10
7.5979
 20
28.132
 30
0.0
 10
7.5979
 20
28.132
 30
0.0
 10
7.705
 20
28.3079
 30
0.0
 10
7.8342
 20
28.433
 30
0.0
 10
7.9841
 20
28.5074
 30
0.0
 10
7.9841
 20
28.5074
 30
0.0
 10
8.1341
 20
28.5819
 30
0.0
 10
8.3048
 20
28.5974
 30
0.0
 10
8.4966
 20
28.5539
 30
0.0
 10
8.4966
 20
28.5539
 30
0.0
 10
8.6383
 20
28.5217
 30
0.0
 10
8.7559
 20
28.4646
 30
0.0
 10
8.8498
 20
28.3832
 30
0.0
 10
8.8498
 20
28.3832
 30
0.0
 10
8.9439
 20
28.3025
 30
0.0
 10
9.013
 20
28.2003
 30
0.0
 10
9.0587
 20
28.0769
 30
0.0
 10
9.0587
 20
28.0769
 30
0.0
 10
9.1036
 20
27.9536
 30
0.0
 10
9.1287
 20
27.8104
 30
0.0
 10
9.133
 20
27.6473
 30
0.0
 10
9.133
 20
27.6473
 30
0.0
 10
9.1379
 20
27.4841
 30
0.0
 10
9.1104
 20
27.272
 30
0.0
 10
9.0511
 20
27.0103
 30
0.0
 10
9.0511
 20
27.0103
 30
0.0
 10
8.9808
 20
26.7007
 30
0.0
 10
8.8922
 20
26.4586
 30
0.0
 10
8.7858
 20
26.2825
 30
0.0
 10
8.7858
 20
26.2825
 30
0.0
 10
8.6787
 20
26.1066
 30
0.0
 10
8.5501
 20
25.9814
 30
0.0
 10
8.4
 20
25.9064
 30
0.0
 10
8.4
 20
25.9064
 30
0.0
 10
8.2499
 20
25.8312
 30
0.0
 10
8.0785
 20
25.8159
 30
0.0
 10
7.8851
 20
25.8598
 30
0.0
 10
7.8851
 20
25.8598
 30
0.0
 10
7.6307
 20
25.9175
 30
0.0
 10
7.4517
 20
26.0537
 30
0.0
 10
7.3481
 20
26.2691
 30
0.0
 10
7.3481
 20
26.2691
 30
0.0
 10
7.2241
 20
26.5279
 30
0.0
 10
7.2181
 20
26.9058
 30
0.0
 10
7.3305
 20
27.4009
 30
0.0
  0
SPLINE
  5
E5
330
1F
100
AcDbEntity
  8
DEFAULT_1
 62
   250
100
AcDbSpline
210
0.0
220
0.0
230
1.0
 70
    11
 71
     3
 72
    36
 73
    32
 74
     0
 42
0.0000000001
 43
0.0000000001
 40
0.0
 40
0.0
 40
0.0
 40
0.0
 40
0.1111111111111111
 40
0.1111111111111111
 40
0.1111111111111111
 40
0.1111111111111111
 40
0.2222222222222222
 40
0.2222222222222222
 40
0.2222222222222222
 40
0.2222222222222222
 40
0.3333333333333333
 40
0.3333333333333333
 40
0.3333333333333333
 40
0.3333333333333333
 40
0.4444444444444444
 40
0.4444444444444444
 40
0.4444444444444444
 40
0.4444444444444444
 40
0.5555555555555556
 40
0.5555555555555556
 40
0.5555555555555556
 40
0.5555555555555556
 40
0.6666666666666666
 40
0.6666666666666666
 40
0.6666666666666666
 40
0.6666666666666666
 40
0.7777777777777778
 40
0.7777777777777778
 40
0.7777777777777778
 40
0.7777777777777778
 40
1.0
 40
1.0
 40
1.0
 40
1.0
 10
7.6634
 20
27.3253
 30
0.0
 10
7.5651
 20
26.8922
 30
0.0
 10
7.5508
 20
26.5926
 30
0.0
 10
7.6195
 20
26.4258
 30
0.0
 10
7.6195
 20
26.4258
 30
0.0
 10
7.6884
 20
26.2596
 30
0.0
 10
7.7967
 20
26.1596
 30
0.0
 10
7.9454
 20
26.1258
 30
0.0
 10
7.9454
 20
26.1258
 30
0.0
 10
8.0946
 20
26.092
 30
0.0
 10
8.2358
 20
26.1361
 30
0.0
 10
8.3698
 20
26.2568
 30
0.0
 10
8.3698
 20
26.2568
 30
0.0
 10
8.5037
 20
26.3776
 30
0.0
 10
8.6201
 20
26.6541
 30
0.0
 10
8.7181
 20
27.0859
 30
0.0
 10
8.7181
 20
27.0859
 30
0.0
 10
8.8167
 20
27.5202
 30
0.0
 10
8.8312
 20
27.8204
 30
0.0
 10
8.7622
 20
27.9859
 30
0.0
 10
8.7622
 20
27.9859
 30
0.0
 10
8.6934
 20
28.152
 30
0.0
 10
8.5836
 20
28.2519
 30
0.0
 10
8.4325
 20
28.2862
 30
0.0
 10
8.4325
 20
28.2862
 30
0.0
 10
8.2832
 20
28.3201
 30
0.0
 10
8.1504
 20
28.2837
 30
0.0
 10
8.0327
 20
28.178
 30
0.0
 10
8.0327
 20
28.178
 30
0.0
 10
7.8851
 20
28.0429
 30
0.0
 10
7.7617
 20
27.7583
 30
0.0
 10
7.6634
 20
27.3253
 30
0.0
  0
SPLINE
  5
E6
330
1F
100
AcDbEntity
  8
DEFAULT_1
 62
   250
100
AcDbSpline
210
0.0
220
0.0
230
1.0
 70
    11
 71
     3
 72
    36
 73
    32
 74
     0
 42
0.0000000001
 43
0.0000000001
 40
0.0
 40
0.0
 40
0.0
 40
0.0
 40
0.1111111111111111
 40
0.1111111111111111
 40
0.1111111111111111
 40
0.1111111111111111
 40
0.2222222222222222
 40
0.2222222222222222
 40
0.2222222222222222
 40
0.2222222222222222
 40
0.3333333333333333
 40
0.3333333333333333
 40
0.3333333333333333
 40
0.3333333333333333
 40
0.4444444444444444
 40
0.4444444444444444
 40
0.4444444444444444
 40
0.4444444444444444
 40
0.5555555555555556
 40
0.5555555555555556
 40
0.5555555555555556
 40
0.5555555555555556
 40
0.6666666666666666
 40
0.6666666666666666
 40
0.6666666666666666
 40
0.6666666666666666
 40
0.7777777777777778
 40
0.7777777777777778
 40
0.7777777777777778
 40
0.7777777777777778
 40
1.0
 40
1.0
 40
1.0
 40
1.0
 10
9.6583
 20
27.8019
 30
0.0
 10
9.6895
 20
27.9395
 30
0.0
 10
9.7655
 20
28.0463
 30
0.0
 10
9.8851
 20
28.1212
 30
0.0
 10
9.8851
 20
28.1212
 30
0.0
 10
10.0049
 20
28.196
 30
0.0
 10
10.1332
 20
28.218
 30
0.0
 10
10.2702
 20
28.1869
 30
0.0
 10
10.2702
 20
28.1869
 30
0.0
 10
10.409
 20
28.1554
 30
0.0
 10
10.5159
 20
28.08
 30
0.0
 10
10.5916
 20
27.9608
 30
0.0
 10
10.5916
 20
27.9608
 30
0.0
 10
10.6666
 20
27.8418
 30
0.0
 10
10.6883
 20
27.7127
 30
0.0
 10
10.6571
 20
27.5751
 30
0.0
 10
10.6571
 20
27.5751
 30
0.0
 10
10.6257
 20
27.437
 30
0.0
 10
10.5498
 20
27.3302
 30
0.0
 10
10.4299
 20
27.2547
 30
0.0
 10
10.4299
 20
27.2547
 30
0.0
 10
10.3102
 20
27.1792
 30
0.0
 10
10.181
 20
27.1569
 30
0.0
 10
10.0435
 20
27.1881
 30
0.0
 10
10.0435
 20
27.1881
 30
0.0
 10
9.9065
 20
27.2192
 30
0.0
 10
9.8002
 20
27.2944
 30
0.0
 10
9.7245
 20
27.4136
 30
0.0
 10
9.7245
 20
27.4136
 30
0.0
 10
9.6491
 20
27.5333
 30
0.0
 10
9.6267
 20
27.6625
 30
0.0
 10
9.6583
 20
27.8019
 30
0.0
  0
SPLINE
  5
E7
330
1F
100
AcDbEntity
  8
DEFAULT_1
 62
   250
100
AcDbSpline
210
0.0
220
0.0
230
1.0
 70
    11
 71
     3
 72
    36
 73
    32
 74
     0
 42
0.0000000001
 43
0.0000000001
 40
0.0
 40
0.0
 40
0.0
 40
0.0
 40
0.1111111111111111
 40
0.1111111111111111
 40
0.1111111111111111
 40
0.1111111111111111
 40
0.2222222222222222
 40
0.2222222222222222
 40
0.2222222222222222
 40
0.2222222222222222
 40
0.3333333333333333
 40
0.3333333333333333
 40
0.3333333333333333
 40
0.3333333333333333
 40
0.4444444444444444
 40
0.4444444444444444
 40
0.4444444444444444
 40
0.4444444444444444
 40
0.5555555555555556
 40
0.5555555555555556
 40
0.5555555555555556
 40
0.5555555555555556
 40
0.6666666666666666
 40
0.6666666666666666
 40
0.6666666666666666
 40
0.6666666666666666
 40
0.7777777777777778
 40
0.7777777777777778
 40
0.7777777777777778
 40
0.7777777777777778
 40
1.0
 40
1.0
 40
1.0
 40
1.0
 10
9.8542
 20
27.7574
 30
0.0
 10
9.8351
 20
27.6732
 30
0.0
 10
9.849
 20
27.5945
 30
0.0
 10
9.8946
 20
27.5222
 30
0.0
 10
9.8946
 20
27.5222
 30
0.0
 10
9.9406
 20
27.4491
 30
0.0
 10
10.0057
 20
27.4034
 30
0.0
 10
10.0893
 20
27.3844
 30
0.0
 10
10.0893
 20
27.3844
 30
0.0
 10
10.1722
 20
27.3656
 30
0.0
 10
10.2502
 20
27.3789
 30
0.0
 10
10.3233
 20
27.4249
 30
0.0
 10
10.3233
 20
27.4249
 30
0.0
 10
10.3956
 20
27.4704
 30
0.0
 10
10.442
 20
27.5355
 30
0.0
 10
10.4611
 20
27.6196
 30
0.0
 10
10.4611
 20
27.6196
 30
0.0
 10
10.4801
 20
27.7032
 30
0.0
 10
10.4663
 20
27.7819
 30
0.0
 10
10.4209
 20
27.8549
 30
0.0
 10
10.4209
 20
27.8549
 30
0.0
 10
10.3747
 20
27.9274
 30
0.0
 10
10.3102
 20
27.9736
 30
0.0
 10
10.2273
 20
27.9924
 30
0.0
 10
10.2273
 20
27.9924
 30
0.0
 10
10.1437
 20
28.0114
 30
0.0
 10
10.0651
 20
27.9977
 30
0.0
 10
9.9922
 20
27.9522
 30
0.0
 10
9.9922
 20
27.9522
 30
0.0
 10
9.9197
 20
27.906
 30
0.0
 10
9.8732
 20
27.841
 30
0.0
 10
9.8542
 20
27.7574
 30
0.0
  0
SPLINE
  5
E8
330
1F
100
AcDbEntity
  8
DEFAULT_1
 62
   250
100
AcDbSpline
210
0.0
220
0.0
230
1.0
 70
    11
 71
     3
 72
    20
 73
    16
 74
     0
 42
0.0000000001
 43
0.0000000001
 40
0.0
 40
0.0
 40
0.0
 40
0.0
 40
0.2
 40
0.2
 40
0.2
 40
0.2
 40
0.4
 40
0.4
 40
0.4
 40
0.4
 40
0.6
 40
0.6
 40
0.6
 40
0.6
 40
1.0
 40
1.0
 40
1.0
 40
1.0
 10
18.258
 20
40.2203
 30
0.0
 10
18.258
 20
40.2203
 30
0.0
 10
22.3585
 20
39.6416
 30
0.0
 10
22.3585
 20
39.6416
 30
0.0
 10
22.3585
 20
39.6416
 30
0.0
 10
22.3585
 20
39.6416
 30
0.0
 10
22.3585
 20
39.5131
 30
0.0
 10
22.3585
 20
39.5131
 30
0.0
 10
22.3585
 20
39.5131
 30
0.0
 10
22.3585
 20
39.5131
 30
0.0
 10
18.258
 20
38.8959
 30
0.0
 10
18.258
 20
38.8959
 30
0.0
 10
18.258
 20
38.8959
 30
0.0
 10
18.258
 20
38.8959
 30
0.0
 10
18.258
 20
40.2203
 30
0.0
 10
18.258
 20
40.2203
 30
0.0
  0
SPLINE
  5
E9
330
1F
100
AcDbEntity
  8
DEFAULT_1
 62
   250
100
AcDbSpline
210
0.0
220
0.0
230
1.0
 70
    11
 71
     3
 72
    20
 73
    16
 74
     0
 42
0.0000000001
 43
0.0000000001
 40
0.0
 40
0.0
 40
0.0
 40
0.0
 40
0.2
 40
0.2
 40
0.2
 40
0.2
 40
0.4
 40
0.4
 40
0.4
 40
0.4
 40
0.6
 40
0.6
 40
0.6
 40
0.6
 40
1.0
 40
1.0
 40
1.0
 40
1.0
 10
-17.9244
 20
38.8627
 30
0.0
 10
-17.9244
 20
38.8627
 30
0.0
 10
-22.0248
 20
39.4414
 30
0.0
 10
-22.0248
 20
39.4414
 30
0.0
 10
-22.0248
 20
39.4414
 30
0.0
 10
-22.0248
 20
39.4414
 30
0.0
 10
-22.0248
 20
39.5699
 30
0.0
 10
-22.0248
 20
39.5699
 30
0.0
 10
-22.0248
 20
39.5699
 30
0.0
 10
-22.0248
 20
39.5699
 30
0.0
 10
-17.9244
 20
40.1871
 30
0.0
 10
-17.9244
 20
40.1871
 30
0.0
 10
-17.9244
 20
40.1871
 30
0.0
 10
-17.9244
 20
40.1871
 30
0.0
 10
-17.9244
 20
38.8627
 30
0.0
 10
-17.9244
 20
38.8627
 30
0.0
  0
SPLINE
  5
EA
330
1F
100
AcDbEntity
  8
DEFAULT_1
 62
   250
100
AcDbSpline
210
0.0
220
0.0
230
1.0
 70
    11
 71
     3
 72
    20
 73
    16
 74
     0
 42
0.0000000001
 43
0.0000000001
 40
0.0
 40
0.0
 40
0.0
 40
0.0
 40
0.2
 40
0.2
 40
0.2
 40
0.2
 40
0.4
 40
0.4
 40
0.4
 40
0.4
 40
0.6
 40
0.6
 40
0.6
 40
0.6
 40
1.0
 40
1.0
 40
1.0
 40
1.0
 10
-4.1834
 20
33.1833
 30
0.0
 10
-4.1834
 20
33.1833
 30
0.0
 10
-0.083
 20
32.6047
 30
0.0
 10
-0.083
 20
32.6047
 30
0.0
 10
-0.083
 20
32.6047
 30
0.0
 10
-0.083
 20
32.6047
 30
0.0
 10
-0.083
 20
32.4761
 30
0.0
 10
-0.083
 20
32.4761
 30
0.0
 10
-0.083
 20
32.4761
 30
0.0
 10
-0.083
 20
32.4761
 30
0.0
 10
-4.1834
 20
31.859
 30
0.0
 10
-4.1834
 20
31.859
 30
0.0
 10
-4.1834
 20
31.859
 30
0.0
 10
-4.1834
 20
31.859
 30
0.0
 10
-4.1834
 20
33.1833
 30
0.0
 10
-4.1834
 20
33.1833
 30
0.0
  0
SPLINE
  5
EB
330
1F
100
AcDbEntity
  8
DEFAULT_1
 62
   250
100
AcDbSpline
210
0.0
220
0.0
230
1.0
 70
    11
 71
     3
 72
    20
 73
    16
 74
     0
 42
0.0000000001
 43
0.0000000001
 40
0.0
 40
0.0
 40
0.0
 40
0.0
 40
0.2
 40
0.2
 40
0.2
 40
0.2
 40
0.4
 40
0.4
 40
0.4
 40
0.4
 40
0.6
 40
0.6
 40
0.6
 40
0.6
 40
1.0
 40
1.0
 40
1.0
 40
1.0
 10
-17.9244
 20
31.8257
 30
0.0
 10
-17.9244
 20
31.8257
 30
0.0
 10
-22.0248
 20
32.4044
 30
0.0
 10
-22.0248
 20
32.4044
 30
0.0
 10
-22.0248
 20
32.4044
 30
0.0
 10
-22.0248
 20
32.4044
 30
0.0
 10
-22.0248
 20
32.5329
 30
0.0
 10
-22.0248
 20
32.5329
 30
0.0
 10
-22.0248
 20
32.5329
 30
0.0
 10
-22.0248
 20
32.5329
 30
0.0
 10
-17.9244
 20
33.1501
 30
0.0
 10
-17.9244
 20
33.1501
 30
0.0
 10
-17.9244
 20
33.1501
 30
0.0
 10
-17.9244
 20
33.1501
 30
0.0
 10
-17.9244
 20
31.8257
 30
0.0
 10
-17.9244
 20
31.8257
 30
0.0
  0
SPLINE
  5
EC
330
1F
100
AcDbEntity
  8
DEFAULT_1
 62
   250
100
AcDbSpline
210
0.0
220
0.0
230
1.0
 70
    11
 71
     3
 72
    20
 73
    16
 74
     0
 42
0.0000000001
 43
0.0000000001
 40
0.0
 40
0.0
 40
0.0
 40
0.0
 40
0.2
 40
0.2
 40
0.2
 40
0.2
 40
0.4
 40
0.4
 40
0.4
 40
0.4
 40
0.6
 40
0.6
 40
0.6
 40
0.6
 40
1.0
 40
1.0
 40
1.0
 40
1.0
 10
-14.4778
 20
20.8027
 30
0.0
 10
-14.4778
 20
20.8027
 30
0.0
 10
-18.2276
 20
19.0456
 30
0.0
 10
-18.2276
 20
19.0456
 30
0.0
 10
-18.2276
 20
19.0456
 30
0.0
 10
-18.2276
 20
19.0456
 30
0.0
 10
-18.2979
 20
19.1532
 30
0.0
 10
-18.2979
 20
19.1532
 30
0.0
 10
-18.2979
 20
19.1532
 30
0.0
 10
-18.2979
 20
19.1532
 30
0.0
 10
-15.2018
 20
21.9116
 30
0.0
 10
-15.2018
 20
21.9116
 30
0.0
 10
-15.2018
 20
21.9116
 30
0.0
 10
-15.2018
 20
21.9116
 30
0.0
 10
-14.4778
 20
20.8027
 30
0.0
 10
-14.4778
 20
20.8027
 30
0.0
  0
SPLINE
  5
ED
330
1F
100
AcDbEntity
  8
DEFAULT_1
 62
   250
100
AcDbSpline
210
0.0
220
0.0
230
1.0
 70
    11
 71
     3
 72
    20
 73
    16
 74
     0
 42
0.0000000001
 43
0.0000000001
 40
0.0
 40
0.0
 40
0.0
 40
0.0
 40
0.2
 40
0.2
 40
0.2
 40
0.2
 40
0.4
 40
0.4
 40
0.4
 40
0.4
 40
0.6
 40
0.6
 40
0.6
 40
0.6
 40
1.0
 40
1.0
 40
1.0
 40
1.0
 10
4.4042
 20
24.6443
 30
0.0
 10
4.4042
 20
24.6443
 30
0.0
 10
0.4012
 20
25.7047
 30
0.0
 10
0.4012
 20
25.7047
 30
0.0
 10
0.4012
 20
25.7047
 30
0.0
 10
0.4012
 20
25.7047
 30
0.0
 10
0.4164
 20
25.8323
 30
0.0
 10
0.4164
 20
25.8323
 30
0.0
 10
0.4164
 20
25.8323
 30
0.0
 10
0.4164
 20
25.8323
 30
0.0
 10
4.5611
 20
25.9594
 30
0.0
 10
4.5611
 20
25.9594
 30
0.0
 10
4.5611
 20
25.9594
 30
0.0
 10
4.5611
 20
25.9594
 30
0.0
 10
4.4042
 20
24.6443
 30
0.0
 10
4.4042
 20
24.6443
 30
0.0
  0
SPLINE
  5
EE
330
1F
100
AcDbEntity
  8
DEFAULT_1
 62
   250
100
AcDbSpline
210
0.0
220
0.0
230
1.0
 70
    11
 71
     3
 72
    20
 73
    16
 74
     0
 42
0.0000000001
 43
0.0000000001
 40
0.0
 40
0.0
 40
0.0
 40
0.0
 40
0.2
 40
0.2
 40
0.2
 40
0.2
 40
0.4
 40
0.4
 40
0.4
 40
0.4
 40
0.6
 40
0.6
 40
0.6
 40
0.6
 40
1.0
 40
1.0
 40
1.0
 40
1.0
 10
-3.9656
 20
25.8606
 30
0.0
 10
-3.9656
 20
25.8606
 30
0.0
 10
0.1753
 20
25.8198
 30
0.0
 10
0.1753
 20
25.8198
 30
0.0
 10
0.1753
 20
25.8198
 30
0.0
 10
0.1753
 20
25.8198
 30
0.0
 10
0.192
 20
25.6924
 30
0.0
 10
0.192
 20
25.6924
 30
0.0
 10
0.192
 20
25.6924
 30
0.0
 10
0.192
 20
25.6924
 30
0.0
 10
-3.7934
 20
24.5475
 30
0.0
 10
-3.7934
 20
24.5475
 30
0.0
 10
-3.7934
 20
24.5475
 30
0.0
 10
-3.7934
 20
24.5475
 30
0.0
 10
-3.9656
 20
25.8606
 30
0.0
 10
-3.9656
 20
25.8606
 30
0.0
  0
SPLINE
  5
EF
330
1F
100
AcDbEntity
  8
DEFAULT_1
 62
   250
100
AcDbSpline
210
0.0
220
0.0
230
1.0
 70
    11
 71
     3
 72
    20
 73
    16
 74
     0
 42
0.0000000001
 43
0.0000000001
 40
0.0
 40
0.0
 40
0.0
 40
0.0
 40
0.2
 40
0.2
 40
0.2
 40
0.2
 40
0.4
 40
0.4
 40
0.4
 40
0.4
 40
0.6
 40
0.6
 40
0.6
 40
0.6
 40
1.0
 40
1.0
 40
1.0
 40
1.0
 10
15.3583
 20
21.8489
 30
0.0
 10
15.3583
 20
21.8489
 30
0.0
 10
18.4188
 20
19.0592
 30
0.0
 10
18.4188
 20
19.0592
 30
0.0
 10
18.4188
 20
19.0592
 30
0.0
 10
18.4188
 20
19.0592
 30
0.0
 10
18.3463
 20
18.9531
 30
0.0
 10
18.3463
 20
18.9531
 30
0.0
 10
18.3463
 20
18.9531
 30
0.0
 10
18.3463
 20
18.9531
 30
0.0
 10
14.6117
 20
20.755
 30
0.0
 10
14.6117
 20
20.755
 30
0.0
 10
14.6117
 20
20.755
 30
0.0
 10
14.6117
 20
20.755
 30
0.0
 10
15.3583
 20
21.8489
 30
0.0
 10
15.3583
 20
21.8489
 30
0.0
  0
SPLINE
  5
F0
330
1F
100
AcDbEntity
  8
DEFAULT_1
 62
   250
100
AcDbSpline
210
0.0
220
0.0
230
1.0
 70
    11
 71
     3
 72
    20
 73
    16
 74
     0
 42
0.0000000001
 43
0.0000000001
 40
0.0
 40
0.0
 40
0.0
 40
0.0
 40
0.2
 40
0.2
 40
0.2
 40
0.2
 40
0.4
 40
0.4
 40
0.4
 40
0.4
 40
0.6
 40
0.6
 40
0.6
 40
0.6
 40
1.0
 40
1.0
 40
1.0
 40
1.0
 10
-35.3533
 20
12.0701
 30
0.0
 10
-35.3533
 20
12.0701
 30
0.0
 10
-34.7746
 20
16.1706
 30
0.0
 10
-34.7746
 20
16.1706
 30
0.0
 10
-34.7746
 20
16.1706
 30
0.0
 10
-34.7746
 20
16.1706
 30
0.0
 10
-34.646
 20
16.1706
 30
0.0
 10
-34.646
 20
16.1706
 30
0.0
 10
-34.646
 20
16.1706
 30
0.0
 10
-34.646
 20
16.1706
 30
0.0
 10
-34.0289
 20
12.0701
 30
0.0
 10
-34.0289
 20
12.0701
 30
0.0
 10
-34.0289
 20
12.0701
 30
0.0
 10
-34.0289
 20
12.0701
 30
0.0
 10
-35.3533
 20
12.0701
 30
0.0
 10
-35.3533
 20
12.0701
 30
0.0
  0
SPLINE
  5
F1
330
1F
100
AcDbEntity
  8
DEFAULT_1
 62
   250
100
AcDbSpline
210
0.0
220
0.0
230
1.0
 70
    11
 71
     3
 72
    20
 73
    16
 74
     0
 42
0.0000000001
 43
0.0000000001
 40
0.0
 40
0.0
 40
0.0
 40
0.0
 40
0.2
 40
0.2
 40
0.2
 40
0.2
 40
0.4
 40
0.4
 40
0.4
 40
0.4
 40
0.6
 40
0.6
 40
0.6
 40
0.6
 40
1.0
 40
1.0
 40
1.0
 40
1.0
 10
-34.0325
 20
-33.442
 30
0.0
 10
-34.0325
 20
-33.442
 30
0.0
 10
-34.6112
 20
-37.5425
 30
0.0
 10
-34.6112
 20
-37.5425
 30
0.0
 10
-34.6112
 20
-37.5425
 30
0.0
 10
-34.6112
 20
-37.5425
 30
0.0
 10
-34.7398
 20
-37.5425
 30
0.0
 10
-34.7398
 20
-37.5425
 30
0.0
 10
-34.7398
 20
-37.5425
 30
0.0
 10
-34.7398
 20
-37.5425
 30
0.0
 10
-35.3569
 20
-33.442
 30
0.0
 10
-35.3569
 20
-33.442
 30
0.0
 10
-35.3569
 20
-33.442
 30
0.0
 10
-35.3569
 20
-33.442
 30
0.0
 10
-34.0325
 20
-33.442
 30
0.0
 10
-34.0325
 20
-33.442
 30
0.0
  0
SPLINE
  5
F2
330
1F
100
AcDbEntity
  8
DEFAULT_1
 62
   250
100
AcDbSpline
210
0.0
220
0.0
230
1.0
 70
    11
 71
     3
 72
    20
 73
    16
 74
     0
 42
0.0000000001
 43
0.0000000001
 40
0.0
 40
0.0
 40
0.0
 40
0.0
 40
0.2
 40
0.2
 40
0.2
 40
0.2
 40
0.4
 40
0.4
 40
0.4
 40
0.4
 40
0.6
 40
0.6
 40
0.6
 40
0.6
 40
1.0
 40
1.0
 40
1.0
 40
1.0
 10
-15.7486
 20
-48.1956
 30
0.0
 10
-15.7486
 20
-48.1956
 30
0.0
 10
-11.6481
 20
-48.7743
 30
0.0
 10
-11.6481
 20
-48.7743
 30
0.0
 10
-11.6481
 20
-48.7743
 30
0.0
 10
-11.6481
 20
-48.7743
 30
0.0
 10
-11.6481
 20
-48.9028
 30
0.0
 10
-11.6481
 20
-48.9028
 30
0.0
 10
-11.6481
 20
-48.9028
 30
0.0
 10
-11.6481
 20
-48.9028
 30
0.0
 10
-15.7486
 20
-49.52
 30
0.0
 10
-15.7486
 20
-49.52
 30
0.0
 10
-15.7486
 20
-49.52
 30
0.0
 10
-15.7486
 20
-49.52
 30
0.0
 10
-15.7486
 20
-48.1956
 30
0.0
 10
-15.7486
 20
-48.1956
 30
0.0
  0
SPLINE
  5
F3
330
1F
100
AcDbEntity
  8
DEFAULT_1
 62
   250
100
AcDbSpline
210
0.0
220
0.0
230
1.0
 70
    11
 71
     3
 72
    20
 73
    16
 74
     0
 42
0.0000000001
 43
0.0000000001
 40
0.0
 40
0.0
 40
0.0
 40
0.0
 40
0.2
 40
0.2
 40
0.2
 40
0.2
 40
0.4
 40
0.4
 40
0.4
 40
0.4
 40
0.6
 40
0.6
 40
0.6
 40
0.6
 40
1.0
 40
1.0
 40
1.0
 40
1.0
 10
16.3227
 20
-49.4919
 30
0.0
 10
16.3227
 20
-49.4919
 30
0.0
 10
12.2222
 20
-48.9132
 30
0.0
 10
12.2222
 20
-48.9132
 30
0.0
 10
12.2222
 20
-48.9132
 30
0.0
 10
12.2222
 20
-48.9132
 30
0.0
 10
12.2222
 20
-48.7846
 30
0.0
 10
12.2222
 20
-48.7846
 30
0.0
 10
12.2222
 20
-48.7846
 30
0.0
 10
12.2222
 20
-48.7846
 30
0.0
 10
16.3227
 20
-48.1675
 30
0.0
 10
16.3227
 20
-48.1675
 30
0.0
 10
16.3227
 20
-48.1675
 30
0.0
 10
16.3227
 20
-48.1675
 30
0.0
 10
16.3227
 20
-49.4919
 30
0.0
 10
16.3227
 20
-49.4919
 30
0.0
  0
SPLINE
  5
F4
330
1F
100
AcDbEntity
  8
DEFAULT_1
 62
   250
100
AcDbSpline
210
0.0
220
0.0
230
1.0
 70
    24
 71
     3
 72
     8
 73
     4
 74
     0
 42
0.0000000001
 43
0.0000000001
 40
0.0
 40
0.0
 40
0.0
 40
0.0
 40
1.0
 40
1.0
 40
1.0
 40
1.0
 10
31.2487
 20
6.6012
 30
0.0
 10
31.2487
 20
6.6012
 30
0.0
 10
38.5246
 20
6.6012
 30
0.0
 10
38.5246
 20
6.6012
 30
0.0
  0
SPLINE
  5
F5
330
1F
100
AcDbEntity
  8
DEFAULT_1
 62
   250
100
AcDbSpline
210
0.0
220
0.0
230
1.0
 70
    24
 71
     3
 72
     8
 73
     4
 74
     0
 42
0.0000000001
 43
0.0000000001
 40
0.0
 40
0.0
 40
0.0
 40
0.0
 40
1.0
 40
1.0
 40
1.0
 40
1.0
 10
31.187
 20
25.7248
 30
0.0
 10
31.187
 20
25.7248
 30
0.0
 10
38.4508
 20
25.7248
 30
0.0
 10
38.4508
 20
25.7248
 30
0.0
  0
SPLINE
  5
F6
330
1F
100
AcDbEntity
  8
DEFAULT_1
 62
   250
100
AcDbSpline
210
0.0
220
0.0
230
1.0
 70
    24
 71
     3
 72
     8
 73
     4
 74
     0
 42
0.0000000001
 43
0.0000000001
 40
0.0
 40
0.0
 40
0.0
 40
0.0
 40
1.0
 40
1.0
 40
1.0
 40
1.0
 10
37.1203
 20
0.7696
 30
0.0
 10
37.1203
 20
0.7696
 30
0.0
 10
37.1203
 20
31.2765
 30
0.0
 10
37.1203
 20
31.2765
 30
0.0
  0
SPLINE
  5
F7
330
1F
100
AcDbEntity
  8
DEFAULT_1
 62
   250
100
AcDbSpline
210
0.0
220
0.0
230
1.0
 70
    11
 71
     3
 72
    84
 73
    80
 74
     0
 42
0.0000000001
 43
0.0000000001
 40
0.0
 40
0.0
 40
0.0
 40
0.0
 40
0.0476190476190476
 40
0.0476190476190476
 40
0.0476190476190476
 40
0.0476190476190476
 40
0.0952380952380952
 40
0.0952380952380952
 40
0.0952380952380952
 40
0.0952380952380952
 40
0.1428571428571428
 40
0.1428571428571428
 40
0.1428571428571428
 40
0.1428571428571428
 40
0.1904761904761905
 40
0.1904761904761905
 40
0.1904761904761905
 40
0.1904761904761905
 40
0.2380952380952381
 40
0.2380952380952381
 40
0.2380952380952381
 40
0.2380952380952381
 40
0.2857142857142857
 40
0.2857142857142857
 40
0.2857142857142857
 40
0.2857142857142857
 40
0.3333333333333333
 40
0.3333333333333333
 40
0.3333333333333333
 40
0.3333333333333333
 40
0.3809523809523809
 40
0.3809523809523809
 40
0.3809523809523809
 40
0.3809523809523809
 40
0.4285714285714285
 40
0.4285714285714285
 40
0.4285714285714285
 40
0.4285714285714285
 40
0.4761904761904762
 40
0.4761904761904762
 40
0.4761904761904762
 40
0.4761904761904762
 40
0.5238095238095238
 40
0.5238095238095238
 40
0.5238095238095238
 40
0.5238095238095238
 40
0.5714285714285714
 40
0.5714285714285714
 40
0.5714285714285714
 40
0.5714285714285714
 40
0.6190476190476191
 40
0.6190476190476191
 40
0.6190476190476191
 40
0.6190476190476191
 40
0.6666666666666666
 40
0.6666666666666666
 40
0.6666666666666666
 40
0.6666666666666666
 40
0.7142857142857143
 40
0.7142857142857143
 40
0.7142857142857143
 40
0.7142857142857143
 40
0.7619047619047619
 40
0.7619047619047619
 40
0.7619047619047619
 40
0.7619047619047619
 40
0.8095238095238095
 40
0.8095238095238095
 40
0.8095238095238095
 40
0.8095238095238095
 40
0.8571428571428571
 40
0.8571428571428571
 40
0.8571428571428571
 40
0.8571428571428571
 40
0.9047619047619048
 40
0.9047619047619048
 40
0.9047619047619048
 40
0.9047619047619048
 40
1.0
 40
1.0
 40
1.0
 40
1.0
 10
33.8378
 20
13.9168
 30
0.0
 10
33.8378
 20
13.9168
 30
0.0
 10
33.4907
 20
14.2267
 30
0.0
 10
33.4907
 20
14.2267
 30
0.0
 10
33.4907
 20
14.2267
 30
0.0
 10
33.4907
 20
14.2267
 30
0.0
 10
33.6457
 20
14.4093
 30
0.0
 10
33.6457
 20
14.4093
 30
0.0
 10
33.6457
 20
14.4093
 30
0.0
 10
33.6457
 20
14.4093
 30
0.0
 10
34.011
 20
14.0849
 30
0.0
 10
34.011
 20
14.0849
 30
0.0
 10
34.011
 20
14.0849
 30
0.0
 10
34.1684
 20
14.1908
 30
0.0
 10
34.3064
 20
14.2619
 30
0.0
 10
34.4242
 20
14.2991
 30
0.0
 10
34.4242
 20
14.2991
 30
0.0
 10
34.5791
 20
14.3482
 30
0.0
 10
34.753
 20
14.3728
 30
0.0
 10
34.9444
 20
14.3728
 30
0.0
 10
34.9444
 20
14.3728
 30
0.0
 10
35.2216
 20
14.3728
 30
0.0
 10
35.4685
 20
14.3167
 30
0.0
 10
35.6845
 20
14.2046
 30
0.0
 10
35.6845
 20
14.2046
 30
0.0
 10
35.9012
 20
14.0925
 30
0.0
 10
36.065
 20
13.9357
 30
0.0
 10
36.1758
 20
13.7335
 30
0.0
 10
36.1758
 20
13.7335
 30
0.0
 10
36.2861
 20
13.5307
 30
0.0
 10
36.3415
 20
13.3159
 30
0.0
 10
36.3415
 20
13.0885
 30
0.0
 10
36.3415
 20
13.0885
 30
0.0
 10
36.3415
 20
12.9184
 30
0.0
 10
36.3175
 20
12.7647
 30
0.0
 10
36.2697
 20
12.6268
 30
0.0
 10
36.2697
 20
12.6268
 30
0.0
 10
36.2325
 20
12.521
 30
0.0
 10
36.162
 20
12.3975
 30
0.0
 10
36.0574
 20
12.2558
 30
0.0
 10
36.0574
 20
12.2558
 30
0.0
 10
36.0574
 20
12.2558
 30
0.0
 10
36.4045
 20
11.9459
 30
0.0
 10
36.4045
 20
11.9459
 30
0.0
 10
36.4045
 20
11.9459
 30
0.0
 10
36.4045
 20
11.9459
 30
0.0
 10
36.2495
 20
11.7633
 30
0.0
 10
36.2495
 20
11.7633
 30
0.0
 10
36.2495
 20
11.7633
 30
0.0
 10
36.2495
 20
11.7633
 30
0.0
 10
35.8861
 20
12.0883
 30
0.0
 10
35.8861
 20
12.0883
 30
0.0
 10
35.8861
 20
12.0883
 30
0.0
 10
35.7028
 20
11.9673
 30
0.0
 10
35.546
 20
11.8867
 30
0.0
 10
35.4162
 20
11.8464
 30
0.0
 10
35.4162
 20
11.8464
 30
0.0
 10
35.2865
 20
11.8061
 30
0.0
 10
35.1302
 20
11.7853
 30
0.0
 10
34.9482
 20
11.7853
 30
0.0
 10
34.9482
 20
11.7853
 30
0.0
 10
34.6704
 20
11.7853
 30
0.0
 10
34.4229
 20
11.8407
 30
0.0
 10
34.2056
 20
11.9516
 30
0.0
 10
34.2056
 20
11.9516
 30
0.0
 10
33.9883
 20
12.0624
 30
0.0
 10
33.8239
 20
12.2174
 30
0.0
 10
33.7118
 20
12.4177
 30
0.0
 10
33.7118
 20
12.4177
 30
0.0
 10
33.6003
 20
12.6174
 30
0.0
 10
33.5442
 20
12.8397
 30
0.0
 10
33.5442
 20
13.0847
 30
0.0
 10
33.5442
 20
13.0847
 30
0.0
 10
33.5442
 20
13.2497
 30
0.0
 10
33.5657
 20
13.394
 30
0.0
 10
33.6097
 20
13.5174
 30
0.0
 10
33.6097
 20
13.5174
 30
0.0
 10
33.6532
 20
13.6409
 30
0.0
 10
33.7294
 20
13.7744
 30
0.0
 10
33.8378
 20
13.9168
 30
0.0
  0
SPLINE
  5
F8
330
1F
100
AcDbEntity
  8
DEFAULT_1
 62
   250
100
AcDbSpline
210
0.0
220
0.0
230
1.0
 70
    11
 71
     3
 72
    32
 73
    28
 74
     0
 42
0.0000000001
 43
0.0000000001
 40
0.0
 40
0.0
 40
0.0
 40
0.0
 40
0.125
 40
0.125
 40
0.125
 40
0.125
 40
0.25
 40
0.25
 40
0.25
 40
0.25
 40
0.375
 40
0.375
 40
0.375
 40
0.375
 40
0.5
 40
0.5
 40
0.5
 40
0.5
 40
0.625
 40
0.625
 40
0.625
 40
0.625
 40
0.75
 40
0.75
 40
0.75
 40
0.75
 40
1.0
 40
1.0
 40
1.0
 40
1.0
 10
34.0866
 20
13.6957
 30
0.0
 10
33.9959
 20
13.5798
 30
0.0
 10
33.9335
 20
13.4784
 30
0.0
 10
33.9001
 20
13.3921
 30
0.0
 10
33.9001
 20
13.3921
 30
0.0
 10
33.8674
 20
13.3052
 30
0.0
 10
33.8504
 20
13.2031
 30
0.0
 10
33.8504
 20
13.0866
 30
0.0
 10
33.8504
 20
13.0866
 30
0.0
 10
33.8504
 20
12.817
 30
0.0
 10
33.9417
 20
12.5947
 30
0.0
 10
34.1243
 20
12.4183
 30
0.0
 10
34.1243
 20
12.4183
 30
0.0
 10
34.307
 20
12.2426
 30
0.0
 10
34.5797
 20
12.1544
 30
0.0
 10
34.9432
 20
12.1544
 30
0.0
 10
34.9432
 20
12.1544
 30
0.0
 10
35.0855
 20
12.1544
 30
0.0
 10
35.2121
 20
12.1683
 30
0.0
 10
35.323
 20
12.1953
 30
0.0
 10
35.323
 20
12.1953
 30
0.0
 10
35.4055
 20
12.2149
 30
0.0
 10
35.5069
 20
12.2558
 30
0.0
 10
35.6272
 20
12.3188
 30
0.0
 10
35.6272
 20
12.3188
 30
0.0
 10
35.6272
 20
12.3188
 30
0.0
 10
34.0866
 20
13.6957
 30
0.0
 10
34.0866
 20
13.6957
 30
0.0
  0
SPLINE
  5
F9
330
1F
100
AcDbEntity
  8
DEFAULT_1
 62
   250
100
AcDbSpline
210
0.0
220
0.0
230
1.0
 70
    11
 71
     3
 72
    28
 73
    24
 74
     0
 42
0.0000000001
 43
0.0000000001
 40
0.0
 40
0.0
 40
0.0
 40
0.0
 40
0.1428571428571428
 40
0.1428571428571428
 40
0.1428571428571428
 40
0.1428571428571428
 40
0.2857142857142857
 40
0.2857142857142857
 40
0.2857142857142857
 40
0.2857142857142857
 40
0.4285714285714285
 40
0.4285714285714285
 40
0.4285714285714285
 40
0.4285714285714285
 40
0.5714285714285714
 40
0.5714285714285714
 40
0.5714285714285714
 40
0.5714285714285714
 40
0.7142857142857143
 40
0.7142857142857143
 40
0.7142857142857143
 40
0.7142857142857143
 40
1.0
 40
1.0
 40
1.0
 40
1.0
 10
34.2768
 20
13.8469
 30
0.0
 10
34.2768
 20
13.8469
 30
0.0
 10
35.8118
 20
12.4756
 30
0.0
 10
35.8118
 20
12.4756
 30
0.0
 10
35.8118
 20
12.4756
 30
0.0
 10
35.8892
 20
12.5701
 30
0.0
 10
35.9434
 20
12.6577
 30
0.0
 10
35.9743
 20
12.7377
 30
0.0
 10
35.9743
 20
12.7377
 30
0.0
 10
36.0152
 20
12.8422
 30
0.0
 10
36.0354
 20
12.9556
 30
0.0
 10
36.0354
 20
13.0772
 30
0.0
 10
36.0354
 20
13.0772
 30
0.0
 10
36.0354
 20
13.3455
 30
0.0
 10
35.9409
 20
13.5666
 30
0.0
 10
35.7513
 20
13.7417
 30
0.0
 10
35.7513
 20
13.7417
 30
0.0
 10
35.5617
 20
13.9161
 30
0.0
 10
35.2959
 20
14.0037
 30
0.0
 10
34.9539
 20
14.0037
 30
0.0
 10
34.9539
 20
14.0037
 30
0.0
 10
34.6982
 20
14.0037
 30
0.0
 10
34.472
 20
13.9514
 30
0.0
 10
34.2768
 20
13.8469
 30
0.0
  0
SPLINE
  5
FA
330
1F
100
AcDbEntity
  8
DEFAULT_1
 62
   250
100
AcDbSpline
210
0.0
220
0.0
230
1.0
 70
    11
 71
     3
 72
    92
 73
    88
 74
     0
 42
0.0000000001
 43
0.0000000001
 40
0.0
 40
0.0
 40
0.0
 40
0.0
 40
0.0434782608695652
 40
0.0434782608695652
 40
0.0434782608695652
 40
0.0434782608695652
 40
0.0869565217391304
 40
0.0869565217391304
 40
0.0869565217391304
 40
0.0869565217391304
 40
0.1304347826086956
 40
0.1304347826086956
 40
0.1304347826086956
 40
0.1304347826086956
 40
0.1739130434782609
 40
0.1739130434782609
 40
0.1739130434782609
 40
0.1739130434782609
 40
0.2173913043478261
 40
0.2173913043478261
 40
0.2173913043478261
 40
0.2173913043478261
 40
0.2608695652173913
 40
0.2608695652173913
 40
0.2608695652173913
 40
0.2608695652173913
 40
0.3043478260869565
 40
0.3043478260869565
 40
0.3043478260869565
 40
0.3043478260869565
 40
0.3478260869565217
 40
0.3478260869565217
 40
0.3478260869565217
 40
0.3478260869565217
 40
0.391304347826087
 40
0.391304347826087
 40
0.391304347826087
 40
0.391304347826087
 40
0.4347826086956522
 40
0.4347826086956522
 40
0.4347826086956522
 40
0.4347826086956522
 40
0.4782608695652174
 40
0.4782608695652174
 40
0.4782608695652174
 40
0.4782608695652174
 40
0.5217391304347826
 40
0.5217391304347826
 40
0.5217391304347826
 40
0.5217391304347826
 40
0.5652173913043478
 40
0.5652173913043478
 40
0.5652173913043478
 40
0.5652173913043478
 40
0.6086956521739131
 40
0.6086956521739131
 40
0.6086956521739131
 40
0.6086956521739131
 40
0.6521739130434783
 40
0.6521739130434783
 40
0.6521739130434783
 40
0.6521739130434783
 40
0.6956521739130435
 40
0.6956521739130435
 40
0.6956521739130435
 40
0.6956521739130435
 40
0.7391304347826086
 40
0.7391304347826086
 40
0.7391304347826086
 40
0.7391304347826086
 40
0.782608695652174
 40
0.782608695652174
 40
0.782608695652174
 40
0.782608695652174
 40
0.8260869565217391
 40
0.8260869565217391
 40
0.8260869565217391
 40
0.8260869565217391
 40
0.8695652173913043
 40
0.8695652173913043
 40
0.8695652173913043
 40
0.8695652173913043
 40
0.9130434782608695
 40
0.9130434782608695
 40
0.9130434782608695
 40
0.9130434782608695
 40
1.0
 40
1.0
 40
1.0
 40
1.0
 10
35.67
 20
14.7564
 30
0.0
 10
35.67
 20
14.7564
 30
0.0
 10
35.6404
 20
15.0757
 30
0.0
 10
35.6404
 20
15.0757
 30
0.0
 10
35.6404
 20
15.0757
 30
0.0
 10
35.7903
 20
15.1028
 30
0.0
 10
35.8993
 20
15.1545
 30
0.0
 10
35.9673
 20
15.2307
 30
0.0
 10
35.9673
 20
15.2307
 30
0.0
 10
36.0347
 20
15.3069
 30
0.0
 10
36.0687
 20
15.4045
 30
0.0
 10
36.0687
 20
15.5242
 30
0.0
 10
36.0687
 20
15.5242
 30
0.0
 10
36.0687
 20
15.6262
 30
0.0
 10
36.0454
 20
15.7157
 30
0.0
 10
35.9982
 20
15.7925
 30
0.0
 10
35.9982
 20
15.7925
 30
0.0
 10
35.9516
 20
15.8694
 30
0.0
 10
35.8892
 20
15.9324
 30
0.0
 10
35.8111
 20
15.9815
 30
0.0
 10
35.8111
 20
15.9815
 30
0.0
 10
35.733
 20
16.0312
 30
0.0
 10
35.6272
 20
16.0722
 30
0.0
 10
35.4949
 20
16.1056
 30
0.0
 10
35.4949
 20
16.1056
 30
0.0
 10
35.362
 20
16.1383
 30
0.0
 10
35.2266
 20
16.1553
 30
0.0
 10
35.0887
 20
16.1553
 30
0.0
 10
35.0887
 20
16.1553
 30
0.0
 10
35.0742
 20
16.1553
 30
0.0
 10
35.0515
 20
16.1547
 30
0.0
 10
35.0225
 20
16.1534
 30
0.0
 10
35.0225
 20
16.1534
 30
0.0
 10
35.1277
 20
16.0867
 30
0.0
 10
35.214
 20
15.996
 30
0.0
 10
35.2795
 20
15.8813
 30
0.0
 10
35.2795
 20
15.8813
 30
0.0
 10
35.3457
 20
15.7661
 30
0.0
 10
35.3784
 20
15.6414
 30
0.0
 10
35.3784
 20
15.5078
 30
0.0
 10
35.3784
 20
15.5078
 30
0.0
 10
35.3784
 20
15.2836
 30
0.0
 10
35.2972
 20
15.094
 30
0.0
 10
35.1347
 20
14.9391
 30
0.0
 10
35.1347
 20
14.9391
 30
0.0
 10
34.9722
 20
14.7841
 30
0.0
 10
34.7586
 20
14.7066
 30
0.0
 10
34.4928
 20
14.7066
 30
0.0
 10
34.4928
 20
14.7066
 30
0.0
 10
34.2182
 20
14.7066
 30
0.0
 10
33.9977
 20
14.7873
 30
0.0
 10
33.8302
 20
14.9491
 30
0.0
 10
33.8302
 20
14.9491
 30
0.0
 10
33.6627
 20
15.111
 30
0.0
 10
33.5789
 20
15.3138
 30
0.0
 10
33.5789
 20
15.5576
 30
0.0
 10
33.5789
 20
15.5576
 30
0.0
 10
33.5789
 20
15.7333
 30
0.0
 10
33.6268
 20
15.8939
 30
0.0
 10
33.7212
 20
16.0401
 30
0.0
 10
33.7212
 20
16.0401
 30
0.0
 10
33.8157
 20
16.1856
 30
0.0
 10
33.9511
 20
16.2964
 30
0.0
 10
34.1262
 20
16.372
 30
0.0
 10
34.1262
 20
16.372
 30
0.0
 10
34.3013
 20
16.4476
 30
0.0
 10
34.5552
 20
16.4854
 30
0.0
 10
34.8877
 20
16.4854
 30
0.0
 10
34.8877
 20
16.4854
 30
0.0
 10
35.2329
 20
16.4854
 30
0.0
 10
35.5082
 20
16.4482
 30
0.0
 10
35.7135
 20
16.3733
 30
0.0
 10
35.7135
 20
16.3733
 30
0.0
 10
35.9182
 20
16.2977
 30
0.0
 10
36.0738
 20
16.1862
 30
0.0
 10
36.1809
 20
16.0382
 30
0.0
 10
36.1809
 20
16.0382
 30
0.0
 10
36.2879
 20
15.8895
 30
0.0
 10
36.3415
 20
15.7163
 30
0.0
 10
36.3415
 20
15.5166
 30
0.0
 10
36.3415
 20
15.5166
 30
0.0
 10
36.3415
 20
15.305
 30
0.0
 10
36.2829
 20
15.1324
 30
0.0
 10
36.1651
 20
14.9983
 30
0.0
 10
36.1651
 20
14.9983
 30
0.0
 10
36.048
 20
14.8641
 30
0.0
 10
35.8829
 20
14.7835
 30
0.0
 10
35.67
 20
14.7564
 30
0.0
  0
SPLINE
  5
FB
330
1F
100
AcDbEntity
  8
DEFAULT_1
 62
   250
100
AcDbSpline
210
0.0
220
0.0
230
1.0
 70
    11
 71
     3
 72
    36
 73
    32
 74
     0
 42
0.0000000001
 43
0.0000000001
 40
0.0
 40
0.0
 40
0.0
 40
0.0
 40
0.1111111111111111
 40
0.1111111111111111
 40
0.1111111111111111
 40
0.1111111111111111
 40
0.2222222222222222
 40
0.2222222222222222
 40
0.2222222222222222
 40
0.2222222222222222
 40
0.3333333333333333
 40
0.3333333333333333
 40
0.3333333333333333
 40
0.3333333333333333
 40
0.4444444444444444
 40
0.4444444444444444
 40
0.4444444444444444
 40
0.4444444444444444
 40
0.5555555555555556
 40
0.5555555555555556
 40
0.5555555555555556
 40
0.5555555555555556
 40
0.6666666666666666
 40
0.6666666666666666
 40
0.6666666666666666
 40
0.6666666666666666
 40
0.7777777777777778
 40
0.7777777777777778
 40
0.7777777777777778
 40
0.7777777777777778
 40
1.0
 40
1.0
 40
1.0
 40
1.0
 10
34.4758
 20
16.1163
 30
0.0
 10
34.2856
 20
16.1163
 30
0.0
 10
34.1338
 20
16.0659
 30
0.0
 10
34.0223
 20
15.9645
 30
0.0
 10
34.0223
 20
15.9645
 30
0.0
 10
33.9102
 20
15.8624
 30
0.0
 10
33.8541
 20
15.7409
 30
0.0
 10
33.8541
 20
15.5979
 30
0.0
 10
33.8541
 20
15.5979
 30
0.0
 10
33.8541
 20
15.4505
 30
0.0
 10
33.9146
 20
15.322
 30
0.0
 10
34.0349
 20
15.2124
 30
0.0
 10
34.0349
 20
15.2124
 30
0.0
 10
34.1558
 20
15.1028
 30
0.0
 10
34.312
 20
15.048
 30
0.0
 10
34.5035
 20
15.048
 30
0.0
 10
34.5035
 20
15.048
 30
0.0
 10
34.6761
 20
15.048
 30
0.0
 10
34.8159
 20
15.1003
 30
0.0
 10
34.9237
 20
15.2042
 30
0.0
 10
34.9237
 20
15.2042
 30
0.0
 10
35.0314
 20
15.3082
 30
0.0
 10
35.0849
 20
15.436
 30
0.0
 10
35.0849
 20
15.5885
 30
0.0
 10
35.0849
 20
15.5885
 30
0.0
 10
35.0849
 20
15.7428
 30
0.0
 10
35.0314
 20
15.8687
 30
0.0
 10
34.9237
 20
15.9676
 30
0.0
 10
34.9237
 20
15.9676
 30
0.0
 10
34.8159
 20
16.0671
 30
0.0
 10
34.6667
 20
16.1163
 30
0.0
 10
34.4758
 20
16.1163
 30
0.0
  0
SPLINE
  5
FC
330
1F
100
AcDbEntity
  8
DEFAULT_1
 62
   250
100
AcDbSpline
210
0.0
220
0.0
230
1.0
 70
    11
 71
     3
 72
    52
 73
    48
 74
     0
 42
0.0000000001
 43
0.0000000001
 40
0.0
 40
0.0
 40
0.0
 40
0.0
 40
0.0769230769230769
 40
0.0769230769230769
 40
0.0769230769230769
 40
0.0769230769230769
 40
0.1538461538461539
 40
0.1538461538461539
 40
0.1538461538461539
 40
0.1538461538461539
 40
0.2307692307692308
 40
0.2307692307692308
 40
0.2307692307692308
 40
0.2307692307692308
 40
0.3076923076923077
 40
0.3076923076923077
 40
0.3076923076923077
 40
0.3076923076923077
 40
0.3846153846153846
 40
0.3846153846153846
 40
0.3846153846153846
 40
0.3846153846153846
 40
0.4615384615384616
 40
0.4615384615384616
 40
0.4615384615384616
 40
0.4615384615384616
 40
0.5384615384615384
 40
0.5384615384615384
 40
0.5384615384615384
 40
0.5384615384615384
 40
0.6153846153846154
 40
0.6153846153846154
 40
0.6153846153846154
 40
0.6153846153846154
 40
0.6923076923076923
 40
0.6923076923076923
 40
0.6923076923076923
 40
0.6923076923076923
 40
0.7692307692307693
 40
0.7692307692307693
 40
0.7692307692307693
 40
0.7692307692307693
 40
0.8461538461538461
 40
0.8461538461538461
 40
0.8461538461538461
 40
0.8461538461538461
 40
1.0
 40
1.0
 40
1.0
 40
1.0
 10
34.9614
 20
16.8085
 30
0.0
 10
34.6415
 20
16.8085
 30
0.0
 10
34.3839
 20
16.8413
 30
0.0
 10
34.1892
 20
16.9074
 30
0.0
 10
34.1892
 20
16.9074
 30
0.0
 10
33.994
 20
16.9729
 30
0.0
 10
33.8434
 20
17.0712
 30
0.0
 10
33.7376
 20
17.2009
 30
0.0
 10
33.7376
 20
17.2009
 30
0.0
 10
33.6318
 20
17.3307
 30
0.0
 10
33.5789
 20
17.4938
 30
0.0
 10
33.5789
 20
17.6904
 30
0.0
 10
33.5789
 20
17.6904
 30
0.0
 10
33.5789
 20
17.8358
 30
0.0
 10
33.6085
 20
17.9631
 30
0.0
 10
33.6671
 20
18.0727
 30
0.0
 10
33.6671
 20
18.0727
 30
0.0
 10
33.725
 20
18.1823
 30
0.0
 10
33.8094
 20
18.2723
 30
0.0
 10
33.9196
 20
18.3442
 30
0.0
 10
33.9196
 20
18.3442
 30
0.0
 10
34.0299
 20
18.4153
 30
0.0
 10
34.164
 20
18.4714
 30
0.0
 10
34.3221
 20
18.5117
 30
0.0
 10
34.3221
 20
18.5117
 30
0.0
 10
34.4802
 20
18.5526
 30
0.0
 10
34.6931
 20
18.5728
 30
0.0
 10
34.9614
 20
18.5728
 30
0.0
 10
34.9614
 20
18.5728
 30
0.0
 10
35.2789
 20
18.5728
 30
0.0
 10
35.5346
 20
18.54
 30
0.0
 10
35.7299
 20
18.4752
 30
0.0
 10
35.7299
 20
18.4752
 30
0.0
 10
35.9251
 20
18.4097
 30
0.0
 10
36.0757
 20
18.312
 30
0.0
 10
36.1821
 20
18.1823
 30
0.0
 10
36.1821
 20
18.1823
 30
0.0
 10
36.2886
 20
18.0525
 30
0.0
 10
36.3415
 20
17.8888
 30
0.0
 10
36.3415
 20
17.6904
 30
0.0
 10
36.3415
 20
17.6904
 30
0.0
 10
36.3415
 20
17.4296
 30
0.0
 10
36.2483
 20
17.2249
 30
0.0
 10
36.0612
 20
17.0762
 30
0.0
 10
36.0612
 20
17.0762
 30
0.0
 10
35.8363
 20
16.898
 30
0.0
 10
35.4691
 20
16.8085
 30
0.0
 10
34.9614
 20
16.8085
 30
0.0
  0
SPLINE
  5
FD
330
1F
100
AcDbEntity
  8
DEFAULT_1
 62
   250
100
AcDbSpline
210
0.0
220
0.0
230
1.0
 70
    11
 71
     3
 72
    36
 73
    32
 74
     0
 42
0.0000000001
 43
0.0000000001
 40
0.0
 40
0.0
 40
0.0
 40
0.0
 40
0.1111111111111111
 40
0.1111111111111111
 40
0.1111111111111111
 40
0.1111111111111111
 40
0.2222222222222222
 40
0.2222222222222222
 40
0.2222222222222222
 40
0.2222222222222222
 40
0.3333333333333333
 40
0.3333333333333333
 40
0.3333333333333333
 40
0.3333333333333333
 40
0.4444444444444444
 40
0.4444444444444444
 40
0.4444444444444444
 40
0.4444444444444444
 40
0.5555555555555556
 40
0.5555555555555556
 40
0.5555555555555556
 40
0.5555555555555556
 40
0.6666666666666666
 40
0.6666666666666666
 40
0.6666666666666666
 40
0.6666666666666666
 40
0.7777777777777778
 40
0.7777777777777778
 40
0.7777777777777778
 40
0.7777777777777778
 40
1.0
 40
1.0
 40
1.0
 40
1.0
 10
34.9614
 20
17.1499
 30
0.0
 10
35.4055
 20
17.1499
 30
0.0
 10
35.7009
 20
17.2022
 30
0.0
 10
35.8483
 20
17.3061
 30
0.0
 10
35.8483
 20
17.3061
 30
0.0
 10
35.9951
 20
17.4101
 30
0.0
 10
36.0687
 20
17.5379
 30
0.0
 10
36.0687
 20
17.6904
 30
0.0
 10
36.0687
 20
17.6904
 30
0.0
 10
36.0687
 20
17.8434
 30
0.0
 10
35.9944
 20
17.9713
 30
0.0
 10
35.847
 20
18.0752
 30
0.0
 10
35.847
 20
18.0752
 30
0.0
 10
35.6996
 20
18.1791
 30
0.0
 10
35.4042
 20
18.2314
 30
0.0
 10
34.9614
 20
18.2314
 30
0.0
 10
34.9614
 20
18.2314
 30
0.0
 10
34.5161
 20
18.2314
 30
0.0
 10
34.2201
 20
18.1791
 30
0.0
 10
34.074
 20
18.0752
 30
0.0
 10
34.074
 20
18.0752
 30
0.0
 10
33.9272
 20
17.9713
 30
0.0
 10
33.8541
 20
17.8421
 30
0.0
 10
33.8541
 20
17.6872
 30
0.0
 10
33.8541
 20
17.6872
 30
0.0
 10
33.8541
 20
17.5341
 30
0.0
 10
33.919
 20
17.4126
 30
0.0
 10
34.0481
 20
17.3212
 30
0.0
 10
34.0481
 20
17.3212
 30
0.0
 10
34.2125
 20
17.2072
 30
0.0
 10
34.5174
 20
17.1499
 30
0.0
 10
34.9614
 20
17.1499
 30
0.0
  0
SPLINE
  5
FE
330
1F
100
AcDbEntity
  8
DEFAULT_1
 62
   250
100
AcDbSpline
210
0.0
220
0.0
230
1.0
 70
    11
 71
     3
 72
    20
 73
    16
 74
     0
 42
0.0000000001
 43
0.0000000001
 40
0.0
 40
0.0
 40
0.0
 40
0.0
 40
0.2
 40
0.2
 40
0.2
 40
0.2
 40
0.4
 40
0.4
 40
0.4
 40
0.4
 40
0.6
 40
0.6
 40
0.6
 40
0.6
 40
1.0
 40
1.0
 40
1.0
 40
1.0
 10
36.4677
 20
2.3833
 30
0.0
 10
36.4677
 20
2.3833
 30
0.0
 10
37.0464
 20
6.4838
 30
0.0
 10
37.0464
 20
6.4838
 30
0.0
 10
37.0464
 20
6.4838
 30
0.0
 10
37.0464
 20
6.4838
 30
0.0
 10
37.175
 20
6.4838
 30
0.0
 10
37.175
 20
6.4838
 30
0.0
 10
37.175
 20
6.4838
 30
0.0
 10
37.175
 20
6.4838
 30
0.0
 10
37.7921
 20
2.3833
 30
0.0
 10
37.7921
 20
2.3833
 30
0.0
 10
37.7921
 20
2.3833
 30
0.0
 10
37.7921
 20
2.3833
 30
0.0
 10
36.4677
 20
2.3833
 30
0.0
 10
36.4677
 20
2.3833
 30
0.0
  0
SPLINE
  5
FF
330
1F
100
AcDbEntity
  8
DEFAULT_1
 62
   250
100
AcDbSpline
210
0.0
220
0.0
230
1.0
 70
    11
 71
     3
 72
    20
 73
    16
 74
     0
 42
0.0000000001
 43
0.0000000001
 40
0.0
 40
0.0
 40
0.0
 40
0.0
 40
0.2
 40
0.2
 40
0.2
 40
0.2
 40
0.4
 40
0.4
 40
0.4
 40
0.4
 40
0.6
 40
0.6
 40
0.6
 40
0.6
 40
1.0
 40
1.0
 40
1.0
 40
1.0
 10
37.7696
 20
30.0368
 30
0.0
 10
37.7696
 20
30.0368
 30
0.0
 10
37.1909
 20
25.9363
 30
0.0
 10
37.1909
 20
25.9363
 30
0.0
 10
37.1909
 20
25.9363
 30
0.0
 10
37.1909
 20
25.9363
 30
0.0
 10
37.0624
 20
25.9363
 30
0.0
 10
37.0624
 20
25.9363
 30
0.0
 10
37.0624
 20
25.9363
 30
0.0
 10
37.0624
 20
25.9363
 30
0.0
 10
36.4452
 20
30.0368
 30
0.0
 10
36.4452
 20
30.0368
 30
0.0
 10
36.4452
 20
30.0368
 30
0.0
 10
36.4452
 20
30.0368
 30
0.0
 10
37.7696
 20
30.0368
 30
0.0
 10
37.7696
 20
30.0368
 30
0.0
  0
ENDSEC
  0
SECTION
  2
OBJECTS
  0
DICTIONARY
  5
C
330
0
100
AcDbDictionary
  3
ACAD_GROUP
350
D
  3
ACAD_LAYOUT
350
1A
  3
ACAD_MATERIAL
350
3B
  3
ACAD_MLEADERSTYLE
350
122
  3
ACAD_MLINESTYLE
350
17
  3
ACAD_PLOTSETTINGS
350
19
  3
ACAD_VISUALSTYLE
350
2A
  3
ACDBHEADERROUNDTRIPXREC
350
100
  3
ACDBVARIABLEDICTIONARY
350
120
  0
DICTIONARY
  5
D
102
{ACAD_REACTORS
330
C
102
}
330
C
100
AcDbDictionary
  0
DICTIONARY
  5
1A
102
{ACAD_REACTORS
330
C
102
}
330
C
100
AcDbDictionary
  0
DICTIONARY
  5
3B
102
{ACAD_REACTORS
330
C
102
}
330
C
100
AcDbDictionary
  3
BYBLOCK
350
3D
  3
BYLAYER
350
3C
  3
GLOBAL
350
3E
  0
DICTIONARY
  5
122
102
{ACAD_REACTORS
330
C
102
}
330
C
100
AcDbDictionary
  0
DICTIONARY
  5
17
102
{ACAD_REACTORS
330
C
102
}
330
C
100
AcDbDictionary
  3
STANDARD
350
18
  0
DICTIONARY
  5
19
102
{ACAD_REACTORS
330
C
102
}
330
C
100
AcDbDictionary
  0
DICTIONARY
  5
2A
102
{ACAD_REACTORS
330
C
102
}
330
C
100
AcDbDictionary
  3
2DWIREFRAME
350
2F
  3
3D_HIDDEN
350
31
  3
3DWIREFRAME
350
30
  3
BASIC
350
32
  3
BRIGHTEN
350
36
  3
COLORCHANGE
350
3A
  3
CONCEPTUAL
350
34
  3
DIM
350
35
  3
FACEPATTERN
350
39
  3
FLAT
350
2B
  3
FLATWITHEDGES
350
2C
  3
GOURAUD
350
2D
  3
GOURAUDWITHEDGES
350
2E
  3
LINEPATTERN
350
38
  3
REALISTIC
350
33
  3
THICKEN
350
37
  0
DICTIONARY
  5
100
102
{ACAD_REACTORS
330
C
102
}
330
C
100
AcDbDictionary
  3
CEPSNTYPE
350
109
  3
DIMSTYLEDATA
350
11F
  3
FINGERPRINTGUID
350
10A
  3
HYPERLINKBASE
350
103
  3
INSUNITS
350
108
  3
LAYOUTDICT
350
105
  3
LWETCUNION
350
107
  3
PLOTSETDICT
350
106
  3
PSVPSCALE
350
10C
  3
PUCSBASE
350
10F
  3
PUCSORGBACK
350
115
  3
PUCSORGBOTTOM
350
111
  3
PUCSORGFRONT
350
114
  3
PUCSORGLEFT
350
112
  3
PUCSORGRIGHT
350
113
  3
PUCSORGTOP
350
110
  3
PUCSORTHOREF
350
10D
  3
PUCSORTHOVIEW
350
10E
  3
STYLESHEET
350
104
  3
TSTACKALIGN
350
101
  3
TSTACKSIZE
350
102
  3
UCSBASE
350
118
  3
UCSORGBACK
350
11E
  3
UCSORGBOTTOM
350
11A
  3
UCSORGFRONT
350
11D
  3
UCSORGLEFT
350
11B
  3
UCSORGRIGHT
350
11C
  3
UCSORGTOP
350
119
  3
UCSORTHOREF
350
116
  3
UCSORTHOVIEW
350
117
  3
VERSIONGUID
350
10B
  0
DICTIONARY
  5
120
102
{ACAD_REACTORS
330
C
102
}
330
C
100
AcDbDictionary
  3
DIMASSOC
350
123
  3
HIDETEXT
350
124
  0
MATERIAL
  5
3D
102
{ACAD_REACTORS
330
3B
102
}
102
{ACAD_XDICTIONARY
360
127
102
}
330
3B
100
AcDbMaterial
  1
ByBlock
  0
MATERIAL
  5
3C
102
{ACAD_REACTORS
330
3B
102
}
102
{ACAD_XDICTIONARY
360
125
102
}
330
3B
100
AcDbMaterial
  1
ByLayer
  0
MATERIAL
  5
3E
102
{ACAD_REACTORS
330
3B
102
}
102
{ACAD_XDICTIONARY
360
129
102
}
330
3B
100
AcDbMaterial
  1
Global
  0
MLINESTYLE
  5
18
102
{ACAD_REACTORS
330
17
102
}
330
17
100
AcDbMlineStyle
  2
Standard
 70
     0
  3

 62
   256
 51
90.0
 52
90.0
 71
     2
 49
0.5
 62
   256
  6
BYLAYER
 49
-0.5
 62
   256
  6
BYLAYER
  0
ACAD_PROXY_OBJECT
  5
2F
102
{ACAD_REACTORS
330
2A
102
}
330
2A
100
AcDbProxyObject
 90
      499
 91
      501
 93
      436
310
42CC9915DA5C99599C985B595049028333333333333E3BF0000000000000FB0107901411070040501600405405064090741402480A0340
1001
ACAD
1000
AcDbSavedByObjectVersion
1070
     0
  0
ACAD_PROXY_OBJECT
  5
31
102
{ACAD_REACTORS
330
2A
102
}
330
2A
100
AcDbProxyObject
 90
      499
 91
      501
 93
      500
310
424CD108121A5919195B90640502408333333333333E3BF0000000000000FB01079024090700405020000000000001110200405405064090740C02480A0340
1001
ACAD
1000
AcDbSavedByObjectVersion
1070
     0
  0
ACAD_PROXY_OBJECT
  5
30
102
{ACAD_REACTORS
330
2A
102
}
330
2A
100
AcDbProxyObject
 90
      499
 91
      501
 93
      436
310
42CCD915DA5C99599C985B595059028333333333333E3BF0000000000000FB0107901411070040501600405405064090741402480A0340
1001
ACAD
1000
AcDbSavedByObjectVersion
1070
     0
  0
ACAD_PROXY_OBJECT
  5
32
102
{ACAD_REACTORS
330
2A
102
}
330
2A
100
AcDbProxyObject
 90
      499
 91
      501
 93
      388
310
4150985CDA58D07406404333333333333E3BF0000000000000FB0107A41107004050150841D405064090741402480A0350
1001
ACAD
1000
AcDbSavedByObjectVersion
1070
     0
  0
ACAD_PROXY_OBJECT
  5
36
102
{ACAD_REACTORS
330
2A
102
}
330
2A
100
AcDbProxyObject
 90
      499
 91
      501
 93
      428
310
42109C9A59DA1D195B90C409028333333333333E3BF0000000000000FB010790141107004050150841D405064090741402480A029950
1001
ACAD
1000
AcDbSavedByObjectVersion
1070
     0
  0
ACAD_PROXY_OBJECT
  5
3A
102
{ACAD_REACTORS
330
2A
102
}
330
2A
100
AcDbProxyObject
 90
      499
 91
      501
 93
      452
310
42D0DBDB1BDC90DA185B99D95104090240C333333333333E3BF0000000000000FB0108901411070040501508421405064090741402480A0350
1001
ACAD
1000
AcDbSavedByObjectVersion
1070
     0
  0
ACAD_PROXY_OBJECT
  5
34
102
{ACAD_REACTORS
330
2A
102
}
330
2A
100
AcDbProxyObject
 90
      499
 91
      501
 93
      500
310
4290DBDB98D95C1D1D585B10940D028333333333333E3BF0000000000000FB0107902409070040501000000000000111010841D405064090740C02480A0340
1001
ACAD
1000
AcDbSavedByObjectVersion
1070
     0
  0
ACAD_PROXY_OBJECT
  5
35
102
{ACAD_REACTORS
330
2A
102
}
330
2A
100
AcDbProxyObject
 90
      499
 91
      501
 93
      412
310
40D11A5B50B409028333333333333E3BF0000000000000FB010790141107004050150841D405064090741402480A02677FFFFFD0
1001
ACAD
1000
AcDbSavedByObjectVersion
1070
     0
  0
ACAD_PROXY_OBJECT
  5
39
102
{ACAD_REACTORS
330
2A
102
}
330
2A
100
AcDbProxyObject
 90
      499
 91
      501
 93
      444
310
42D19858D95C185D1D195C9B90F409028333333333333E3BF0000000000000FB010790141107004050150841D405064090741402480A0350
1001
ACAD
1000
AcDbSavedByObjectVersion
1070
     0
  0
ACAD_PROXY_OBJECT
  5
2B
102
{ACAD_REACTORS
330
2A
102
}
330
2A
100
AcDbProxyObject
 90
      499
 91
      501
 93
      388
310
41119B185D240901404333333333333E3BF0000000000000F9010740A41107004050150841D405064090741402480A1B50
1001
ACAD
1000
AcDbSavedByObjectVersion
1070
     0
  0
ACAD_PROXY_OBJECT
  5
2C
102
{ACAD_REACTORS
330
2A
102
}
330
2A
100
AcDbProxyObject
 90
      499
 91
      501
 93
      476
310
43519B185D15DA5D1A115919D95CD0140901404333333333333E3BF0000000000000F9010740901411070040501600405405064090741402480A1B50
1001
ACAD
1000
AcDbSavedByObjectVersion
1070
     0
  0
ACAD_PROXY_OBJECT
  5
2D
102
{ACAD_REACTORS
330
2A
102
}
330
2A
100
AcDbProxyObject
 90
      499
 91
      501
 93
      412
310
41D1DBDD5C985D5910240902404333333333333E3BF0000000000000F9010740A411070040501641D405064090741402480A1B50
1001
ACAD
1000
AcDbSavedByObjectVersion
1070
     0
  0
ACAD_PROXY_OBJECT
  5
2E
102
{ACAD_REACTORS
330
2A
102
}
330
2A
100
AcDbProxyObject
 90
      499
 91
      501
 93
      500
310
4411DBDD5C985D5915DA5D1A115919D95CD0340902404333333333333E3BF0000000000000F9010740901411070040501600405405064090741402480A1B50
1001
ACAD
1000
AcDbSavedByObjectVersion
1070
     0
  0
ACAD_PROXY_OBJECT
  5
38
102
{ACAD_REACTORS
330
2A
102
}
330
2A
100
AcDbProxyObject
 90
      499
 91
      501
 93
      444
310
42D31A5B995C185D1D195C9B90E409028333333333333E3BF0000000000000FB010790141107004050750841D405064090741402483A0350
1001
ACAD
1000
AcDbSavedByObjectVersion
1070
     0
  0
ACAD_PROXY_OBJECT
  5
33
102
{ACAD_REACTORS
330
2A
102
}
330
2A
100
AcDbProxyObject
 90
      499
 91
      501
 93
      420
310
425499585B1A5CDD1A58D08409028333333333333E3BF0000000000000FB01079019070040501508421405064090741402480A1B40
1001
ACAD
1000
AcDbSavedByObjectVersion
1070
     0
  0
ACAD_PROXY_OBJECT
  5
37
102
{ACAD_REACTORS
330
2A
102
}
330
2A
100
AcDbProxyObject
 90
      499
 91
      501
 93
      412
310
41D51A1A58DAD95B90D409028333333333333E3BF0000000000000FB010790141107004050150C41D405064090741402480A0350
1001
ACAD
1000
AcDbSavedByObjectVersion
1070
     0
  0
XRECORD
  5
109
102
{ACAD_REACTORS
330
100
102
}
330
100
100
AcDbXrecord
 90
        0
  0
XRECORD
  5
11F
102
{ACAD_REACTORS
330
100
102
}
330
100
100
AcDbXrecord
1000
DSTYLE
1002
{
1070
   340
340
11
1002
}
  0
XRECORD
  5
10A
102
{ACAD_REACTORS
330
100
102
}
330
100
100
AcDbXrecord
  1
{5C9E7078-859E-44EE-BF6F-A84FE08C6063}
  0
XRECORD
  5
103
102
{ACAD_REACTORS
330
100
102
}
330
100
100
AcDbXrecord
  1

  0
XRECORD
  5
108
102
{ACAD_REACTORS
330
100
102
}
330
100
100
AcDbXrecord
 90
        4
  0
XRECORD
  5
105
102
{ACAD_REACTORS
330
100
102
}
330
100
100
AcDbXrecord
340
1A
  0
XRECORD
  5
107
102
{ACAD_REACTORS
330
100
102
}
330
100
100
AcDbXrecord
 90
    10781
  0
XRECORD
  5
106
102
{ACAD_REACTORS
330
100
102
}
330
100
100
AcDbXrecord
340
19
  0
XRECORD
  5
10C
102
{ACAD_REACTORS
330
100
102
}
330
100
100
AcDbXrecord
 40
0.0
  0
XRECORD
  5
10F
102
{ACAD_REACTORS
330
100
102
}
330
100
100
AcDbXrecord
340
0
  0
XRECORD
  5
115
102
{ACAD_REACTORS
330
100
102
}
330
100
100
AcDbXrecord
 10
0.0
 20
0.0
 30
0.0
  0
XRECORD
  5
111
102
{ACAD_REACTORS
330
100
102
}
330
100
100
AcDbXrecord
 10
0.0
 20
0.0
 30
0.0
  0
XRECORD
  5
114
102
{ACAD_REACTORS
330
100
102
}
330
100
100
AcDbXrecord
 10
0.0
 20
0.0
 30
0.0
  0
XRECORD
  5
112
102
{ACAD_REACTORS
330
100
102
}
330
100
100
AcDbXrecord
 10
0.0
 20
0.0
 30
0.0
  0
XRECORD
  5
113
102
{ACAD_REACTORS
330
100
102
}
330
100
100
AcDbXrecord
 10
0.0
 20
0.0
 30
0.0
  0
XRECORD
  5
110
102
{ACAD_REACTORS
330
100
102
}
330
100
100
AcDbXrecord
 10
0.0
 20
0.0
 30
0.0
  0
XRECORD
  5
10D
102
{ACAD_REACTORS
330
100
102
}
330
100
100
AcDbXrecord
340
0
  0
XRECORD
  5
10E
102
{ACAD_REACTORS
330
100
102
}
330
100
100
AcDbXrecord
 70
     0
  0
XRECORD
  5
104
102
{ACAD_REACTORS
330
100
102
}
330
100
100
AcDbXrecord
  1

  0
XRECORD
  5
101
102
{ACAD_REACTORS
330
100
102
}
330
100
100
AcDbXrecord
 90
        1
  0
XRECORD
  5
102
102
{ACAD_REACTORS
330
100
102
}
330
100
100
AcDbXrecord
 90
       70
  0
XRECORD
  5
118
102
{ACAD_REACTORS
330
100
102
}
330
100
100
AcDbXrecord
340
0
  0
XRECORD
  5
11E
102
{ACAD_REACTORS
330
100
102
}
330
100
100
AcDbXrecord
 10
0.0
 20
0.0
 30
0.0
  0
XRECORD
  5
11A
102
{ACAD_REACTORS
330
100
102
}
330
100
100
AcDbXrecord
 10
0.0
 20
0.0
 30
0.0
  0
XRECORD
  5
11D
102
{ACAD_REACTORS
330
100
102
}
330
100
100
AcDbXrecord
 10
0.0
 20
0.0
 30
0.0
  0
XRECORD
  5
11B
102
{ACAD_REACTORS
330
100
102
}
330
100
100
AcDbXrecord
 10
0.0
 20
0.0
 30
0.0
  0
XRECORD
  5
11C
102
{ACAD_REACTORS
330
100
102
}
330
100
100
AcDbXrecord
 10
0.0
 20
0.0
 30
0.0
  0
XRECORD
  5
119
102
{ACAD_REACTORS
330
100
102
}
330
100
100
AcDbXrecord
 10
0.0
 20
0.0
 30
0.0
  0
XRECORD
  5
116
102
{ACAD_REACTORS
330
100
102
}
330
100
100
AcDbXrecord
340
0
  0
XRECORD
  5
117
102
{ACAD_REACTORS
330
100
102
}
330
100
100
AcDbXrecord
 70
     0
  0
XRECORD
  5
10B
102
{ACAD_REACTORS
330
100
102
}
330
100
100
AcDbXrecord
  1
{FAEB1C32-E019-11D5-929B-00C0DF256EC4}
  0
DICTIONARYVAR
  5
123
102
{ACAD_REACTORS
330
120
102
}
330
120
100
DictionaryVariables
280
     0
  1
2
  0
DICTIONARYVAR
  5
124
102
{ACAD_REACTORS
330
120
102
}
330
120
100
DictionaryVariables
280
     0
  1
1
  0
DICTIONARY
  5
127
330
3D
100
AcDbDictionary
280
     1
  3
ACAD_XREC_ROUNDTRIP
360
128
  0
DICTIONARY
  5
125
330
3C
100
AcDbDictionary
280
     1
  3
ACAD_XREC_ROUNDTRIP
360
126
  0
DICTIONARY
  5
129
330
3E
100
AcDbDictionary
280
     1
  3
ACAD_XREC_ROUNDTRIP
360
12A
  0
XRECORD
  5
128
102
{ACAD_REACTORS
330
127
102
}
330
127
100
AcDbXrecord
102
MATERIAL
148
0.0
149
0.0
149
0.0
 93
        0
 94
      127
282
     0
 72
     1
 77
     1
171
     1
175
     1
179
     1
273
     0
  0
XRECORD
  5
126
102
{ACAD_REACTORS
330
125
102
}
330
125
100
AcDbXrecord
102
MATERIAL
148
0.0
149
0.0
149
0.0
 93
        0
 94
      127
282
     0
 72
     1
 77
     1
171
     1
175
     1
179
     1
273
     0
  0
XRECORD
  5
12A
102
{ACAD_REACTORS
330
129
102
}
330
129
100
AcDbXrecord
102
MATERIAL
148
0.0
149
0.0
149
0.0
 93
        0
 94
      127
282
     0
 72
     1
 77
     1
171
     1
175
     1
179
     1
273
     0
  0
ENDSEC
  0
EOF
