  0
SECTION
  2
HEADER
  9
$ACADVER
  1
AC1015
  9
$ACADMAINTVER
 70
     6
  9
$DWGCODEPAGE
  3
ANSI_1250
  9
$INSBASE
 10
0.0
 20
0.0
 30
0.0
  9
$EXTMIN
 10
-33.5922
 20
-25.2624
 30
0.0
  9
$EXTMAX
 10
33.5922
 20
25.1214
 30
0.0
  9
$LIMMIN
 10
0.0
 20
0.0
  9
$LIMMAX
 10
12.0
 20
9.0
  9
$ORTHOMODE
 70
     0
  9
$REGENMODE
 70
     1
  9
$FILLMODE
 70
     1
  9
$QTEXTMODE
 70
     0
  9
$MIRRTEXT
 70
     1
  9
$LTSCALE
 40
1.0
  9
$ATTMODE
 70
     1
  9
$TEXTSIZE
 40
0.2
  9
$TRACEWID
 40
0.05
  9
$TEXTSTYLE
  7
Standard
  9
$CLAYER
  8
0
  9
$CELTYPE
  6
ByLayer
  9
$CECOLOR
 62
   256
  9
$CELTSCALE
 40
1.0
  9
$DISPSILH
 70
     0
  9
$DIMSCALE
 40
1.0
  9
$DIMASZ
 40
0.18
  9
$DIMEXO
 40
0.0625
  9
$DIMDLI
 40
0.38
  9
$DIMRND
 40
0.0
  9
$DIMDLE
 40
0.0
  9
$DIMEXE
 40
0.18
  9
$DIMTP
 40
0.0
  9
$DIMTM
 40
0.0
  9
$DIMTXT
 40
0.18
  9
$DIMCEN
 40
0.09
  9
$DIMTSZ
 40
0.0
  9
$DIMTOL
 70
     0
  9
$DIMLIM
 70
     0
  9
$DIMTIH
 70
     1
  9
$DIMTOH
 70
     1
  9
$DIMSE1
 70
     0
  9
$DIMSE2
 70
     0
  9
$DIMTAD
 70
     0
  9
$DIMZIN
 70
     0
  9
$DIMBLK
  1

  9
$DIMASO
 70
     1
  9
$DIMSHO
 70
     1
  9
$DIMPOST
  1

  9
$DIMAPOST
  1

  9
$DIMALT
 70
     0
  9
$DIMALTD
 70
     2
  9
$DIMALTF
 40
25.4
  9
$DIMLFAC
 40
1.0
  9
$DIMTOFL
 70
     0
  9
$DIMTVP
 40
0.0
  9
$DIMTIX
 70
     0
  9
$DIMSOXD
 70
     0
  9
$DIMSAH
 70
     0
  9
$DIMBLK1
  1

  9
$DIMBLK2
  1

  9
$DIMSTYLE
  2
Standard
  9
$DIMCLRD
 70
     0
  9
$DIMCLRE
 70
     0
  9
$DIMCLRT
 70
     0
  9
$DIMTFAC
 40
1.0
  9
$DIMGAP
 40
0.09
  9
$DIMJUST
 70
     0
  9
$DIMSD1
 70
     0
  9
$DIMSD2
 70
     0
  9
$DIMTOLJ
 70
     1
  9
$DIMTZIN
 70
     0
  9
$DIMALTZ
 70
     0
  9
$DIMALTTZ
 70
     0
  9
$DIMUPT
 70
     0
  9
$DIMDEC
 70
     4
  9
$DIMTDEC
 70
     4
  9
$DIMALTU
 70
     2
  9
$DIMALTTD
 70
     2
  9
$DIMTXSTY
  7
Standard
  9
$DIMAUNIT
 70
     0
  9
$DIMADEC
 70
     0
  9
$DIMALTRND
 40
0.0
  9
$DIMAZIN
 70
     0
  9
$DIMDSEP
 70
    46
  9
$DIMATFIT
 70
     3
  9
$DIMFRAC
 70
     0
  9
$DIMLDRBLK
  1

  9
$DIMLUNIT
 70
     2
  9
$DIMLWD
 70
    -2
  9
$DIMLWE
 70
    -2
  9
$DIMTMOVE
 70
     0
  9
$LUNITS
 70
     2
  9
$LUPREC
 70
     4
  9
$SKETCHINC
 40
0.1
  9
$FILLETRAD
 40
0.5
  9
$AUNITS
 70
     0
  9
$AUPREC
 70
     0
  9
$MENU
  1
.
  9
$ELEVATION
 40
0.0
  9
$PELEVATION
 40
0.0
  9
$THICKNESS
 40
0.0
  9
$LIMCHECK
 70
     0
  9
$CHAMFERA
 40
0.5
  9
$CHAMFERB
 40
0.5
  9
$CHAMFERC
 40
1.0
  9
$CHAMFERD
 40
0.0
  9
$SKPOLY
 70
     0
  9
$TDCREATE
 40
2458129.438881447
  9
$TDUCREATE
 40
2458129.39721478
  9
$TDUPDATE
 40
2458129.438881458
  9
$TDUUPDATE
 40
2458129.397214792
  9
$TDINDWG
 40
0.0000000116
  9
$TDUSRTIMER
 40
0.0000000116
  9
$USRTIMER
 70
     1
  9
$ANGBASE
 50
0.0
  9
$ANGDIR
 70
     0
  9
$PDMODE
 70
     0
  9
$PDSIZE
 40
0.0
  9
$PLINEWID
 40
0.0
  9
$SPLFRAME
 70
     0
  9
$SPLINETYPE
 70
     6
  9
$SPLINESEGS
 70
     8
  9
$HANDSEED
  5
10D
  9
$SURFTAB1
 70
     6
  9
$SURFTAB2
 70
     6
  9
$SURFTYPE
 70
     6
  9
$SURFU
 70
     6
  9
$SURFV
 70
     6
  9
$UCSBASE
  2

  9
$UCSNAME
  2

  9
$UCSORG
 10
0.0
 20
0.0
 30
0.0
  9
$UCSXDIR
 10
1.0
 20
0.0
 30
0.0
  9
$UCSYDIR
 10
0.0
 20
1.0
 30
0.0
  9
$UCSORTHOREF
  2

  9
$UCSORTHOVIEW
 70
     0
  9
$UCSORGTOP
 10
0.0
 20
0.0
 30
0.0
  9
$UCSORGBOTTOM
 10
0.0
 20
0.0
 30
0.0
  9
$UCSORGLEFT
 10
0.0
 20
0.0
 30
0.0
  9
$UCSORGRIGHT
 10
0.0
 20
0.0
 30
0.0
  9
$UCSORGFRONT
 10
0.0
 20
0.0
 30
0.0
  9
$UCSORGBACK
 10
0.0
 20
0.0
 30
0.0
  9
$PUCSBASE
  2

  9
$PUCSNAME
  2

  9
$PUCSORG
 10
0.0
 20
0.0
 30
0.0
  9
$PUCSXDIR
 10
1.0
 20
0.0
 30
0.0
  9
$PUCSYDIR
 10
0.0
 20
1.0
 30
0.0
  9
$PUCSORTHOREF
  2

  9
$PUCSORTHOVIEW
 70
     0
  9
$PUCSORGTOP
 10
0.0
 20
0.0
 30
0.0
  9
$PUCSORGBOTTOM
 10
0.0
 20
0.0
 30
0.0
  9
$PUCSORGLEFT
 10
0.0
 20
0.0
 30
0.0
  9
$PUCSORGRIGHT
 10
0.0
 20
0.0
 30
0.0
  9
$PUCSORGFRONT
 10
0.0
 20
0.0
 30
0.0
  9
$PUCSORGBACK
 10
0.0
 20
0.0
 30
0.0
  9
$USERI1
 70
     0
  9
$USERI2
 70
     0
  9
$USERI3
 70
     0
  9
$USERI4
 70
     0
  9
$USERI5
 70
     0
  9
$USERR1
 40
0.0
  9
$USERR2
 40
0.0
  9
$USERR3
 40
0.0
  9
$USERR4
 40
0.0
  9
$USERR5
 40
0.0
  9
$WORLDVIEW
 70
     1
  9
$SHADEDGE
 70
     3
  9
$SHADEDIF
 70
    70
  9
$TILEMODE
 70
     1
  9
$MAXACTVP
 70
    64
  9
$PINSBASE
 10
0.0
 20
0.0
 30
0.0
  9
$PLIMCHECK
 70
     0
  9
$PEXTMIN
 10
1.000000000000000E+20
 20
1.000000000000000E+20
 30
1.000000000000000E+20
  9
$PEXTMAX
 10
-1.000000000000000E+20
 20
-1.000000000000000E+20
 30
-1.000000000000000E+20
  9
$PLIMMIN
 10
0.0
 20
0.0
  9
$PLIMMAX
 10
12.0
 20
9.0
  9
$UNITMODE
 70
     0
  9
$VISRETAIN
 70
     1
  9
$PLINEGEN
 70
     0
  9
$PSLTSCALE
 70
     1
  9
$TREEDEPTH
 70
  3020
  9
$CMLSTYLE
  2
Standard
  9
$CMLJUST
 70
     0
  9
$CMLSCALE
 40
1.0
  9
$PROXYGRAPHICS
 70
     1
  9
$MEASUREMENT
 70
     0
  9
$CELWEIGHT
370
    -1
  9
$ENDCAPS
280
     0
  9
$JOINSTYLE
280
     0
  9
$LWDISPLAY
290
     0
  9
$INSUNITS
 70
     4
  9
$HYPERLINKBASE
  1

  9
$STYLESHEET
  1

  9
$XEDIT
290
     1
  9
$CEPSNTYPE
380
     0
  9
$PSTYLEMODE
290
     1
  9
$FINGERPRINTGUID
  2
{1A7E45F9-D048-4F1D-A734-51D3712C9A45}
  9
$VERSIONGUID
  2
{FAEB1C32-E019-11D5-929B-00C0DF256EC4}
  9
$EXTNAMES
290
     1
  9
$PSVPSCALE
 40
0.0
  9
$OLESTARTUP
290
     0
  0
ENDSEC
  0
SECTION
  2
CLASSES
  0
CLASS
  1
ACDBDICTIONARYWDFLT
  2
AcDbDictionaryWithDefault
  3
ObjectDBX Classes
 90
        0
280
     0
281
     0
  0
CLASS
  1
VISUALSTYLE
  2
AcDbVisualStyle
  3
ObjectDBX Classes
 90
     4095
280
     0
281
     0
  0
CLASS
  1
MATERIAL
  2
AcDbMaterial
  3
ObjectDBX Classes
 90
     1153
280
     0
281
     0
  0
CLASS
  1
SCALE
  2
AcDbScale
  3
ObjectDBX Classes
 90
     1153
280
     0
281
     0
  0
CLASS
  1
DICTIONARYVAR
  2
AcDbDictionaryVar
  3
ObjectDBX Classes
 90
        0
280
     0
281
     0
  0
CLASS
  1
ACDBPLACEHOLDER
  2
AcDbPlaceHolder
  3
ObjectDBX Classes
 90
        0
280
     0
281
     0
  0
CLASS
  1
LAYOUT
  2
AcDbLayout
  3
ObjectDBX Classes
 90
        0
280
     0
281
     0
  0
ENDSEC
  0
SECTION
  2
TABLES
  0
TABLE
  2
VPORT
  5
8
330
0
100
AcDbSymbolTable
 70
     1
  0
VPORT
  5
29
330
8
100
AcDbSymbolTableRecord
100
AcDbViewportTableRecord
  2
*Active
 70
     0
 10
0.0
 20
0.0
 11
1.0
 21
1.0
 12
10.42990654205607
 22
4.5
 13
0.0
 23
0.0
 14
0.5
 24
0.5
 15
0.5
 25
0.5
 16
0.0
 26
0.0
 36
1.0
 17
0.0
 27
0.0
 37
0.0
 40
9.0
 41
1.972972972850329
 42
50.0
 43
0.0
 44
0.0
 50
0.0
 51
0.0
 71
     0
 72
   100
 73
     1
 74
     3
 75
     0
 76
     0
 77
     0
 78
     0
281
     0
 65
     1
110
0.0
120
0.0
130
0.0
111
1.0
121
0.0
131
0.0
112
0.0
122
1.0
132
0.0
 79
     0
146
0.0
  0
ENDTAB
  0
TABLE
  2
LTYPE
  5
5
330
0
100
AcDbSymbolTable
 70
     1
  0
LTYPE
  5
14
330
5
100
AcDbSymbolTableRecord
100
AcDbLinetypeTableRecord
  2
ByBlock
 70
     0
  3

 72
    65
 73
     0
 40
0.0
  0
LTYPE
  5
15
330
5
100
AcDbSymbolTableRecord
100
AcDbLinetypeTableRecord
  2
ByLayer
 70
     0
  3

 72
    65
 73
     0
 40
0.0
  0
LTYPE
  5
16
330
5
100
AcDbSymbolTableRecord
100
AcDbLinetypeTableRecord
  2
Continuous
 70
     0
  3
Solid line
 72
    65
 73
     0
 40
0.0
  0
ENDTAB
  0
TABLE
  2
LAYER
  5
2
330
0
100
AcDbSymbolTable
 70
     2
  0
LAYER
  5
10
330
2
100
AcDbSymbolTableRecord
100
AcDbLayerTableRecord
  2
0
 70
     0
 62
     7
  6
Continuous
370
    -3
390
F
  0
LAYER
  5
40
330
2
100
AcDbSymbolTableRecord
100
AcDbLayerTableRecord
  2
Ilustrace
 70
     0
 62
     7
  6
Continuous
370
    -3
390
F
  0
ENDTAB
  0
TABLE
  2
STYLE
  5
3
330
0
100
AcDbSymbolTable
 70
     3
  0
STYLE
  5
11
330
3
100
AcDbSymbolTableRecord
100
AcDbTextStyleTableRecord
  2
Standard
 70
     0
 40
0.0
 41
1.0
 50
0.0
 71
     0
 42
0.2
  3
txt
  4

  0
STYLE
  5
AE
330
3
100
AcDbSymbolTableRecord
100
AcDbTextStyleTableRecord
  2
0
 70
     0
 40
1.0
 41
1.0
 50
0.0
 71
     0
 42
1.0
  3
Myriad Pro
  4

1001
ACAD
1000
Myriad Pro
1071
       34
  0
STYLE
  5
D9
330
3
100
AcDbSymbolTableRecord
100
AcDbTextStyleTableRecord
  2
1
 70
     0
 40
1.0
 41
1.0
 50
0.0
 71
     0
 42
1.0
  3
Myriad Pro
  4

1001
ACAD
1000
Myriad Pro
1071
    60962
  0
ENDTAB
  0
TABLE
  2
VIEW
  5
6
330
0
100
AcDbSymbolTable
 70
     0
  0
ENDTAB
  0
TABLE
  2
UCS
  5
7
330
0
100
AcDbSymbolTable
 70
     0
  0
ENDTAB
  0
TABLE
  2
APPID
  5
9
330
0
100
AcDbSymbolTable
 70
     2
  0
APPID
  5
12
330
9
100
AcDbSymbolTableRecord
100
AcDbRegAppTableRecord
  2
ACAD
 70
     0
  0
APPID
  5
3F
330
9
100
AcDbSymbolTableRecord
100
AcDbRegAppTableRecord
  2
ODA
 70
     0
  0
ENDTAB
  0
TABLE
  2
DIMSTYLE
  5
A
330
0
100
AcDbSymbolTable
 70
     1
100
AcDbDimStyleTable
  0
DIMSTYLE
105
27
330
A
100
AcDbSymbolTableRecord
100
AcDbDimStyleTableRecord
  2
Standard
 70
     0
340
11
  0
ENDTAB
  0
TABLE
  2
BLOCK_RECORD
  5
1
330
0
100
AcDbSymbolTable
 70
     1
  0
BLOCK_RECORD
  5
1F
330
1
100
AcDbSymbolTableRecord
100
AcDbBlockTableRecord
  2
*Model_Space
340
22
  0
BLOCK_RECORD
  5
1B
330
1
100
AcDbSymbolTableRecord
100
AcDbBlockTableRecord
  2
*Paper_Space
340
1E
  0
BLOCK_RECORD
  5
23
330
1
100
AcDbSymbolTableRecord
100
AcDbBlockTableRecord
  2
*Paper_Space0
340
26
  0
ENDTAB
  0
ENDSEC
  0
SECTION
  2
BLOCKS
  0
BLOCK
  5
20
330
1F
100
AcDbEntity
  8
0
100
AcDbBlockBegin
  2
*Model_Space
 70
     0
 10
0.0
 20
0.0
 30
0.0
  3
*Model_Space
  1

  0
ENDBLK
  5
21
330
1F
100
AcDbEntity
  8
0
100
AcDbBlockEnd
  0
BLOCK
  5
1C
330
1B
100
AcDbEntity
 67
     1
  8
0
100
AcDbBlockBegin
  2
*Paper_Space
 70
     0
 10
0.0
 20
0.0
 30
0.0
  3
*Paper_Space
  1

  0
ENDBLK
  5
1D
330
1B
100
AcDbEntity
 67
     1
  8
0
100
AcDbBlockEnd
  0
BLOCK
  5
24
330
23
100
AcDbEntity
  8
0
100
AcDbBlockBegin
  2
*Paper_Space0
 70
     0
 10
0.0
 20
0.0
 30
0.0
  3
*Paper_Space0
  1

  0
ENDBLK
  5
25
330
23
100
AcDbEntity
  8
0
100
AcDbBlockEnd
  0
ENDSEC
  0
SECTION
  2
ENTITIES
  0
SPLINE
  5
41
330
1F
100
AcDbEntity
  8
Ilustrace
 62
   254
100
AcDbSpline
210
0.0
220
0.0
230
1.0
 70
    11
 71
     3
 72
   816
 73
   812
 74
     0
 42
0.0000000001
 43
0.0000000001
 40
0.0
 40
0.0
 40
0.0
 40
0.0
 40
0.0049019607843137
 40
0.0049019607843137
 40
0.0049019607843137
 40
0.0049019607843137
 40
0.0098039215686275
 40
0.0098039215686275
 40
0.0098039215686275
 40
0.0098039215686275
 40
0.0147058823529412
 40
0.0147058823529412
 40
0.0147058823529412
 40
0.0147058823529412
 40
0.0196078431372549
 40
0.0196078431372549
 40
0.0196078431372549
 40
0.0196078431372549
 40
0.0245098039215686
 40
0.0245098039215686
 40
0.0245098039215686
 40
0.0245098039215686
 40
0.0294117647058824
 40
0.0294117647058824
 40
0.0294117647058824
 40
0.0294117647058824
 40
0.0343137254901961
 40
0.0343137254901961
 40
0.0343137254901961
 40
0.0343137254901961
 40
0.0392156862745098
 40
0.0392156862745098
 40
0.0392156862745098
 40
0.0392156862745098
 40
0.0441176470588235
 40
0.0441176470588235
 40
0.0441176470588235
 40
0.0441176470588235
 40
0.0490196078431373
 40
0.0490196078431373
 40
0.0490196078431373
 40
0.0490196078431373
 40
0.053921568627451
 40
0.053921568627451
 40
0.053921568627451
 40
0.053921568627451
 40
0.0588235294117647
 40
0.0588235294117647
 40
0.0588235294117647
 40
0.0588235294117647
 40
0.0637254901960784
 40
0.0637254901960784
 40
0.0637254901960784
 40
0.0637254901960784
 40
0.0686274509803922
 40
0.0686274509803922
 40
0.0686274509803922
 40
0.0686274509803922
 40
0.0735294117647059
 40
0.0735294117647059
 40
0.0735294117647059
 40
0.0735294117647059
 40
0.0784313725490196
 40
0.0784313725490196
 40
0.0784313725490196
 40
0.0784313725490196
 40
0.0833333333333333
 40
0.0833333333333333
 40
0.0833333333333333
 40
0.0833333333333333
 40
0.0882352941176471
 40
0.0882352941176471
 40
0.0882352941176471
 40
0.0882352941176471
 40
0.0931372549019608
 40
0.0931372549019608
 40
0.0931372549019608
 40
0.0931372549019608
 40
0.0980392156862745
 40
0.0980392156862745
 40
0.0980392156862745
 40
0.0980392156862745
 40
0.1029411764705882
 40
0.1029411764705882
 40
0.1029411764705882
 40
0.1029411764705882
 40
0.107843137254902
 40
0.107843137254902
 40
0.107843137254902
 40
0.107843137254902
 40
0.1127450980392157
 40
0.1127450980392157
 40
0.1127450980392157
 40
0.1127450980392157
 40
0.1176470588235294
 40
0.1176470588235294
 40
0.1176470588235294
 40
0.1176470588235294
 40
0.1225490196078431
 40
0.1225490196078431
 40
0.1225490196078431
 40
0.1225490196078431
 40
0.1274509803921569
 40
0.1274509803921569
 40
0.1274509803921569
 40
0.1274509803921569
 40
0.1323529411764706
 40
0.1323529411764706
 40
0.1323529411764706
 40
0.1323529411764706
 40
0.1372549019607843
 40
0.1372549019607843
 40
0.1372549019607843
 40
0.1372549019607843
 40
0.142156862745098
 40
0.142156862745098
 40
0.142156862745098
 40
0.142156862745098
 40
0.1470588235294118
 40
0.1470588235294118
 40
0.1470588235294118
 40
0.1470588235294118
 40
0.1519607843137255
 40
0.1519607843137255
 40
0.1519607843137255
 40
0.1519607843137255
 40
0.1568627450980392
 40
0.1568627450980392
 40
0.1568627450980392
 40
0.1568627450980392
 40
0.1617647058823529
 40
0.1617647058823529
 40
0.1617647058823529
 40
0.1617647058823529
 40
0.1666666666666667
 40
0.1666666666666667
 40
0.1666666666666667
 40
0.1666666666666667
 40
0.1715686274509804
 40
0.1715686274509804
 40
0.1715686274509804
 40
0.1715686274509804
 40
0.1764705882352941
 40
0.1764705882352941
 40
0.1764705882352941
 40
0.1764705882352941
 40
0.1813725490196078
 40
0.1813725490196078
 40
0.1813725490196078
 40
0.1813725490196078
 40
0.1862745098039216
 40
0.1862745098039216
 40
0.1862745098039216
 40
0.1862745098039216
 40
0.1911764705882353
 40
0.1911764705882353
 40
0.1911764705882353
 40
0.1911764705882353
 40
0.196078431372549
 40
0.196078431372549
 40
0.196078431372549
 40
0.196078431372549
 40
0.2009803921568628
 40
0.2009803921568628
 40
0.2009803921568628
 40
0.2009803921568628
 40
0.2058823529411765
 40
0.2058823529411765
 40
0.2058823529411765
 40
0.2058823529411765
 40
0.2107843137254902
 40
0.2107843137254902
 40
0.2107843137254902
 40
0.2107843137254902
 40
0.2156862745098039
 40
0.2156862745098039
 40
0.2156862745098039
 40
0.2156862745098039
 40
0.2205882352941176
 40
0.2205882352941176
 40
0.2205882352941176
 40
0.2205882352941176
 40
0.2254901960784314
 40
0.2254901960784314
 40
0.2254901960784314
 40
0.2254901960784314
 40
0.2303921568627451
 40
0.2303921568627451
 40
0.2303921568627451
 40
0.2303921568627451
 40
0.2352941176470588
 40
0.2352941176470588
 40
0.2352941176470588
 40
0.2352941176470588
 40
0.2401960784313726
 40
0.2401960784313726
 40
0.2401960784313726
 40
0.2401960784313726
 40
0.2450980392156863
 40
0.2450980392156863
 40
0.2450980392156863
 40
0.2450980392156863
 40
0.25
 40
0.25
 40
0.25
 40
0.25
 40
0.2549019607843137
 40
0.2549019607843137
 40
0.2549019607843137
 40
0.2549019607843137
 40
0.2598039215686275
 40
0.2598039215686275
 40
0.2598039215686275
 40
0.2598039215686275
 40
0.2647058823529412
 40
0.2647058823529412
 40
0.2647058823529412
 40
0.2647058823529412
 40
0.2696078431372549
 40
0.2696078431372549
 40
0.2696078431372549
 40
0.2696078431372549
 40
0.2745098039215687
 40
0.2745098039215687
 40
0.2745098039215687
 40
0.2745098039215687
 40
0.2794117647058824
 40
0.2794117647058824
 40
0.2794117647058824
 40
0.2794117647058824
 40
0.2843137254901961
 40
0.2843137254901961
 40
0.2843137254901961
 40
0.2843137254901961
 40
0.2892156862745098
 40
0.2892156862745098
 40
0.2892156862745098
 40
0.2892156862745098
 40
0.2941176470588235
 40
0.2941176470588235
 40
0.2941176470588235
 40
0.2941176470588235
 40
0.2990196078431372
 40
0.2990196078431372
 40
0.2990196078431372
 40
0.2990196078431372
 40
0.303921568627451
 40
0.303921568627451
 40
0.303921568627451
 40
0.303921568627451
 40
0.3088235294117647
 40
0.3088235294117647
 40
0.3088235294117647
 40
0.3088235294117647
 40
0.3137254901960784
 40
0.3137254901960784
 40
0.3137254901960784
 40
0.3137254901960784
 40
0.3186274509803921
 40
0.3186274509803921
 40
0.3186274509803921
 40
0.3186274509803921
 40
0.3235294117647059
 40
0.3235294117647059
 40
0.3235294117647059
 40
0.3235294117647059
 40
0.3284313725490196
 40
0.3284313725490196
 40
0.3284313725490196
 40
0.3284313725490196
 40
0.3333333333333333
 40
0.3333333333333333
 40
0.3333333333333333
 40
0.3333333333333333
 40
0.3382352941176471
 40
0.3382352941176471
 40
0.3382352941176471
 40
0.3382352941176471
 40
0.3431372549019608
 40
0.3431372549019608
 40
0.3431372549019608
 40
0.3431372549019608
 40
0.3480392156862745
 40
0.3480392156862745
 40
0.3480392156862745
 40
0.3480392156862745
 40
0.3529411764705883
 40
0.3529411764705883
 40
0.3529411764705883
 40
0.3529411764705883
 40
0.357843137254902
 40
0.357843137254902
 40
0.357843137254902
 40
0.357843137254902
 40
0.3627450980392157
 40
0.3627450980392157
 40
0.3627450980392157
 40
0.3627450980392157
 40
0.3676470588235294
 40
0.3676470588235294
 40
0.3676470588235294
 40
0.3676470588235294
 40
0.3725490196078431
 40
0.3725490196078431
 40
0.3725490196078431
 40
0.3725490196078431
 40
0.3774509803921569
 40
0.3774509803921569
 40
0.3774509803921569
 40
0.3774509803921569
 40
0.3823529411764706
 40
0.3823529411764706
 40
0.3823529411764706
 40
0.3823529411764706
 40
0.3872549019607843
 40
0.3872549019607843
 40
0.3872549019607843
 40
0.3872549019607843
 40
0.392156862745098
 40
0.392156862745098
 40
0.392156862745098
 40
0.392156862745098
 40
0.3970588235294117
 40
0.3970588235294117
 40
0.3970588235294117
 40
0.3970588235294117
 40
0.4019607843137255
 40
0.4019607843137255
 40
0.4019607843137255
 40
0.4019607843137255
 40
0.4068627450980392
 40
0.4068627450980392
 40
0.4068627450980392
 40
0.4068627450980392
 40
0.4117647058823529
 40
0.4117647058823529
 40
0.4117647058823529
 40
0.4117647058823529
 40
0.4166666666666667
 40
0.4166666666666667
 40
0.4166666666666667
 40
0.4166666666666667
 40
0.4215686274509804
 40
0.4215686274509804
 40
0.4215686274509804
 40
0.4215686274509804
 40
0.4264705882352941
 40
0.4264705882352941
 40
0.4264705882352941
 40
0.4264705882352941
 40
0.4313725490196079
 40
0.4313725490196079
 40
0.4313725490196079
 40
0.4313725490196079
 40
0.4362745098039216
 40
0.4362745098039216
 40
0.4362745098039216
 40
0.4362745098039216
 40
0.4411764705882353
 40
0.4411764705882353
 40
0.4411764705882353
 40
0.4411764705882353
 40
0.446078431372549
 40
0.446078431372549
 40
0.446078431372549
 40
0.446078431372549
 40
0.4509803921568628
 40
0.4509803921568628
 40
0.4509803921568628
 40
0.4509803921568628
 40
0.4558823529411765
 40
0.4558823529411765
 40
0.4558823529411765
 40
0.4558823529411765
 40
0.4607843137254902
 40
0.4607843137254902
 40
0.4607843137254902
 40
0.4607843137254902
 40
0.4656862745098039
 40
0.4656862745098039
 40
0.4656862745098039
 40
0.4656862745098039
 40
0.4705882352941176
 40
0.4705882352941176
 40
0.4705882352941176
 40
0.4705882352941176
 40
0.4754901960784313
 40
0.4754901960784313
 40
0.4754901960784313
 40
0.4754901960784313
 40
0.4803921568627451
 40
0.4803921568627451
 40
0.4803921568627451
 40
0.4803921568627451
 40
0.4852941176470588
 40
0.4852941176470588
 40
0.4852941176470588
 40
0.4852941176470588
 40
0.4901960784313725
 40
0.4901960784313725
 40
0.4901960784313725
 40
0.4901960784313725
 40
0.4950980392156863
 40
0.4950980392156863
 40
0.4950980392156863
 40
0.4950980392156863
 40
0.5
 40
0.5
 40
0.5
 40
0.5
 40
0.5049019607843137
 40
0.5049019607843137
 40
0.5049019607843137
 40
0.5049019607843137
 40
0.5098039215686274
 40
0.5098039215686274
 40
0.5098039215686274
 40
0.5098039215686274
 40
0.5147058823529411
 40
0.5147058823529411
 40
0.5147058823529411
 40
0.5147058823529411
 40
0.5196078431372549
 40
0.5196078431372549
 40
0.5196078431372549
 40
0.5196078431372549
 40
0.5245098039215687
 40
0.5245098039215687
 40
0.5245098039215687
 40
0.5245098039215687
 40
0.5294117647058824
 40
0.5294117647058824
 40
0.5294117647058824
 40
0.5294117647058824
 40
0.5343137254901961
 40
0.5343137254901961
 40
0.5343137254901961
 40
0.5343137254901961
 40
0.5392156862745098
 40
0.5392156862745098
 40
0.5392156862745098
 40
0.5392156862745098
 40
0.5441176470588235
 40
0.5441176470588235
 40
0.5441176470588235
 40
0.5441176470588235
 40
0.5490196078431373
 40
0.5490196078431373
 40
0.5490196078431373
 40
0.5490196078431373
 40
0.553921568627451
 40
0.553921568627451
 40
0.553921568627451
 40
0.553921568627451
 40
0.5588235294117647
 40
0.5588235294117647
 40
0.5588235294117647
 40
0.5588235294117647
 40
0.5637254901960784
 40
0.5637254901960784
 40
0.5637254901960784
 40
0.5637254901960784
 40
0.5686274509803921
 40
0.5686274509803921
 40
0.5686274509803921
 40
0.5686274509803921
 40
0.5735294117647058
 40
0.5735294117647058
 40
0.5735294117647058
 40
0.5735294117647058
 40
0.5784313725490197
 40
0.5784313725490197
 40
0.5784313725490197
 40
0.5784313725490197
 40
0.5833333333333334
 40
0.5833333333333334
 40
0.5833333333333334
 40
0.5833333333333334
 40
0.5882352941176471
 40
0.5882352941176471
 40
0.5882352941176471
 40
0.5882352941176471
 40
0.5931372549019608
 40
0.5931372549019608
 40
0.5931372549019608
 40
0.5931372549019608
 40
0.5980392156862745
 40
0.5980392156862745
 40
0.5980392156862745
 40
0.5980392156862745
 40
0.6029411764705882
 40
0.6029411764705882
 40
0.6029411764705882
 40
0.6029411764705882
 40
0.6078431372549019
 40
0.6078431372549019
 40
0.6078431372549019
 40
0.6078431372549019
 40
0.6127450980392157
 40
0.6127450980392157
 40
0.6127450980392157
 40
0.6127450980392157
 40
0.6176470588235294
 40
0.6176470588235294
 40
0.6176470588235294
 40
0.6176470588235294
 40
0.6225490196078431
 40
0.6225490196078431
 40
0.6225490196078431
 40
0.6225490196078431
 40
0.6274509803921569
 40
0.6274509803921569
 40
0.6274509803921569
 40
0.6274509803921569
 40
0.6323529411764706
 40
0.6323529411764706
 40
0.6323529411764706
 40
0.6323529411764706
 40
0.6372549019607843
 40
0.6372549019607843
 40
0.6372549019607843
 40
0.6372549019607843
 40
0.6421568627450981
 40
0.6421568627450981
 40
0.6421568627450981
 40
0.6421568627450981
 40
0.6470588235294118
 40
0.6470588235294118
 40
0.6470588235294118
 40
0.6470588235294118
 40
0.6519607843137255
 40
0.6519607843137255
 40
0.6519607843137255
 40
0.6519607843137255
 40
0.6568627450980392
 40
0.6568627450980392
 40
0.6568627450980392
 40
0.6568627450980392
 40
0.6617647058823529
 40
0.6617647058823529
 40
0.6617647058823529
 40
0.6617647058823529
 40
0.6666666666666666
 40
0.6666666666666666
 40
0.6666666666666666
 40
0.6666666666666666
 40
0.6715686274509803
 40
0.6715686274509803
 40
0.6715686274509803
 40
0.6715686274509803
 40
0.6764705882352942
 40
0.6764705882352942
 40
0.6764705882352942
 40
0.6764705882352942
 40
0.6813725490196079
 40
0.6813725490196079
 40
0.6813725490196079
 40
0.6813725490196079
 40
0.6862745098039216
 40
0.6862745098039216
 40
0.6862745098039216
 40
0.6862745098039216
 40
0.6911764705882353
 40
0.6911764705882353
 40
0.6911764705882353
 40
0.6911764705882353
 40
0.696078431372549
 40
0.696078431372549
 40
0.696078431372549
 40
0.696078431372549
 40
0.7009803921568627
 40
0.7009803921568627
 40
0.7009803921568627
 40
0.7009803921568627
 40
0.7058823529411765
 40
0.7058823529411765
 40
0.7058823529411765
 40
0.7058823529411765
 40
0.7107843137254902
 40
0.7107843137254902
 40
0.7107843137254902
 40
0.7107843137254902
 40
0.7156862745098039
 40
0.7156862745098039
 40
0.7156862745098039
 40
0.7156862745098039
 40
0.7205882352941176
 40
0.7205882352941176
 40
0.7205882352941176
 40
0.7205882352941176
 40
0.7254901960784313
 40
0.7254901960784313
 40
0.7254901960784313
 40
0.7254901960784313
 40
0.7303921568627451
 40
0.7303921568627451
 40
0.7303921568627451
 40
0.7303921568627451
 40
0.7352941176470589
 40
0.7352941176470589
 40
0.7352941176470589
 40
0.7352941176470589
 40
0.7401960784313726
 40
0.7401960784313726
 40
0.7401960784313726
 40
0.7401960784313726
 40
0.7450980392156863
 40
0.7450980392156863
 40
0.7450980392156863
 40
0.7450980392156863
 40
0.75
 40
0.75
 40
0.75
 40
0.75
 40
0.7549019607843137
 40
0.7549019607843137
 40
0.7549019607843137
 40
0.7549019607843137
 40
0.7598039215686274
 40
0.7598039215686274
 40
0.7598039215686274
 40
0.7598039215686274
 40
0.7647058823529411
 40
0.7647058823529411
 40
0.7647058823529411
 40
0.7647058823529411
 40
0.7696078431372549
 40
0.7696078431372549
 40
0.7696078431372549
 40
0.7696078431372549
 40
0.7745098039215687
 40
0.7745098039215687
 40
0.7745098039215687
 40
0.7745098039215687
 40
0.7794117647058824
 40
0.7794117647058824
 40
0.7794117647058824
 40
0.7794117647058824
 40
0.7843137254901961
 40
0.7843137254901961
 40
0.7843137254901961
 40
0.7843137254901961
 40
0.7892156862745098
 40
0.7892156862745098
 40
0.7892156862745098
 40
0.7892156862745098
 40
0.7941176470588235
 40
0.7941176470588235
 40
0.7941176470588235
 40
0.7941176470588235
 40
0.7990196078431373
 40
0.7990196078431373
 40
0.7990196078431373
 40
0.7990196078431373
 40
0.803921568627451
 40
0.803921568627451
 40
0.803921568627451
 40
0.803921568627451
 40
0.8088235294117647
 40
0.8088235294117647
 40
0.8088235294117647
 40
0.8088235294117647
 40
0.8137254901960784
 40
0.8137254901960784
 40
0.8137254901960784
 40
0.8137254901960784
 40
0.8186274509803921
 40
0.8186274509803921
 40
0.8186274509803921
 40
0.8186274509803921
 40
0.8235294117647058
 40
0.8235294117647058
 40
0.8235294117647058
 40
0.8235294117647058
 40
0.8284313725490197
 40
0.8284313725490197
 40
0.8284313725490197
 40
0.8284313725490197
 40
0.8333333333333334
 40
0.8333333333333334
 40
0.8333333333333334
 40
0.8333333333333334
 40
0.8382352941176471
 40
0.8382352941176471
 40
0.8382352941176471
 40
0.8382352941176471
 40
0.8431372549019608
 40
0.8431372549019608
 40
0.8431372549019608
 40
0.8431372549019608
 40
0.8480392156862745
 40
0.8480392156862745
 40
0.8480392156862745
 40
0.8480392156862745
 40
0.8529411764705882
 40
0.8529411764705882
 40
0.8529411764705882
 40
0.8529411764705882
 40
0.8578431372549019
 40
0.8578431372549019
 40
0.8578431372549019
 40
0.8578431372549019
 40
0.8627450980392157
 40
0.8627450980392157
 40
0.8627450980392157
 40
0.8627450980392157
 40
0.8676470588235294
 40
0.8676470588235294
 40
0.8676470588235294
 40
0.8676470588235294
 40
0.8725490196078431
 40
0.8725490196078431
 40
0.8725490196078431
 40
0.8725490196078431
 40
0.8774509803921569
 40
0.8774509803921569
 40
0.8774509803921569
 40
0.8774509803921569
 40
0.8823529411764706
 40
0.8823529411764706
 40
0.8823529411764706
 40
0.8823529411764706
 40
0.8872549019607843
 40
0.8872549019607843
 40
0.8872549019607843
 40
0.8872549019607843
 40
0.8921568627450981
 40
0.8921568627450981
 40
0.8921568627450981
 40
0.8921568627450981
 40
0.8970588235294118
 40
0.8970588235294118
 40
0.8970588235294118
 40
0.8970588235294118
 40
0.9019607843137255
 40
0.9019607843137255
 40
0.9019607843137255
 40
0.9019607843137255
 40
0.9068627450980392
 40
0.9068627450980392
 40
0.9068627450980392
 40
0.9068627450980392
 40
0.9117647058823529
 40
0.9117647058823529
 40
0.9117647058823529
 40
0.9117647058823529
 40
0.9166666666666666
 40
0.9166666666666666
 40
0.9166666666666666
 40
0.9166666666666666
 40
0.9215686274509803
 40
0.9215686274509803
 40
0.9215686274509803
 40
0.9215686274509803
 40
0.9264705882352942
 40
0.9264705882352942
 40
0.9264705882352942
 40
0.9264705882352942
 40
0.9313725490196079
 40
0.9313725490196079
 40
0.9313725490196079
 40
0.9313725490196079
 40
0.9362745098039216
 40
0.9362745098039216
 40
0.9362745098039216
 40
0.9362745098039216
 40
0.9411764705882353
 40
0.9411764705882353
 40
0.9411764705882353
 40
0.9411764705882353
 40
0.946078431372549
 40
0.946078431372549
 40
0.946078431372549
 40
0.946078431372549
 40
0.9509803921568627
 40
0.9509803921568627
 40
0.9509803921568627
 40
0.9509803921568627
 40
0.9558823529411765
 40
0.9558823529411765
 40
0.9558823529411765
 40
0.9558823529411765
 40
0.9607843137254902
 40
0.9607843137254902
 40
0.9607843137254902
 40
0.9607843137254902
 40
0.9656862745098039
 40
0.9656862745098039
 40
0.9656862745098039
 40
0.9656862745098039
 40
0.9705882352941176
 40
0.9705882352941176
 40
0.9705882352941176
 40
0.9705882352941176
 40
0.9754901960784313
 40
0.9754901960784313
 40
0.9754901960784313
 40
0.9754901960784313
 40
0.9803921568627451
 40
0.9803921568627451
 40
0.9803921568627451
 40
0.9803921568627451
 40
0.9852941176470589
 40
0.9852941176470589
 40
0.9852941176470589
 40
0.9852941176470589
 40
0.9901960784313726
 40
0.9901960784313726
 40
0.9901960784313726
 40
0.9901960784313726
 40
1.0
 40
1.0
 40
1.0
 40
1.0
 10
-23.0438
 20
15.7684
 30
0.0
 10
-23.0438
 20
15.7684
 30
0.0
 10
-22.2436
 20
15.7684
 30
0.0
 10
-22.2436
 20
15.7684
 30
0.0
 10
-22.2436
 20
15.7684
 30
0.0
 10
-22.2436
 20
15.7684
 30
0.0
 10
15.5644
 20
15.7684
 30
0.0
 10
15.5644
 20
15.7684
 30
0.0
 10
15.5644
 20
15.7684
 30
0.0
 10
15.9333
 20
15.7684
 30
0.0
 10
16.4991
 20
15.8766
 30
0.0
 10
16.8228
 20
15.5742
 30
0.0
 10
16.8228
 20
15.5742
 30
0.0
 10
17.1912
 20
15.2305
 30
0.0
 10
17.0798
 20
14.8416
 30
0.0
 10
17.0808
 20
14.3392
 30
0.0
 10
17.0808
 20
14.3392
 30
0.0
 10
17.0861
 20
11.4802
 30
0.0
 10
17.0948
 20
8.6207
 30
0.0
 10
17.0948
 20
5.7614
 30
0.0
 10
17.0948
 20
5.7614
 30
0.0
 10
17.0948
 20
5.7614
 30
0.0
 10
17.0948
 20
-23.5545
 30
0.0
 10
17.0948
 20
-23.5545
 30
0.0
 10
17.0948
 20
-23.5545
 30
0.0
 10
17.0948
 20
-23.5545
 30
0.0
 10
17.0948
 20
-24.3544
 30
0.0
 10
17.0948
 20
-24.3544
 30
0.0
 10
17.0948
 20
-24.3544
 30
0.0
 10
17.0934
 20
-24.4446
 30
0.0
 10
17.0601
 20
-24.5552
 30
0.0
 10
17.0248
 20
-24.6341
 30
0.0
 10
17.0248
 20
-24.6341
 30
0.0
 10
16.9513
 20
-24.7986
 30
0.0
 10
16.8092
 20
-24.9476
 30
0.0
 10
16.6443
 20
-25.0226
 30
0.0
 10
16.6443
 20
-25.0226
 30
0.0
 10
16.6212
 20
-25.033
 30
0.0
 10
16.4918
 20
-25.0838
 30
0.0
 10
16.4577
 20
-25.0848
 30
0.0
 10
16.4577
 20
-25.0848
 30
0.0
 10
16.4577
 20
-25.0848
 30
0.0
 10
15.6578
 20
-25.086
 30
0.0
 10
15.6578
 20
-25.086
 30
0.0
 10
15.6578
 20
-25.086
 30
0.0
 10
15.6578
 20
-25.086
 30
0.0
 10
8.5787
 20
-25.0987
 30
0.0
 10
8.5787
 20
-25.0987
 30
0.0
 10
8.5787
 20
-25.0987
 30
0.0
 10
8.5787
 20
-25.0987
 30
0.0
 10
7.7788
 20
-25.1003
 30
0.0
 10
7.7788
 20
-25.1003
 30
0.0
 10
7.7788
 20
-25.1003
 30
0.0
 10
7.7788
 20
-25.1003
 30
0.0
 10
6.9791
 20
-25.1003
 30
0.0
 10
6.9791
 20
-25.1003
 30
0.0
 10
6.9791
 20
-25.1003
 30
0.0
 10
6.9791
 20
-25.1003
 30
0.0
 10
6.7303
 20
-21.099
 30
0.0
 10
6.7303
 20
-21.099
 30
0.0
 10
6.7303
 20
-21.099
 30
0.0
 10
7.0387
 20
-21.099
 30
0.0
 10
7.4686
 20
-21.1503
 30
0.0
 10
7.8021
 20
-21.0521
 30
0.0
 10
7.8021
 20
-21.0521
 30
0.0
 10
8.3328
 20
-20.8961
 30
0.0
 10
8.6874
 20
-20.3829
 30
0.0
 10
8.6568
 20
-19.8325
 30
0.0
 10
8.6568
 20
-19.8325
 30
0.0
 10
8.6437
 20
-19.592
 30
0.0
 10
8.5569
 20
-19.3869
 30
0.0
 10
8.4238
 20
-19.1875
 30
0.0
 10
8.4238
 20
-19.1875
 30
0.0
 10
8.4238
 20
-19.1875
 30
0.0
 10
10.9258
 20
-16.165
 30
0.0
 10
10.9258
 20
-16.165
 30
0.0
 10
10.9258
 20
-16.165
 30
0.0
 10
11.391
 20
-16.8767
 30
0.0
 10
12.5744
 20
-16.799
 30
0.0
 10
12.9535
 20
-16.0407
 30
0.0
 10
12.9535
 20
-16.0407
 30
0.0
 10
13.1624
 20
-15.6232
 30
0.0
 10
13.0934
 20
-15.2465
 30
0.0
 10
13.0934
 20
-14.7669
 30
0.0
 10
13.0934
 20
-14.7669
 30
0.0
 10
13.0934
 20
-14.7669
 30
0.0
 10
13.0934
 20
5.443
 30
0.0
 10
13.0934
 20
5.443
 30
0.0
 10
13.0934
 20
5.443
 30
0.0
 10
13.0934
 20
5.443
 30
0.0
 10
13.0934
 20
6.243
 30
0.0
 10
13.0934
 20
6.243
 30
0.0
 10
13.0934
 20
6.243
 30
0.0
 10
13.0934
 20
6.243
 30
0.0
 10
13.0701
 20
6.3905
 30
0.0
 10
13.0701
 20
6.3905
 30
0.0
 10
13.0701
 20
6.3905
 30
0.0
 10
12.9658
 20
6.9286
 30
0.0
 10
12.4983
 20
7.2617
 30
0.0
 10
11.9825
 20
7.3306
 30
0.0
 10
11.9825
 20
7.3306
 30
0.0
 10
11.9825
 20
7.3306
 30
0.0
 10
11.8192
 20
7.3306
 30
0.0
 10
11.8192
 20
7.3306
 30
0.0
 10
11.8192
 20
7.3306
 30
0.0
 10
11.6752
 20
7.311
 30
0.0
 10
11.5403
 20
7.2945
 30
0.0
 10
11.4074
 20
7.2296
 30
0.0
 10
11.4074
 20
7.2296
 30
0.0
 10
11.2722
 20
7.1634
 30
0.0
 10
11.172
 20
7.0998
 30
0.0
 10
11.0655
 20
6.9965
 30
0.0
 10
11.0655
 20
6.9965
 30
0.0
 10
11.0655
 20
6.9965
 30
0.0
 10
8.245
 20
9.6616
 30
0.0
 10
8.245
 20
9.6616
 30
0.0
 10
8.245
 20
9.6616
 30
0.0
 10
8.3949
 20
9.8113
 30
0.0
 10
8.5107
 20
9.9603
 30
0.0
 10
8.5869
 20
10.1587
 30
0.0
 10
8.5869
 20
10.1587
 30
0.0
 10
8.789
 20
10.6837
 30
0.0
 10
8.5577
 20
11.3584
 30
0.0
 10
8.0509
 20
11.6195
 30
0.0
 10
8.0509
 20
11.6195
 30
0.0
 10
7.8978
 20
11.6983
 30
0.0
 10
7.745
 20
11.7391
 30
0.0
 10
7.5768
 20
11.7671
 30
0.0
 10
7.5768
 20
11.7671
 30
0.0
 10
0.2992
 20
11.7671
 30
0.0
 10
-6.9785
 20
11.7671
 30
0.0
 10
-14.2559
 20
11.7671
 30
0.0
 10
-14.2559
 20
11.7671
 30
0.0
 10
-14.6454
 20
11.7055
 30
0.0
 10
-15.008
 20
11.5098
 30
0.0
 10
-15.1961
 20
11.1455
 30
0.0
 10
-15.1961
 20
11.1455
 30
0.0
 10
-15.5316
 20
10.4955
 30
0.0
 10
-15.2205
 20
9.6504
 30
0.0
 10
-14.5047
 20
9.4285
 30
0.0
 10
-14.5047
 20
9.4285
 30
0.0
 10
-14.1525
 20
9.3191
 30
0.0
 10
-13.6793
 20
9.374
 30
0.0
 10
-13.355
 20
9.374
 30
0.0
 10
-13.355
 20
9.374
 30
0.0
 10
-13.355
 20
9.374
 30
0.0
 10
6.6759
 20
9.374
 30
0.0
 10
6.6759
 20
9.374
 30
0.0
 10
6.6759
 20
9.374
 30
0.0
 10
7.1441
 20
9.374
 30
0.0
 10
7.8529
 20
9.2693
 30
0.0
 10
8.245
 20
9.6616
 30
0.0
 10
8.245
 20
9.6616
 30
0.0
 10
8.245
 20
9.6616
 30
0.0
 10
11.0655
 20
6.9965
 30
0.0
 10
11.0655
 20
6.9965
 30
0.0
 10
11.0655
 20
6.9965
 30
0.0
 10
10.6048
 20
6.5492
 30
0.0
 10
10.7004
 20
5.9604
 30
0.0
 10
10.7004
 20
5.3652
 30
0.0
 10
10.7004
 20
5.3652
 30
0.0
 10
10.7004
 20
5.3652
 30
0.0
 10
10.7004
 20
-14.6891
 30
0.0
 10
10.7004
 20
-14.6891
 30
0.0
 10
10.7004
 20
-14.6891
 30
0.0
 10
10.7004
 20
-15.0871
 30
0.0
 10
10.6253
 20
-15.6123
 30
0.0
 10
10.8246
 20
-16.0017
 30
0.0
 10
10.8246
 20
-16.0017
 30
0.0
 10
10.8246
 20
-16.0017
 30
0.0
 10
10.9258
 20
-16.165
 30
0.0
 10
10.9258
 20
-16.165
 30
0.0
 10
10.9258
 20
-16.165
 30
0.0
 10
10.9258
 20
-16.165
 30
0.0
 10
8.4238
 20
-19.1875
 30
0.0
 10
8.4238
 20
-19.1875
 30
0.0
 10
8.4238
 20
-19.1875
 30
0.0
 10
8.2259
 20
-18.8905
 30
0.0
 10
7.8658
 20
-18.737
 30
0.0
 10
7.5225
 20
-18.7056
 30
0.0
 10
7.5225
 20
-18.7056
 30
0.0
 10
0.2811
 20
-18.7056
 30
0.0
 10
-6.9604
 20
-18.7056
 30
0.0
 10
-14.2016
 20
-18.7056
 30
0.0
 10
-14.2016
 20
-18.7056
 30
0.0
 10
-14.2016
 20
-18.7056
 30
0.0
 10
-10.4721
 20
-15.5047
 30
0.0
 10
-10.4721
 20
-15.5047
 30
0.0
 10
-10.4721
 20
-15.5047
 30
0.0
 10
-10.3437
 20
-15.8899
 30
0.0
 10
-9.9936
 20
-16.1867
 30
0.0
 10
-9.602
 20
-16.2739
 30
0.0
 10
-9.602
 20
-16.2739
 30
0.0
 10
-9.602
 20
-16.2739
 30
0.0
 10
-9.4622
 20
-16.2972
 30
0.0
 10
-9.4622
 20
-16.2972
 30
0.0
 10
-9.4622
 20
-16.2972
 30
0.0
 10
-9.4622
 20
-16.2972
 30
0.0
 10
-8.6622
 20
-16.2972
 30
0.0
 10
-8.6622
 20
-16.2972
 30
0.0
 10
-8.6622
 20
-16.2972
 30
0.0
 10
-8.6622
 20
-16.2972
 30
0.0
 10
1.9829
 20
-16.2972
 30
0.0
 10
1.9829
 20
-16.2972
 30
0.0
 10
1.9829
 20
-16.2972
 30
0.0
 10
1.9829
 20
-16.2972
 30
0.0
 10
2.7829
 20
-16.2972
 30
0.0
 10
2.7829
 20
-16.2972
 30
0.0
 10
2.7829
 20
-16.2972
 30
0.0
 10
2.7829
 20
-16.2972
 30
0.0
 10
2.9229
 20
-16.2739
 30
0.0
 10
2.9229
 20
-16.2739
 30
0.0
 10
2.9229
 20
-16.2739
 30
0.0
 10
3.6476
 20
-16.1083
 30
0.0
 10
4.0782
 20
-15.2765
 30
0.0
 10
3.7465
 20
-14.5957
 30
0.0
 10
3.7465
 20
-14.5957
 30
0.0
 10
3.7109
 20
-14.5229
 30
0.0
 10
3.6311
 20
-14.3791
 30
0.0
 10
3.5676
 20
-14.3159
 30
0.0
 10
3.5676
 20
-14.3159
 30
0.0
 10
3.5676
 20
-14.3159
 30
0.0
 10
6.1161
 20
-11.3556
 30
0.0
 10
6.1161
 20
-11.3556
 30
0.0
 10
6.1161
 20
-11.3556
 30
0.0
 10
6.1971
 20
-11.4877
 30
0.0
 10
6.3285
 20
-11.583
 30
0.0
 10
6.4504
 20
-11.6741
 30
0.0
 10
6.4504
 20
-11.6741
 30
0.0
 10
6.5658
 20
-11.7606
 30
0.0
 10
6.7091
 20
-11.8031
 30
0.0
 10
6.8466
 20
-11.8372
 30
0.0
 10
6.8466
 20
-11.8372
 30
0.0
 10
7.3556
 20
-11.9645
 30
0.0
 10
7.9143
 20
-11.6834
 30
0.0
 10
8.1595
 20
-11.2313
 30
0.0
 10
8.1595
 20
-11.2313
 30
0.0
 10
8.3661
 20
-10.8511
 30
0.0
 10
8.2918
 20
-10.4131
 30
0.0
 10
8.2918
 20
-9.9961
 30
0.0
 10
8.2918
 20
-9.9961
 30
0.0
 10
8.2918
 20
-9.9961
 30
0.0
 10
8.2918
 20
0.6724
 30
0.0
 10
8.2918
 20
0.6724
 30
0.0
 10
8.2918
 20
0.6724
 30
0.0
 10
8.2918
 20
0.6724
 30
0.0
 10
8.2918
 20
1.4721
 30
0.0
 10
8.2918
 20
1.4721
 30
0.0
 10
8.2918
 20
1.4721
 30
0.0
 10
8.2918
 20
1.4721
 30
0.0
 10
8.2761
 20
1.5732
 30
0.0
 10
8.2761
 20
1.5732
 30
0.0
 10
8.2761
 20
1.5732
 30
0.0
 10
8.158
 20
2.0968
 30
0.0
 10
7.7288
 20
2.4697
 30
0.0
 10
7.1961
 20
2.529
 30
0.0
 10
7.1961
 20
2.529
 30
0.0
 10
7.1961
 20
2.529
 30
0.0
 10
7.002
 20
2.529
 30
0.0
 10
7.002
 20
2.529
 30
0.0
 10
7.002
 20
2.529
 30
0.0
 10
6.4682
 20
2.4757
 30
0.0
 10
6.0449
 20
2.104
 30
0.0
 10
5.922
 20
1.5809
 30
0.0
 10
5.922
 20
1.5809
 30
0.0
 10
5.8527
 20
1.2863
 30
0.0
 10
5.8986
 20
0.7383
 30
0.0
 10
5.8986
 20
0.5636
 30
0.0
 10
5.8986
 20
0.5636
 30
0.0
 10
5.8986
 20
0.5636
 30
0.0
 10
5.8986
 20
-9.8873
 30
0.0
 10
5.8986
 20
-9.8873
 30
0.0
 10
5.8986
 20
-9.8873
 30
0.0
 10
5.8986
 20
-10.2124
 30
0.0
 10
5.8218
 20
-10.7981
 30
0.0
 10
5.9996
 20
-11.1534
 30
0.0
 10
5.9996
 20
-11.1534
 30
0.0
 10
5.9996
 20
-11.1534
 30
0.0
 10
6.1161
 20
-11.3556
 30
0.0
 10
6.1161
 20
-11.3556
 30
0.0
 10
6.1161
 20
-11.3556
 30
0.0
 10
6.1161
 20
-11.3556
 30
0.0
 10
3.5676
 20
-14.3159
 30
0.0
 10
3.5676
 20
-14.3159
 30
0.0
 10
3.5676
 20
-14.3159
 30
0.0
 10
3.4728
 20
-14.2211
 30
0.0
 10
3.3634
 20
-14.1129
 30
0.0
 10
3.2414
 20
-14.0516
 30
0.0
 10
3.2414
 20
-14.0516
 30
0.0
 10
2.8069
 20
-13.8343
 30
0.0
 10
2.3578
 20
-13.904
 30
0.0
 10
1.8744
 20
-13.904
 30
0.0
 10
1.8744
 20
-13.904
 30
0.0
 10
1.8744
 20
-13.904
 30
0.0
 10
-8.5534
 20
-13.904
 30
0.0
 10
-8.5534
 20
-13.904
 30
0.0
 10
-8.5534
 20
-13.904
 30
0.0
 10
-8.5534
 20
-13.904
 30
0.0
 10
-5.1966
 20
-11.3089
 30
0.0
 10
-5.1966
 20
-11.3089
 30
0.0
 10
-5.1966
 20
-11.3089
 30
0.0
 10
-4.7866
 20
-11.5941
 30
0.0
 10
-4.2132
 20
-11.5032
 30
0.0
 10
-3.7594
 20
-11.5032
 30
0.0
 10
-3.7594
 20
-11.5032
 30
0.0
 10
-3.7594
 20
-11.5032
 30
0.0
 10
-2.9196
 20
-11.5032
 30
0.0
 10
-2.9196
 20
-11.5032
 30
0.0
 10
-2.9196
 20
-11.5032
 30
0.0
 10
-2.9196
 20
-11.5032
 30
0.0
 10
-2.1198
 20
-11.5032
 30
0.0
 10
-2.1198
 20
-11.5032
 30
0.0
 10
-2.1198
 20
-11.5032
 30
0.0
 10
-2.1198
 20
-11.5032
 30
0.0
 10
-2.0031
 20
-11.4953
 30
0.0
 10
-2.0031
 20
-11.4953
 30
0.0
 10
-2.0031
 20
-11.4953
 30
0.0
 10
-1.2275
 20
-11.4122
 30
0.0
 10
-0.7084
 20
-10.5428
 30
0.0
 10
-1.0399
 20
-9.8249
 30
0.0
 10
-1.0399
 20
-9.8249
 30
0.0
 10
-1.0399
 20
-9.8249
 30
0.0
 10
1.2291
 20
-6.4141
 30
0.0
 10
1.2291
 20
-6.4141
 30
0.0
 10
1.2291
 20
-6.4141
 30
0.0
 10
1.5092
 20
-6.9876
 30
0.0
 10
2.2455
 20
-7.2203
 30
0.0
 10
2.814
 20
-6.9502
 30
0.0
 10
2.814
 20
-6.9502
 30
0.0
 10
3.0201
 20
-6.8523
 30
0.0
 10
3.1838
 20
-6.6941
 30
0.0
 10
3.3112
 20
-6.5072
 30
0.0
 10
3.3112
 20
-6.5072
 30
0.0
 10
3.5886
 20
-6.1006
 30
0.0
 10
3.4978
 20
-5.514
 30
0.0
 10
3.4978
 20
-5.0702
 30
0.0
 10
3.4978
 20
-5.0702
 30
0.0
 10
3.4978
 20
-5.0702
 30
0.0
 10
3.4978
 20
-4.2614
 30
0.0
 10
3.4978
 20
-4.2614
 30
0.0
 10
3.4978
 20
-4.2614
 30
0.0
 10
3.4978
 20
-4.0199
 30
0.0
 10
3.5392
 20
-3.542
 30
0.0
 10
3.4746
 20
-3.2283
 30
0.0
 10
3.4746
 20
-3.2283
 30
0.0
 10
3.3822
 20
-2.7823
 30
0.0
 10
3.0458
 20
-2.4216
 30
0.0
 10
2.6043
 20
-2.304
 30
0.0
 10
2.6043
 20
-2.304
 30
0.0
 10
2.4577
 20
-2.2649
 30
0.0
 10
2.3314
 20
-2.2726
 30
0.0
 10
2.1769
 20
-2.2726
 30
0.0
 10
2.1769
 20
-2.2726
 30
0.0
 10
2.043
 20
-2.2877
 30
0.0
 10
1.9205
 20
-2.3154
 30
0.0
 10
1.7963
 20
-2.3738
 30
0.0
 10
1.7963
 20
-2.3738
 30
0.0
 10
1.7963
 20
-2.3738
 30
0.0
 10
1.6098
 20
-2.4825
 30
0.0
 10
1.6098
 20
-2.4825
 30
0.0
 10
1.6098
 20
-2.4825
 30
0.0
 10
1.5584
 20
-2.5145
 30
0.0
 10
1.5194
 20
-2.5723
 30
0.0
 10
1.4621
 20
-2.5912
 30
0.0
 10
1.4621
 20
-2.5912
 30
0.0
 10
1.4621
 20
-2.5912
 30
0.0
 10
-1.4671
 20
-0.0194
 30
0.0
 10
-1.4671
 20
-0.0194
 30
0.0
 10
-1.4671
 20
-0.0194
 30
0.0
 10
-0.8736
 20
0.3553
 30
0.0
 10
-0.7564
 20
1.2899
 30
0.0
 10
-1.2572
 20
1.7909
 30
0.0
 10
-1.2572
 20
1.7909
 30
0.0
 10
-1.4864
 20
2.0202
 30
0.0
 10
-1.7679
 20
2.1449
 30
0.0
 10
-2.0887
 20
2.1716
 30
0.0
 10
-2.0887
 20
2.1716
 30
0.0
 10
-2.9226
 20
2.1716
 30
0.0
 10
-3.7566
 20
2.1716
 30
0.0
 10
-4.5905
 20
2.1716
 30
0.0
 10
-4.5905
 20
2.1716
 30
0.0
 10
-5.0924
 20
2.1329
 30
0.0
 10
-5.5593
 20
1.8133
 30
0.0
 10
-5.6939
 20
1.309
 30
0.0
 10
-5.6939
 20
1.309
 30
0.0
 10
-5.8476
 20
0.7324
 30
0.0
 10
-5.5707
 20
0.0835
 30
0.0
 10
-4.9946
 20
-0.136
 30
0.0
 10
-4.9946
 20
-0.136
 30
0.0
 10
-4.8826
 20
-0.1788
 30
0.0
 10
-4.7526
 20
-0.2203
 30
0.0
 10
-4.6293
 20
-0.2214
 30
0.0
 10
-4.6293
 20
-0.2214
 30
0.0
 10
-4.6293
 20
-0.2214
 30
0.0
 10
-3.8294
 20
-0.2214
 30
0.0
 10
-3.8294
 20
-0.2214
 30
0.0
 10
-3.8294
 20
-0.2214
 30
0.0
 10
-3.8294
 20
-0.2214
 30
0.0
 10
-2.8574
 20
-0.2214
 30
0.0
 10
-2.8574
 20
-0.2214
 30
0.0
 10
-2.8574
 20
-0.2214
 30
0.0
 10
-2.3326
 20
-0.2214
 30
0.0
 10
-1.9069
 20
-0.2972
 30
0.0
 10
-1.4671
 20
-0.0194
 30
0.0
 10
-1.4671
 20
-0.0194
 30
0.0
 10
-1.4671
 20
-0.0194
 30
0.0
 10
1.4621
 20
-2.5912
 30
0.0
 10
1.4621
 20
-2.5912
 30
0.0
 10
1.4621
 20
-2.5912
 30
0.0
 10
1.4621
 20
-2.5912
 30
0.0
 10
1.299
 20
-2.8012
 30
0.0
 10
1.299
 20
-2.8012
 30
0.0
 10
1.299
 20
-2.8012
 30
0.0
 10
1.1912
 20
-2.9407
 30
0.0
 10
1.1092
 20
-3.159
 30
0.0
 10
1.1048
 20
-3.3371
 30
0.0
 10
1.1048
 20
-3.3371
 30
0.0
 10
1.1048
 20
-3.3371
 30
0.0
 10
1.1048
 20
-4.1371
 30
0.0
 10
1.1048
 20
-4.1371
 30
0.0
 10
1.1048
 20
-4.1371
 30
0.0
 10
1.1048
 20
-4.1371
 30
0.0
 10
1.1048
 20
-5.1945
 30
0.0
 10
1.1048
 20
-5.1945
 30
0.0
 10
1.1048
 20
-5.1945
 30
0.0
 10
1.1048
 20
-5.6446
 30
0.0
 10
1.0358
 20
-6.0181
 30
0.0
 10
1.2291
 20
-6.4141
 30
0.0
 10
1.2291
 20
-6.4141
 30
0.0
 10
1.2291
 20
-6.4141
 30
0.0
 10
-1.0399
 20
-9.8249
 30
0.0
 10
-1.0399
 20
-9.8249
 30
0.0
 10
-1.0399
 20
-9.8249
 30
0.0
 10
-1.2285
 20
-9.4158
 30
0.0
 10
-1.5879
 20
-9.1831
 30
0.0
 10
-2.0264
 20
-9.11
 30
0.0
 10
-2.0264
 20
-9.11
 30
0.0
 10
-2.9045
 20
-9.11
 30
0.0
 10
-3.7826
 20
-9.11
 30
0.0
 10
-4.6603
 20
-9.11
 30
0.0
 10
-4.6603
 20
-9.11
 30
0.0
 10
-4.921
 20
-9.1536
 30
0.0
 10
-5.2
 20
-9.241
 30
0.0
 10
-5.3829
 20
-9.4443
 30
0.0
 10
-5.3829
 20
-9.4443
 30
0.0
 10
-5.3829
 20
-9.4443
 30
0.0
 10
-8.654
 20
-7.02
 30
0.0
 10
-8.654
 20
-7.02
 30
0.0
 10
-8.654
 20
-7.02
 30
0.0
 10
-8.224
 20
-6.8941
 30
0.0
 10
-7.9087
 20
-6.5534
 30
0.0
 10
-7.8073
 20
-6.1187
 30
0.0
 10
-7.8073
 20
-6.1187
 30
0.0
 10
-7.8073
 20
-6.1187
 30
0.0
 10
-7.784
 20
-5.9399
 30
0.0
 10
-7.784
 20
-5.9399
 30
0.0
 10
-7.784
 20
-5.9399
 30
0.0
 10
-7.784
 20
-5.9399
 30
0.0
 10
-7.784
 20
-5.1402
 30
0.0
 10
-7.784
 20
-5.1402
 30
0.0
 10
-7.784
 20
-5.1402
 30
0.0
 10
-7.784
 20
-5.1402
 30
0.0
 10
-7.784
 20
-4.1916
 30
0.0
 10
-7.784
 20
-4.1916
 30
0.0
 10
-7.784
 20
-4.1916
 30
0.0
 10
-7.784
 20
-3.8905
 30
0.0
 10
-7.7109
 20
-3.3277
 30
0.0
 10
-7.8771
 20
-2.9876
 30
0.0
 10
-7.8771
 20
-2.9876
 30
0.0
 10
-7.8771
 20
-2.9876
 30
0.0
 10
-8.0013
 20
-2.7702
 30
0.0
 10
-8.0013
 20
-2.7702
 30
0.0
 10
-8.0013
 20
-2.7702
 30
0.0
 10
-8.0013
 20
-2.7702
 30
0.0
 10
-8.0404
 20
-2.7155
 30
0.0
 10
-8.0404
 20
-2.7155
 30
0.0
 10
-8.0404
 20
-2.7155
 30
0.0
 10
-8.0404
 20
-2.7155
 30
0.0
 10
-8.2034
 20
-2.5526
 30
0.0
 10
-8.2034
 20
-2.5526
 30
0.0
 10
-8.2034
 20
-2.5526
 30
0.0
 10
-8.2598
 20
-2.5031
 30
0.0
 10
-8.369
 20
-2.427
 30
0.0
 10
-8.4442
 20
-2.3893
 30
0.0
 10
-8.4442
 20
-2.3893
 30
0.0
 10
-8.5703
 20
-2.3262
 30
0.0
 10
-8.7167
 20
-2.2901
 30
0.0
 10
-8.8561
 20
-2.2726
 30
0.0
 10
-8.8561
 20
-2.2726
 30
0.0
 10
-8.8561
 20
-2.2726
 30
0.0
 10
-9.1048
 20
-2.2726
 30
0.0
 10
-9.1048
 20
-2.2726
 30
0.0
 10
-9.1048
 20
-2.2726
 30
0.0
 10
-9.6258
 20
-2.3306
 30
0.0
 10
-10.0354
 20
-2.7055
 30
0.0
 10
-10.1536
 20
-3.2128
 30
0.0
 10
-10.1536
 20
-3.2128
 30
0.0
 10
-10.1644
 20
-3.2582
 30
0.0
 10
-10.1766
 20
-3.3526
 30
0.0
 10
-10.1769
 20
-3.3993
 30
0.0
 10
-10.1769
 20
-3.3993
 30
0.0
 10
-10.1769
 20
-3.3993
 30
0.0
 10
-10.1769
 20
-4.1992
 30
0.0
 10
-10.1769
 20
-4.1992
 30
0.0
 10
-10.1769
 20
-4.1992
 30
0.0
 10
-10.1769
 20
-4.1992
 30
0.0
 10
-10.1769
 20
-5.1323
 30
0.0
 10
-10.1769
 20
-5.1323
 30
0.0
 10
-10.1769
 20
-5.1323
 30
0.0
 10
-10.1769
 20
-5.3515
 30
0.0
 10
-10.2182
 20
-5.8167
 30
0.0
 10
-10.1536
 20
-6.1187
 30
0.0
 10
-10.1536
 20
-6.1187
 30
0.0
 10
-10.05
 20
-6.602
 30
0.0
 10
-9.6016
 20
-7.0452
 30
0.0
 10
-9.0893
 20
-7.059
 30
0.0
 10
-9.0893
 20
-7.059
 30
0.0
 10
-8.9348
 20
-7.0631
 30
0.0
 10
-8.8018
 20
-7.0632
 30
0.0
 10
-8.654
 20
-7.02
 30
0.0
 10
-8.654
 20
-7.02
 30
0.0
 10
-8.654
 20
-7.02
 30
0.0
 10
-5.3829
 20
-9.4443
 30
0.0
 10
-5.3829
 20
-9.4443
 30
0.0
 10
-5.3829
 20
-9.4443
 30
0.0
 10
-5.5291
 20
-9.6064
 30
0.0
 10
-5.6448
 20
-9.7832
 30
0.0
 10
-5.7016
 20
-9.996
 30
0.0
 10
-5.7016
 20
-9.996
 30
0.0
 10
-5.8367
 20
-10.5025
 30
0.0
 10
-5.6174
 20
-11.0163
 30
0.0
 10
-5.1966
 20
-11.3089
 30
0.0
 10
-5.1966
 20
-11.3089
 30
0.0
 10
-5.1966
 20
-11.3089
 30
0.0
 10
-8.5534
 20
-13.904
 30
0.0
 10
-8.5534
 20
-13.904
 30
0.0
 10
-8.5534
 20
-13.904
 30
0.0
 10
-8.5534
 20
-13.904
 30
0.0
 10
-9.3533
 20
-13.904
 30
0.0
 10
-9.3533
 20
-13.904
 30
0.0
 10
-9.3533
 20
-13.904
 30
0.0
 10
-9.6979
 20
-13.9256
 30
0.0
 10
-9.9565
 20
-14.0501
 30
0.0
 10
-10.2158
 20
-14.2769
 30
0.0
 10
-10.2158
 20
-14.2769
 30
0.0
 10
-10.2158
 20
-14.2769
 30
0.0
 10
-10.2236
 20
-14.2769
 30
0.0
 10
-10.2236
 20
-14.2769
 30
0.0
 10
-10.2236
 20
-14.2769
 30
0.0
 10
-10.2236
 20
-14.2769
 30
0.0
 10
-12.6711
 20
-11.1224
 30
0.0
 10
-12.6711
 20
-11.1224
 30
0.0
 10
-12.6711
 20
-11.1224
 30
0.0
 10
-12.5183
 20
-10.7733
 30
0.0
 10
-12.5856
 20
-10.3421
 30
0.0
 10
-12.5856
 20
-9.9885
 30
0.0
 10
-12.5856
 20
-9.9885
 30
0.0
 10
-12.5856
 20
-9.9885
 30
0.0
 10
-12.5856
 20
0.6569
 30
0.0
 10
-12.5856
 20
0.6569
 30
0.0
 10
-12.5856
 20
0.6569
 30
0.0
 10
-12.5856
 20
0.6569
 30
0.0
 10
-12.5856
 20
1.4566
 30
0.0
 10
-12.5856
 20
1.4566
 30
0.0
 10
-12.5856
 20
1.4566
 30
0.0
 10
-12.5856
 20
1.4566
 30
0.0
 10
-12.6088
 20
1.5964
 30
0.0
 10
-12.6088
 20
1.5964
 30
0.0
 10
-12.6088
 20
1.5964
 30
0.0
 10
-12.6088
 20
1.5964
 30
0.0
 10
-10.0295
 20
4.79
 30
0.0
 10
-10.0295
 20
4.79
 30
0.0
 10
-10.0295
 20
4.79
 30
0.0
 10
-9.6465
 20
4.4932
 30
0.0
 10
-9.1088
 20
4.5802
 30
0.0
 10
-8.6701
 20
4.5802
 30
0.0
 10
-8.6701
 20
4.5802
 30
0.0
 10
-8.6701
 20
4.5802
 30
0.0
 10
1.9829
 20
4.5802
 30
0.0
 10
1.9829
 20
4.5802
 30
0.0
 10
1.9829
 20
4.5802
 30
0.0
 10
2.2966
 20
4.5802
 30
0.0
 10
2.6895
 20
4.5264
 30
0.0
 10
3.016
 20
4.6269
 30
0.0
 10
3.016
 20
4.6269
 30
0.0
 10
3.6912
 20
4.8344
 30
0.0
 10
4.0574
 20
5.6402
 30
0.0
 10
3.7465
 20
6.2817
 30
0.0
 10
3.7465
 20
6.2817
 30
0.0
 10
3.7031
 20
6.3714
 30
0.0
 10
3.6301
 20
6.499
 30
0.0
 10
3.56
 20
6.5692
 30
0.0
 10
3.56
 20
6.5692
 30
0.0
 10
3.3084
 20
6.8208
 30
0.0
 10
3.0278
 20
6.9496
 30
0.0
 10
2.6741
 20
6.9732
 30
0.0
 10
2.6741
 20
6.9732
 30
0.0
 10
-1.3349
 20
6.9732
 30
0.0
 10
-5.3441
 20
6.9732
 30
0.0
 10
-9.3533
 20
6.9732
 30
0.0
 10
-9.3533
 20
6.9732
 30
0.0
 10
-9.6492
 20
6.9547
 30
0.0
 10
-9.9949
 20
6.8641
 30
0.0
 10
-10.1924
 20
6.6236
 30
0.0
 10
-10.1924
 20
6.6236
 30
0.0
 10
-10.3105
 20
6.4798
 30
0.0
 10
-10.4
 20
6.3651
 30
0.0
 10
-10.4643
 20
6.1961
 30
0.0
 10
-10.4643
 20
6.1961
 30
0.0
 10
-10.6198
 20
5.7895
 30
0.0
 10
-10.534
 20
5.2622
 30
0.0
 10
-10.2158
 20
4.9532
 30
0.0
 10
-10.2158
 20
4.9532
 30
0.0
 10
-10.2158
 20
4.9532
 30
0.0
 10
-10.0295
 20
4.79
 30
0.0
 10
-10.0295
 20
4.79
 30
0.0
 10
-10.0295
 20
4.79
 30
0.0
 10
-10.0295
 20
4.79
 30
0.0
 10
-12.6088
 20
1.5964
 30
0.0
 10
-12.6088
 20
1.5964
 30
0.0
 10
-12.6088
 20
1.5964
 30
0.0
 10
-12.7118
 20
2.1113
 30
0.0
 10
-13.1733
 20
2.4727
 30
0.0
 10
-13.6811
 20
2.529
 30
0.0
 10
-13.6811
 20
2.529
 30
0.0
 10
-13.6811
 20
2.529
 30
0.0
 10
-13.8753
 20
2.529
 30
0.0
 10
-13.8753
 20
2.529
 30
0.0
 10
-13.8753
 20
2.529
 30
0.0
 10
-14.026
 20
2.5138
 30
0.0
 10
-14.1737
 20
2.4809
 30
0.0
 10
-14.3105
 20
2.4125
 30
0.0
 10
-14.3105
 20
2.4125
 30
0.0
 10
-14.4083
 20
2.3635
 30
0.0
 10
-14.5119
 20
2.2965
 30
0.0
 10
-14.5902
 20
2.2182
 30
0.0
 10
-14.5902
 20
2.2182
 30
0.0
 10
-14.6799
 20
2.1283
 30
0.0
 10
-14.7715
 20
2.0292
 30
0.0
 10
-14.8309
 20
1.9152
 30
0.0
 10
-14.8309
 20
1.9152
 30
0.0
 10
-15.0523
 20
1.4911
 30
0.0
 10
-14.9786
 20
1.0123
 30
0.0
 10
-14.9786
 20
0.5481
 30
0.0
 10
-14.9786
 20
0.5481
 30
0.0
 10
-14.9786
 20
0.5481
 30
0.0
 10
-14.9786
 20
-9.8797
 30
0.0
 10
-14.9786
 20
-9.8797
 30
0.0
 10
-14.9786
 20
-9.8797
 30
0.0
 10
-14.9786
 20
-10.3102
 30
0.0
 10
-15.0834
 20
-11.0332
 30
0.0
 10
-14.7223
 20
-11.4101
 30
0.0
 10
-14.7223
 20
-11.4101
 30
0.0
 10
-14.5651
 20
-11.574
 30
0.0
 10
-14.4251
 20
-11.6948
 30
0.0
 10
-14.2171
 20
-11.783
 30
0.0
 10
-14.2171
 20
-11.783
 30
0.0
 10
-13.6155
 20
-12.0383
 30
0.0
 10
-12.923
 20
-11.6985
 30
0.0
 10
-12.6711
 20
-11.1224
 30
0.0
 10
-12.6711
 20
-11.1224
 30
0.0
 10
-12.6711
 20
-11.1224
 30
0.0
 10
-10.2236
 20
-14.2769
 30
0.0
 10
-10.2236
 20
-14.2769
 30
0.0
 10
-10.2236
 20
-14.2769
 30
0.0
 10
-10.2236
 20
-14.2769
 30
0.0
 10
-10.2236
 20
-14.2926
 30
0.0
 10
-10.2236
 20
-14.2926
 30
0.0
 10
-10.2236
 20
-14.2926
 30
0.0
 10
-10.2236
 20
-14.2926
 30
0.0
 10
-10.3557
 20
-14.4634
 30
0.0
 10
-10.3557
 20
-14.4634
 30
0.0
 10
-10.3557
 20
-14.4634
 30
0.0
 10
-10.4611
 20
-14.6119
 30
0.0
 10
-10.5295
 20
-14.8176
 30
0.0
 10
-10.5343
 20
-14.9997
 30
0.0
 10
-10.5343
 20
-14.9997
 30
0.0
 10
-10.5397
 20
-15.1907
 30
0.0
 10
-10.5336
 20
-15.3206
 30
0.0
 10
-10.4721
 20
-15.5047
 30
0.0
 10
-10.4721
 20
-15.5047
 30
0.0
 10
-10.4721
 20
-15.5047
 30
0.0
 10
-14.2016
 20
-18.7056
 30
0.0
 10
-14.2016
 20
-18.7056
 30
0.0
 10
-14.2016
 20
-18.7056
 30
0.0
 10
-14.4789
 20
-18.7289
 30
0.0
 10
-14.7869
 20
-18.8268
 30
0.0
 10
-14.9786
 20
-19.0398
 30
0.0
 10
-14.9786
 20
-19.0398
 30
0.0
 10
-14.9786
 20
-19.0398
 30
0.0
 10
-17.5736
 20
-16.1185
 30
0.0
 10
-17.5736
 20
-16.1185
 30
0.0
 10
-17.5736
 20
-16.1185
 30
0.0
 10
-17.2868
 20
-15.7169
 30
0.0
 10
-17.3796
 20
-15.1219
 30
0.0
 10
-17.3796
 20
-14.6815
 30
0.0
 10
-17.3796
 20
-14.6815
 30
0.0
 10
-17.3796
 20
-14.6815
 30
0.0
 10
-17.3796
 20
5.3499
 30
0.0
 10
-17.3796
 20
5.3499
 30
0.0
 10
-17.3796
 20
5.3499
 30
0.0
 10
-17.3796
 20
5.5494
 30
0.0
 10
-17.3349
 20
6.0734
 30
0.0
 10
-17.4028
 20
6.3751
 30
0.0
 10
-17.4028
 20
6.3751
 30
0.0
 10
-17.4942
 20
6.7791
 30
0.0
 10
-17.7596
 20
7.093
 30
0.0
 10
-18.1408
 20
7.2529
 30
0.0
 10
-18.1408
 20
7.2529
 30
0.0
 10
-18.2525
 20
7.2996
 30
0.0
 10
-18.3796
 20
7.3158
 30
0.0
 10
-18.4982
 20
7.3306
 30
0.0
 10
-18.4982
 20
7.3306
 30
0.0
 10
-18.4982
 20
7.3306
 30
0.0
 10
-18.6616
 20
7.3306
 30
0.0
 10
-18.6616
 20
7.3306
 30
0.0
 10
-18.6616
 20
7.3306
 30
0.0
 10
-19.1995
 20
7.2769
 30
0.0
 10
-19.6567
 20
6.9022
 30
0.0
 10
-19.7571
 20
6.3594
 30
0.0
 10
-19.7571
 20
6.3594
 30
0.0
 10
-19.7571
 20
6.3594
 30
0.0
 10
-19.7727
 20
6.2508
 30
0.0
 10
-19.7727
 20
6.2508
 30
0.0
 10
-19.7727
 20
6.2508
 30
0.0
 10
-19.7727
 20
6.2508
 30
0.0
 10
-19.7727
 20
5.4507
 30
0.0
 10
-19.7727
 20
5.4507
 30
0.0
 10
-19.7727
 20
5.4507
 30
0.0
 10
-19.7727
 20
5.4507
 30
0.0
 10
-19.7727
 20
-14.7824
 30
0.0
 10
-19.7727
 20
-14.7824
 30
0.0
 10
-19.7727
 20
-14.7824
 30
0.0
 10
-19.7727
 20
-15.1115
 30
0.0
 10
-19.8429
 20
-15.603
 30
0.0
 10
-19.6793
 20
-15.9474
 30
0.0
 10
-19.6793
 20
-15.9474
 30
0.0
 10
-19.3951
 20
-16.5463
 30
0.0
 10
-18.6693
 20
-16.8461
 30
0.0
 10
-18.0554
 20
-16.5458
 30
0.0
 10
-18.0554
 20
-16.5458
 30
0.0
 10
-17.8554
 20
-16.4479
 30
0.0
 10
-17.7017
 20
-16.2975
 30
0.0
 10
-17.5736
 20
-16.1185
 30
0.0
 10
-17.5736
 20
-16.1185
 30
0.0
 10
-17.5736
 20
-16.1185
 30
0.0
 10
-14.9786
 20
-19.0398
 30
0.0
 10
-14.9786
 20
-19.0398
 30
0.0
 10
-14.9786
 20
-19.0398
 30
0.0
 10
-15.092
 20
-19.1656
 30
0.0
 10
-15.2007
 20
-19.3056
 30
0.0
 10
-15.2583
 20
-19.4671
 30
0.0
 10
-15.2583
 20
-19.4671
 30
0.0
 10
-15.4096
 20
-19.8908
 30
0.0
 10
-15.3392
 20
-20.3767
 30
0.0
 10
-15.0252
 20
-20.7102
 30
0.0
 10
-15.0252
 20
-20.7102
 30
0.0
 10
-15.0252
 20
-20.7102
 30
0.0
 10
-14.9552
 20
-20.7802
 30
0.0
 10
-14.9552
 20
-20.7802
 30
0.0
 10
-14.9552
 20
-20.7802
 30
0.0
 10
-14.9552
 20
-20.7802
 30
0.0
 10
-14.7999
 20
-20.9047
 30
0.0
 10
-14.7999
 20
-20.9047
 30
0.0
 10
-14.7999
 20
-20.9047
 30
0.0
 10
-14.4212
 20
-21.1888
 30
0.0
 10
-13.8303
 20
-21.099
 30
0.0
 10
-13.4173
 20
-21.099
 30
0.0
 10
-13.4173
 20
-21.099
 30
0.0
 10
-13.4173
 20
-21.099
 30
0.0
 10
6.7303
 20
-21.099
 30
0.0
 10
6.7303
 20
-21.099
 30
0.0
 10
6.7303
 20
-21.099
 30
0.0
 10
6.7303
 20
-21.099
 30
0.0
 10
6.9791
 20
-25.1003
 30
0.0
 10
6.9791
 20
-25.1003
 30
0.0
 10
6.9791
 20
-25.1003
 30
0.0
 10
6.9791
 20
-25.1003
 30
0.0
 10
-22.2048
 20
-25.1003
 30
0.0
 10
-22.2048
 20
-25.1003
 30
0.0
 10
-22.2048
 20
-25.1003
 30
0.0
 10
-22.7133
 20
-25.1003
 30
0.0
 10
-23.3246
 20
-25.2229
 30
0.0
 10
-23.6497
 20
-24.735
 30
0.0
 10
-23.6497
 20
-24.735
 30
0.0
 10
-23.8566
 20
-24.4248
 30
0.0
 10
-23.7594
 20
-24.0125
 30
0.0
 10
-23.7598
 20
-23.6709
 30
0.0
 10
-23.7598
 20
-23.6709
 30
0.0
 10
-23.7598
 20
-23.6709
 30
0.0
 10
-23.7726
 20
-16.7087
 30
0.0
 10
-23.7726
 20
-16.7087
 30
0.0
 10
-23.7726
 20
-16.7087
 30
0.0
 10
-23.7726
 20
-16.7087
 30
0.0
 10
-23.774
 20
-15.9086
 30
0.0
 10
-23.774
 20
-15.9086
 30
0.0
 10
-23.774
 20
-15.9086
 30
0.0
 10
-23.774
 20
-15.9086
 30
0.0
 10
-23.774
 20
-15.1087
 30
0.0
 10
-23.774
 20
-15.1087
 30
0.0
 10
-23.774
 20
-15.1087
 30
0.0
 10
-23.774
 20
-15.1087
 30
0.0
 10
-23.774
 20
14.2381
 30
0.0
 10
-23.774
 20
14.2381
 30
0.0
 10
-23.774
 20
14.2381
 30
0.0
 10
-23.774
 20
14.7311
 30
0.0
 10
-23.8967
 20
15.363
 30
0.0
 10
-23.3856
 20
15.6597
 30
0.0
 10
-23.3856
 20
15.6597
 30
0.0
 10
-23.2811
 20
15.7204
 30
0.0
 10
-23.1621
 20
15.7514
 30
0.0
 10
-23.0438
 20
15.7684
 30
0.0
  0
SPLINE
  5
42
330
1F
100
AcDbEntity
  8
Ilustrace
 62
   250
370
    30
100
AcDbSpline
210
0.0
220
0.0
230
1.0
 70
     8
 71
     3
 72
    16
 73
    12
 74
     0
 42
0.0000000001
 43
0.0000000001
 40
0.0
 40
0.0
 40
0.0
 40
0.0
 40
0.25
 40
0.25
 40
0.25
 40
0.25
 40
0.5
 40
0.5
 40
0.5
 40
0.5
 40
1.0
 40
1.0
 40
1.0
 40
1.0
 10
-23.7467
 20
-24.5205
 30
0.0
 10
-23.7467
 20
-24.5205
 30
0.0
 10
-23.7779
 20
-24.3042
 30
0.0
 10
-23.7779
 20
-24.3042
 30
0.0
 10
-23.7779
 20
-24.3042
 30
0.0
 10
-23.7779
 20
-24.3042
 30
0.0
 10
-23.7779
 20
-23.5043
 30
0.0
 10
-23.7779
 20
-23.5043
 30
0.0
 10
-23.7779
 20
-23.5043
 30
0.0
 10
-23.7779
 20
-23.5043
 30
0.0
 10
-23.7779
 20
14.1724
 30
0.0
 10
-23.7779
 20
14.1724
 30
0.0
  0
SPLINE
  5
43
330
1F
100
AcDbEntity
  8
Ilustrace
 62
   250
370
    30
100
AcDbSpline
210
0.0
220
0.0
230
1.0
 70
     8
 71
     3
 72
     8
 73
     4
 74
     0
 42
0.0000000001
 43
0.0000000001
 40
0.0
 40
0.0
 40
0.0
 40
0.0
 40
1.0
 40
1.0
 40
1.0
 40
1.0
 10
-23.7779
 20
14.1724
 30
0.0
 10
-23.7779
 20
14.5819
 30
0.0
 10
-23.9183
 20
15.4413
 30
0.0
 10
-23.3687
 20
15.6689
 30
0.0
  0
SPLINE
  5
44
330
1F
100
AcDbEntity
  8
Ilustrace
 62
   250
370
    30
100
AcDbSpline
210
0.0
220
0.0
230
1.0
 70
     8
 71
     3
 72
     8
 73
     4
 74
     0
 42
0.0000000001
 43
0.0000000001
 40
0.0
 40
0.0
 40
0.0
 40
0.0
 40
1.0
 40
1.0
 40
1.0
 40
1.0
 10
16.6896
 20
15.6689
 30
0.0
 10
17.2413
 20
15.4403
 30
0.0
 10
17.0989
 20
14.5785
 30
0.0
 10
17.0989
 20
14.1724
 30
0.0
  0
SPLINE
  5
45
330
1F
100
AcDbEntity
  8
Ilustrace
 62
   250
370
    30
100
AcDbSpline
210
0.0
220
0.0
230
1.0
 70
    24
 71
     3
 72
     8
 73
     4
 74
     0
 42
0.0000000001
 43
0.0000000001
 40
0.0
 40
0.0
 40
0.0
 40
0.0
 40
1.0
 40
1.0
 40
1.0
 40
1.0
 10
17.0989
 20
14.1724
 30
0.0
 10
17.0989
 20
14.1724
 30
0.0
 10
17.0988
 20
-23.5043
 30
0.0
 10
17.0988
 20
-23.5043
 30
0.0
  0
SPLINE
  5
46
330
1F
100
AcDbEntity
  8
Ilustrace
 62
   250
370
    30
100
AcDbSpline
210
0.0
220
0.0
230
1.0
 70
     8
 71
     3
 72
    16
 73
    12
 74
     0
 42
0.0000000001
 43
0.0000000001
 40
0.0
 40
0.0
 40
0.0
 40
0.0
 40
0.25
 40
0.25
 40
0.25
 40
0.25
 40
0.5
 40
0.5
 40
0.5
 40
0.5
 40
1.0
 40
1.0
 40
1.0
 40
1.0
 10
17.0988
 20
-23.5043
 30
0.0
 10
17.0988
 20
-23.9732
 30
0.0
 10
17.2242
 20
-24.5894
 30
0.0
 10
16.7977
 20
-24.9297
 30
0.0
 10
16.7977
 20
-24.9297
 30
0.0
 10
16.7272
 20
-24.9857
 30
0.0
 10
16.6478
 20
-25.0297
 30
0.0
 10
16.563
 20
-25.0592
 30
0.0
 10
16.563
 20
-25.0592
 30
0.0
 10
16.4757
 20
-25.0898
 30
0.0
 10
16.3905
 20
-25.0992
 30
0.0
 10
16.2989
 20
-25.1042
 30
0.0
  0
SPLINE
  5
47
330
1F
100
AcDbEntity
  8
Ilustrace
 62
   250
370
    30
100
AcDbSpline
210
0.0
220
0.0
230
1.0
 70
    24
 71
     3
 72
    12
 73
     8
 74
     0
 42
0.0000000001
 43
0.0000000001
 40
0.0
 40
0.0
 40
0.0
 40
0.0
 40
0.3333333333333333
 40
0.3333333333333333
 40
0.3333333333333333
 40
0.3333333333333333
 40
1.0
 40
1.0
 40
1.0
 40
1.0
 10
16.2989
 20
-25.1042
 30
0.0
 10
16.2989
 20
-25.1042
 30
0.0
 10
15.4989
 20
-25.1042
 30
0.0
 10
15.4989
 20
-25.1042
 30
0.0
 10
15.4989
 20
-25.1042
 30
0.0
 10
15.4989
 20
-25.1042
 30
0.0
 10
-22.1781
 20
-25.1042
 30
0.0
 10
-22.1781
 20
-25.1042
 30
0.0
  0
SPLINE
  5
48
330
1F
100
AcDbEntity
  8
Ilustrace
 62
   250
370
    30
100
AcDbSpline
210
0.0
220
0.0
230
1.0
 70
     8
 71
     3
 72
    16
 73
    12
 74
     0
 42
0.0000000001
 43
0.0000000001
 40
0.0
 40
0.0
 40
0.0
 40
0.0
 40
0.25
 40
0.25
 40
0.25
 40
0.25
 40
0.5
 40
0.5
 40
0.5
 40
0.5
 40
1.0
 40
1.0
 40
1.0
 40
1.0
 10
-22.1781
 20
-25.1042
 30
0.0
 10
-22.6471
 20
-25.1042
 30
0.0
 10
-23.263
 20
-25.2295
 30
0.0
 10
-23.6035
 20
-24.8028
 30
0.0
 10
-23.6035
 20
-24.8028
 30
0.0
 10
-23.6593
 20
-24.7328
 30
0.0
 10
-23.7032
 20
-24.6533
 30
0.0
 10
-23.733
 20
-24.5685
 30
0.0
 10
-23.733
 20
-24.5685
 30
0.0
 10
-23.7636
 20
-24.4811
 30
0.0
 10
-23.7727
 20
-24.3958
 30
0.0
 10
-23.7779
 20
-24.3042
 30
0.0
  0
SPLINE
  5
49
330
1F
100
AcDbEntity
  8
Ilustrace
 62
   250
370
    30
100
AcDbSpline
210
0.0
220
0.0
230
1.0
 70
     8
 71
     3
 72
     8
 73
     4
 74
     0
 42
0.0000000001
 43
0.0000000001
 40
0.0
 40
0.0
 40
0.0
 40
0.0
 40
1.0
 40
1.0
 40
1.0
 40
1.0
 10
16.9955
 20
15.3631
 30
0.0
 10
16.7663
 20
15.915
 30
0.0
 10
15.9055
 20
15.7724
 30
0.0
 10
15.4989
 20
15.7724
 30
0.0
  0
SPLINE
  5
4A
330
1F
100
AcDbEntity
  8
Ilustrace
 62
   250
370
    30
100
AcDbSpline
210
0.0
220
0.0
230
1.0
 70
    24
 71
     3
 72
    12
 73
     8
 74
     0
 42
0.0000000001
 43
0.0000000001
 40
0.0
 40
0.0
 40
0.0
 40
0.0
 40
0.3333333333333333
 40
0.3333333333333333
 40
0.3333333333333333
 40
0.3333333333333333
 40
1.0
 40
1.0
 40
1.0
 40
1.0
 10
15.4989
 20
15.7724
 30
0.0
 10
15.4989
 20
15.7724
 30
0.0
 10
-22.1781
 20
15.7724
 30
0.0
 10
-22.1781
 20
15.7724
 30
0.0
 10
-22.1781
 20
15.7724
 30
0.0
 10
-22.1781
 20
15.7724
 30
0.0
 10
-22.978
 20
15.7724
 30
0.0
 10
-22.978
 20
15.7724
 30
0.0
  0
SPLINE
  5
4B
330
1F
100
AcDbEntity
  8
Ilustrace
 62
   250
370
    30
100
AcDbSpline
210
0.0
220
0.0
230
1.0
 70
     8
 71
     3
 72
     8
 73
     4
 74
     0
 42
0.0000000001
 43
0.0000000001
 40
0.0
 40
0.0
 40
0.0
 40
0.0
 40
1.0
 40
1.0
 40
1.0
 40
1.0
 10
-22.978
 20
15.7724
 30
0.0
 10
-23.432
 20
15.747
 30
0.0
 10
-23.7524
 20
15.4262
 30
0.0
 10
-23.7779
 20
14.9724
 30
0.0
  0
SPLINE
  5
4C
330
1F
100
AcDbEntity
  8
Ilustrace
 62
   250
370
    30
100
AcDbSpline
210
0.0
220
0.0
230
1.0
 70
    24
 71
     3
 72
     8
 73
     4
 74
     0
 42
0.0000000001
 43
0.0000000001
 40
0.0
 40
0.0
 40
0.0
 40
0.0
 40
1.0
 40
1.0
 40
1.0
 40
1.0
 10
-14.1388
 20
9.3727
 30
0.0
 10
-14.1388
 20
9.3727
 30
0.0
 10
-14.4491
 20
9.4138
 30
0.0
 10
-14.4491
 20
9.4138
 30
0.0
  0
SPLINE
  5
4D
330
1F
100
AcDbEntity
  8
Ilustrace
 62
   250
370
    30
100
AcDbSpline
210
0.0
220
0.0
230
1.0
 70
     8
 71
     3
 72
    16
 73
    12
 74
     0
 42
0.0000000001
 43
0.0000000001
 40
0.0
 40
0.0
 40
0.0
 40
0.0
 40
0.25
 40
0.25
 40
0.25
 40
0.25
 40
0.5
 40
0.5
 40
0.5
 40
0.5
 40
1.0
 40
1.0
 40
1.0
 40
1.0
 10
-14.4491
 20
9.4138
 30
0.0
 10
-14.7549
 20
9.4958
 30
0.0
 10
-15.0196
 20
9.6988
 30
0.0
 10
-15.1777
 20
9.9728
 30
0.0
 10
-15.1777
 20
9.9728
 30
0.0
 10
-15.5589
 20
10.6327
 30
0.0
 10
-15.2171
 20
11.4921
 30
0.0
 10
-14.4979
 20
11.7177
 30
0.0
 10
-14.4979
 20
11.7177
 30
0.0
 10
-14.1445
 20
11.8286
 30
0.0
 10
-13.6629
 20
11.7727
 30
0.0
 10
-13.3387
 20
11.7727
 30
0.0
  0
SPLINE
  5
4E
330
1F
100
AcDbEntity
  8
Ilustrace
 62
   250
370
    30
100
AcDbSpline
210
0.0
220
0.0
230
1.0
 70
    24
 71
     3
 72
     8
 73
     4
 74
     0
 42
0.0000000001
 43
0.0000000001
 40
0.0
 40
0.0
 40
0.0
 40
0.0
 40
1.0
 40
1.0
 40
1.0
 40
1.0
 10
-13.3387
 20
11.7727
 30
0.0
 10
-13.3387
 20
11.7727
 30
0.0
 10
6.6595
 20
11.7727
 30
0.0
 10
6.6595
 20
11.7727
 30
0.0
  0
SPLINE
  5
4F
330
1F
100
AcDbEntity
  8
Ilustrace
 62
   250
370
    30
100
AcDbSpline
210
0.0
220
0.0
230
1.0
 70
     8
 71
     3
 72
    16
 73
    12
 74
     0
 42
0.0000000001
 43
0.0000000001
 40
0.0
 40
0.0
 40
0.0
 40
0.0
 40
0.25
 40
0.25
 40
0.25
 40
0.25
 40
0.5
 40
0.5
 40
0.5
 40
0.5
 40
1.0
 40
1.0
 40
1.0
 40
1.0
 10
6.6595
 20
11.7727
 30
0.0
 10
7.2561
 20
11.7727
 30
0.0
 10
7.8817
 20
11.8704
 30
0.0
 10
8.3292
 20
11.3995
 30
0.0
 10
8.3292
 20
11.3995
 30
0.0
 10
8.7956
 20
10.9089
 30
0.0
 10
8.7546
 20
10.1033
 30
0.0
 10
8.2412
 20
9.6624
 30
0.0
 10
8.2412
 20
9.6624
 30
0.0
 10
8.017
 20
9.47
 30
0.0
 10
7.7498
 20
9.3876
 30
0.0
 10
7.4594
 20
9.3727
 30
0.0
  0
SPLINE
  5
50
330
1F
100
AcDbEntity
  8
Ilustrace
 62
   250
370
    30
100
AcDbSpline
210
0.0
220
0.0
230
1.0
 70
     8
 71
     3
 72
    12
 73
     8
 74
     0
 42
0.0000000001
 43
0.0000000001
 40
0.0
 40
0.0
 40
0.0
 40
0.0
 40
0.3333333333333333
 40
0.3333333333333333
 40
0.3333333333333333
 40
0.3333333333333333
 40
1.0
 40
1.0
 40
1.0
 40
1.0
 10
-15.3371
 20
10.5611
 30
0.0
 10
-15.3371
 20
10.0032
 30
0.0
 10
-14.9246
 20
9.5093
 30
0.0
 10
-14.3801
 20
9.3974
 30
0.0
 10
-14.3801
 20
9.3974
 30
0.0
 10
-14.0618
 20
9.3321
 30
0.0
 10
-13.5936
 20
9.3727
 30
0.0
 10
-13.3387
 20
9.3727
 30
0.0
  0
SPLINE
  5
51
330
1F
100
AcDbEntity
  8
Ilustrace
 62
   250
370
    30
100
AcDbSpline
210
0.0
220
0.0
230
1.0
 70
    24
 71
     3
 72
     8
 73
     4
 74
     0
 42
0.0000000001
 43
0.0000000001
 40
0.0
 40
0.0
 40
0.0
 40
0.0
 40
1.0
 40
1.0
 40
1.0
 40
1.0
 10
-13.3387
 20
9.3727
 30
0.0
 10
-13.3387
 20
9.3727
 30
0.0
 10
6.6595
 20
9.3727
 30
0.0
 10
6.6595
 20
9.3727
 30
0.0
  0
SPLINE
  5
52
330
1F
100
AcDbEntity
  8
Ilustrace
 62
   250
370
    30
100
AcDbSpline
210
0.0
220
0.0
230
1.0
 70
     8
 71
     3
 72
     8
 73
     4
 74
     0
 42
0.0000000001
 43
0.0000000001
 40
0.0
 40
0.0
 40
0.0
 40
0.0
 40
1.0
 40
1.0
 40
1.0
 40
1.0
 10
6.6595
 20
9.3727
 30
0.0
 10
7.2369
 20
9.3727
 30
0.0
 10
7.8603
 20
9.2767
 30
0.0
 10
8.308
 20
9.7244
 30
0.0
  0
SPLINE
  5
53
330
1F
100
AcDbEntity
  8
Ilustrace
 62
   250
370
    30
100
AcDbSpline
210
0.0
220
0.0
230
1.0
 70
     8
 71
     3
 72
    12
 73
     8
 74
     0
 42
0.0000000001
 43
0.0000000001
 40
0.0
 40
0.0
 40
0.0
 40
0.0
 40
0.3333333333333333
 40
0.3333333333333333
 40
0.3333333333333333
 40
0.3333333333333333
 40
1.0
 40
1.0
 40
1.0
 40
1.0
 10
8.308
 20
9.7244
 30
0.0
 10
8.308
 20
9.7244
 30
0.0
 10
8.4986
 20
9.9728
 30
0.0
 10
8.4986
 20
9.9728
 30
0.0
 10
8.4986
 20
9.9728
 30
0.0
 10
8.4986
 20
9.9728
 30
0.0
 10
8.6187
 20
10.2621
 30
0.0
 10
8.6187
 20
10.2621
 30
0.0
  0
SPLINE
  5
54
330
1F
100
AcDbEntity
  8
Ilustrace
 62
   250
370
    30
100
AcDbSpline
210
0.0
220
0.0
230
1.0
 70
     8
 71
     3
 72
     8
 73
     4
 74
     0
 42
0.0000000001
 43
0.0000000001
 40
0.0
 40
0.0
 40
0.0
 40
0.0
 40
1.0
 40
1.0
 40
1.0
 40
1.0
 10
8.6187
 20
10.2621
 30
0.0
 10
8.6915
 20
10.5344
 30
0.0
 10
8.6547
 20
10.6091
 30
0.0
 10
8.6188
 20
10.8805
 30
0.0
  0
SPLINE
  5
55
330
1F
100
AcDbEntity
  8
Ilustrace
 62
   250
370
    30
100
AcDbSpline
210
0.0
220
0.0
230
1.0
 70
     8
 71
     3
 72
     8
 73
     4
 74
     0
 42
0.0000000001
 43
0.0000000001
 40
0.0
 40
0.0
 40
0.0
 40
0.0
 40
1.0
 40
1.0
 40
1.0
 40
1.0
 10
-18.5667
 20
-16.6634
 30
0.0
 10
-18.2987
 20
-16.6281
 30
0.0
 10
-18.2207
 20
-16.644
 30
0.0
 10
-17.9784
 20
-16.5041
 30
0.0
  0
SPLINE
  5
56
330
1F
100
AcDbEntity
  8
Ilustrace
 62
   250
370
    30
100
AcDbSpline
210
0.0
220
0.0
230
1.0
 70
    24
 71
     3
 72
     8
 73
     4
 74
     0
 42
0.0000000001
 43
0.0000000001
 40
0.0
 40
0.0
 40
0.0
 40
0.0
 40
1.0
 40
1.0
 40
1.0
 40
1.0
 10
-17.9784
 20
-16.5041
 30
0.0
 10
-17.9784
 20
-16.5041
 30
0.0
 10
-17.7298
 20
-16.3134
 30
0.0
 10
-17.7298
 20
-16.3134
 30
0.0
  0
SPLINE
  5
57
330
1F
100
AcDbEntity
  8
Ilustrace
 62
   250
370
    30
100
AcDbSpline
210
0.0
220
0.0
230
1.0
 70
     8
 71
     3
 72
     8
 73
     4
 74
     0
 42
0.0000000001
 43
0.0000000001
 40
0.0
 40
0.0
 40
0.0
 40
0.0
 40
1.0
 40
1.0
 40
1.0
 40
1.0
 10
-17.7298
 20
-16.3134
 30
0.0
 10
-17.2824
 20
-15.8657
 30
0.0
 10
-17.3783
 20
-15.2424
 30
0.0
 10
-17.3783
 20
-14.665
 30
0.0
  0
SPLINE
  5
58
330
1F
100
AcDbEntity
  8
Ilustrace
 62
   250
370
    30
100
AcDbSpline
210
0.0
220
0.0
230
1.0
 70
    24
 71
     3
 72
     8
 73
     4
 74
     0
 42
0.0000000001
 43
0.0000000001
 40
0.0
 40
0.0
 40
0.0
 40
0.0
 40
1.0
 40
1.0
 40
1.0
 40
1.0
 10
-17.3783
 20
-14.665
 30
0.0
 10
-17.3783
 20
-14.665
 30
0.0
 10
-17.3783
 20
5.3335
 30
0.0
 10
-17.3783
 20
5.3335
 30
0.0
  0
SPLINE
  5
59
330
1F
100
AcDbEntity
  8
Ilustrace
 62
   250
370
    30
100
AcDbSpline
210
0.0
220
0.0
230
1.0
 70
     8
 71
     3
 72
    28
 73
    24
 74
     0
 42
0.0000000001
 43
0.0000000001
 40
0.0
 40
0.0
 40
0.0
 40
0.0
 40
0.1428571428571428
 40
0.1428571428571428
 40
0.1428571428571428
 40
0.1428571428571428
 40
0.2857142857142857
 40
0.2857142857142857
 40
0.2857142857142857
 40
0.2857142857142857
 40
0.4285714285714285
 40
0.4285714285714285
 40
0.4285714285714285
 40
0.4285714285714285
 40
0.5714285714285714
 40
0.5714285714285714
 40
0.5714285714285714
 40
0.5714285714285714
 40
0.7142857142857143
 40
0.7142857142857143
 40
0.7142857142857143
 40
0.7142857142857143
 40
1.0
 40
1.0
 40
1.0
 40
1.0
 10
-17.3783
 20
5.3335
 30
0.0
 10
-17.3783
 20
5.9739
 30
0.0
 10
-17.2811
 20
6.6464
 30
0.0
 10
-17.8438
 20
7.0821
 30
0.0
 10
-17.8438
 20
7.0821
 30
0.0
 10
-17.9399
 20
7.1565
 30
0.0
 10
-18.0476
 20
7.2162
 30
0.0
 10
-18.1617
 20
7.2584
 30
0.0
 10
-18.1617
 20
7.2584
 30
0.0
 10
-18.3179
 20
7.3164
 30
0.0
 10
-18.4738
 20
7.3316
 30
0.0
 10
-18.6392
 20
7.3316
 30
0.0
 10
-18.6392
 20
7.3316
 30
0.0
 10
-18.8035
 20
7.3147
 30
0.0
 10
-18.957
 20
7.2839
 30
0.0
 10
-19.1067
 20
7.2105
 30
0.0
 10
-19.1067
 20
7.2105
 30
0.0
 10
-19.2159
 20
7.1569
 30
0.0
 10
-19.3169
 20
7.0866
 30
0.0
 10
-19.4051
 20
7.0028
 30
0.0
 10
-19.4051
 20
7.0028
 30
0.0
 10
-19.876
 20
6.5553
 30
0.0
 10
-19.7783
 20
5.9301
 30
0.0
 10
-19.7783
 20
5.3335
 30
0.0
  0
SPLINE
  5
5A
330
1F
100
AcDbEntity
  8
Ilustrace
 62
   250
370
    30
100
AcDbSpline
210
0.0
220
0.0
230
1.0
 70
    24
 71
     3
 72
     8
 73
     4
 74
     0
 42
0.0000000001
 43
0.0000000001
 40
0.0
 40
0.0
 40
0.0
 40
0.0
 40
1.0
 40
1.0
 40
1.0
 40
1.0
 10
-19.7783
 20
5.3335
 30
0.0
 10
-19.7783
 20
5.3335
 30
0.0
 10
-19.7783
 20
-14.665
 30
0.0
 10
-19.7783
 20
-14.665
 30
0.0
  0
SPLINE
  5
5B
330
1F
100
AcDbEntity
  8
Ilustrace
 62
   250
370
    30
100
AcDbSpline
210
0.0
220
0.0
230
1.0
 70
     8
 71
     3
 72
    16
 73
    12
 74
     0
 42
0.0000000001
 43
0.0000000001
 40
0.0
 40
0.0
 40
0.0
 40
0.0
 40
0.25
 40
0.25
 40
0.25
 40
0.25
 40
0.5
 40
0.5
 40
0.5
 40
0.5
 40
1.0
 40
1.0
 40
1.0
 40
1.0
 10
-19.7783
 20
-14.665
 30
0.0
 10
-19.7783
 20
-15.2617
 30
0.0
 10
-19.876
 20
-15.8869
 30
0.0
 10
-19.4051
 20
-16.3346
 30
0.0
 10
-19.4051
 20
-16.3346
 30
0.0
 10
-18.9145
 20
-16.8011
 30
0.0
 10
-18.1088
 20
-16.7602
 30
0.0
 10
-17.6679
 20
-16.2464
 30
0.0
 10
-17.6679
 20
-16.2464
 30
0.0
 10
-17.4757
 20
-16.0226
 30
0.0
 10
-17.3932
 20
-15.7551
 30
0.0
 10
-17.3783
 20
-15.465
 30
0.0
  0
SPLINE
  5
5C
330
1F
100
AcDbEntity
  8
Ilustrace
 62
   250
370
    30
100
AcDbSpline
210
0.0
220
0.0
230
1.0
 70
     8
 71
     3
 72
    16
 73
    12
 74
     0
 42
0.0000000001
 43
0.0000000001
 40
0.0
 40
0.0
 40
0.0
 40
0.0
 40
0.25
 40
0.25
 40
0.25
 40
0.25
 40
0.5
 40
0.5
 40
0.5
 40
0.5
 40
1.0
 40
1.0
 40
1.0
 40
1.0
 10
7.4594
 20
-18.7046
 30
0.0
 10
7.6663
 20
-18.7152
 30
0.0
 10
7.8589
 20
-18.7539
 30
0.0
 10
8.0419
 20
-18.8555
 30
0.0
 10
8.0419
 20
-18.8555
 30
0.0
 10
8.717
 20
-19.2302
 30
0.0
 10
8.8614
 20
-20.1715
 30
0.0
 10
8.3292
 20
-20.7311
 30
0.0
 10
8.3292
 20
-20.7311
 30
0.0
 10
8.0959
 20
-20.9765
 30
0.0
 10
7.7917
 20
-21.0875
 30
0.0
 10
7.4594
 20
-21.1046
 30
0.0
  0
SPLINE
  5
5D
330
1F
100
AcDbEntity
  8
Ilustrace
 62
   250
370
    30
100
AcDbSpline
210
0.0
220
0.0
230
1.0
 70
    24
 71
     3
 72
    12
 73
     8
 74
     0
 42
0.0000000001
 43
0.0000000001
 40
0.0
 40
0.0
 40
0.0
 40
0.0
 40
0.3333333333333333
 40
0.3333333333333333
 40
0.3333333333333333
 40
0.3333333333333333
 40
1.0
 40
1.0
 40
1.0
 40
1.0
 10
7.4594
 20
-21.1046
 30
0.0
 10
7.4594
 20
-21.1046
 30
0.0
 10
6.6595
 20
-21.1046
 30
0.0
 10
6.6595
 20
-21.1046
 30
0.0
 10
6.6595
 20
-21.1046
 30
0.0
 10
6.6595
 20
-21.1046
 30
0.0
 10
-13.3387
 20
-21.1046
 30
0.0
 10
-13.3387
 20
-21.1046
 30
0.0
  0
SPLINE
  5
5E
330
1F
100
AcDbEntity
  8
Ilustrace
 62
   250
370
    30
100
AcDbSpline
210
0.0
220
0.0
230
1.0
 70
     8
 71
     3
 72
     8
 73
     4
 74
     0
 42
0.0000000001
 43
0.0000000001
 40
0.0
 40
0.0
 40
0.0
 40
0.0
 40
1.0
 40
1.0
 40
1.0
 40
1.0
 10
-13.3387
 20
-21.1046
 30
0.0
 10
-13.9159
 20
-21.1046
 30
0.0
 10
-14.5394
 20
-21.2007
 30
0.0
 10
-14.9871
 20
-20.753
 30
0.0
  0
SPLINE
  5
5F
330
1F
100
AcDbEntity
  8
Ilustrace
 62
   250
370
    30
100
AcDbSpline
210
0.0
220
0.0
230
1.0
 70
    24
 71
     3
 72
     8
 73
     4
 74
     0
 42
0.0000000001
 43
0.0000000001
 40
0.0
 40
0.0
 40
0.0
 40
0.0
 40
1.0
 40
1.0
 40
1.0
 40
1.0
 10
-14.9871
 20
-20.753
 30
0.0
 10
-14.9871
 20
-20.753
 30
0.0
 10
-15.1777
 20
-20.5045
 30
0.0
 10
-15.1777
 20
-20.5045
 30
0.0
  0
SPLINE
  5
60
330
1F
100
AcDbEntity
  8
Ilustrace
 62
   250
370
    30
100
AcDbSpline
210
0.0
220
0.0
230
1.0
 70
     8
 71
     3
 72
     8
 73
     4
 74
     0
 42
0.0000000001
 43
0.0000000001
 40
0.0
 40
0.0
 40
0.0
 40
0.0
 40
1.0
 40
1.0
 40
1.0
 40
1.0
 10
-15.1777
 20
-20.5045
 30
0.0
 10
-15.3176
 20
-20.2624
 30
0.0
 10
-15.3018
 20
-20.1841
 30
0.0
 10
-15.3371
 20
-19.9163
 30
0.0
  0
SPLINE
  5
61
330
1F
100
AcDbEntity
  8
Ilustrace
 62
   250
370
    30
100
AcDbSpline
210
0.0
220
0.0
230
1.0
 70
     8
 71
     3
 72
     8
 73
     4
 74
     0
 42
0.0000000001
 43
0.0000000001
 40
0.0
 40
0.0
 40
0.0
 40
0.0
 40
1.0
 40
1.0
 40
1.0
 40
1.0
 10
11.9108
 20
-16.6634
 30
0.0
 10
12.1788
 20
-16.6281
 30
0.0
 10
12.2568
 20
-16.644
 30
0.0
 10
12.4991
 20
-16.5041
 30
0.0
  0
SPLINE
  5
62
330
1F
100
AcDbEntity
  8
Ilustrace
 62
   250
370
    30
100
AcDbSpline
210
0.0
220
0.0
230
1.0
 70
    24
 71
     3
 72
     8
 73
     4
 74
     0
 42
0.0000000001
 43
0.0000000001
 40
0.0
 40
0.0
 40
0.0
 40
0.0
 40
1.0
 40
1.0
 40
1.0
 40
1.0
 10
12.4991
 20
-16.5041
 30
0.0
 10
12.4991
 20
-16.5041
 30
0.0
 10
12.7477
 20
-16.3134
 30
0.0
 10
12.7477
 20
-16.3134
 30
0.0
  0
SPLINE
  5
63
330
1F
100
AcDbEntity
  8
Ilustrace
 62
   250
370
    30
100
AcDbSpline
210
0.0
220
0.0
230
1.0
 70
     8
 71
     3
 72
     8
 73
     4
 74
     0
 42
0.0000000001
 43
0.0000000001
 40
0.0
 40
0.0
 40
0.0
 40
0.0
 40
1.0
 40
1.0
 40
1.0
 40
1.0
 10
12.7477
 20
-16.3134
 30
0.0
 10
13.1951
 20
-15.8657
 30
0.0
 10
13.0992
 20
-15.2424
 30
0.0
 10
13.0992
 20
-14.665
 30
0.0
  0
SPLINE
  5
64
330
1F
100
AcDbEntity
  8
Ilustrace
 62
   250
370
    30
100
AcDbSpline
210
0.0
220
0.0
230
1.0
 70
    24
 71
     3
 72
     8
 73
     4
 74
     0
 42
0.0000000001
 43
0.0000000001
 40
0.0
 40
0.0
 40
0.0
 40
0.0
 40
1.0
 40
1.0
 40
1.0
 40
1.0
 10
13.0992
 20
-14.665
 30
0.0
 10
13.0992
 20
-14.665
 30
0.0
 10
13.0992
 20
5.3335
 30
0.0
 10
13.0992
 20
5.3335
 30
0.0
  0
SPLINE
  5
65
330
1F
100
AcDbEntity
  8
Ilustrace
 62
   250
370
    30
100
AcDbSpline
210
0.0
220
0.0
230
1.0
 70
     8
 71
     3
 72
    28
 73
    24
 74
     0
 42
0.0000000001
 43
0.0000000001
 40
0.0
 40
0.0
 40
0.0
 40
0.0
 40
0.1428571428571428
 40
0.1428571428571428
 40
0.1428571428571428
 40
0.1428571428571428
 40
0.2857142857142857
 40
0.2857142857142857
 40
0.2857142857142857
 40
0.2857142857142857
 40
0.4285714285714285
 40
0.4285714285714285
 40
0.4285714285714285
 40
0.4285714285714285
 40
0.5714285714285714
 40
0.5714285714285714
 40
0.5714285714285714
 40
0.5714285714285714
 40
0.7142857142857143
 40
0.7142857142857143
 40
0.7142857142857143
 40
0.7142857142857143
 40
1.0
 40
1.0
 40
1.0
 40
1.0
 10
13.0992
 20
5.3335
 30
0.0
 10
13.0992
 20
5.9739
 30
0.0
 10
13.1964
 20
6.6464
 30
0.0
 10
12.6337
 20
7.0821
 30
0.0
 10
12.6337
 20
7.0821
 30
0.0
 10
12.5376
 20
7.1565
 30
0.0
 10
12.4299
 20
7.2162
 30
0.0
 10
12.3158
 20
7.2584
 30
0.0
 10
12.3158
 20
7.2584
 30
0.0
 10
12.1596
 20
7.3164
 30
0.0
 10
12.0037
 20
7.3316
 30
0.0
 10
11.8383
 20
7.3316
 30
0.0
 10
11.8383
 20
7.3316
 30
0.0
 10
11.674
 20
7.3147
 30
0.0
 10
11.5205
 20
7.2839
 30
0.0
 10
11.3708
 20
7.2105
 30
0.0
 10
11.3708
 20
7.2105
 30
0.0
 10
11.2616
 20
7.1569
 30
0.0
 10
11.1606
 20
7.0866
 30
0.0
 10
11.0724
 20
7.0028
 30
0.0
 10
11.0724
 20
7.0028
 30
0.0
 10
10.6015
 20
6.5553
 30
0.0
 10
10.6992
 20
5.9301
 30
0.0
 10
10.6992
 20
5.3335
 30
0.0
  0
SPLINE
  5
66
330
1F
100
AcDbEntity
  8
Ilustrace
 62
   250
370
    30
100
AcDbSpline
210
0.0
220
0.0
230
1.0
 70
    24
 71
     3
 72
     8
 73
     4
 74
     0
 42
0.0000000001
 43
0.0000000001
 40
0.0
 40
0.0
 40
0.0
 40
0.0
 40
1.0
 40
1.0
 40
1.0
 40
1.0
 10
10.6992
 20
5.3335
 30
0.0
 10
10.6992
 20
5.3335
 30
0.0
 10
10.6992
 20
-14.665
 30
0.0
 10
10.6992
 20
-14.665
 30
0.0
  0
SPLINE
  5
67
330
1F
100
AcDbEntity
  8
Ilustrace
 62
   250
370
    30
100
AcDbSpline
210
0.0
220
0.0
230
1.0
 70
     8
 71
     3
 72
    16
 73
    12
 74
     0
 42
0.0000000001
 43
0.0000000001
 40
0.0
 40
0.0
 40
0.0
 40
0.0
 40
0.25
 40
0.25
 40
0.25
 40
0.25
 40
0.5
 40
0.5
 40
0.5
 40
0.5
 40
1.0
 40
1.0
 40
1.0
 40
1.0
 10
10.6992
 20
-14.665
 30
0.0
 10
10.6992
 20
-15.2617
 30
0.0
 10
10.6015
 20
-15.8869
 30
0.0
 10
11.0724
 20
-16.3346
 30
0.0
 10
11.0724
 20
-16.3346
 30
0.0
 10
11.563
 20
-16.8011
 30
0.0
 10
12.3687
 20
-16.7602
 30
0.0
 10
12.8096
 20
-16.2464
 30
0.0
 10
12.8096
 20
-16.2464
 30
0.0
 10
13.0018
 20
-16.0226
 30
0.0
 10
13.0843
 20
-15.7551
 30
0.0
 10
13.0992
 20
-15.465
 30
0.0
  0
SPLINE
  5
68
330
1F
100
AcDbEntity
  8
Ilustrace
 62
   250
370
    30
100
AcDbSpline
210
0.0
220
0.0
230
1.0
 70
    24
 71
     3
 72
     8
 73
     4
 74
     0
 42
0.0000000001
 43
0.0000000001
 40
0.0
 40
0.0
 40
0.0
 40
0.0
 40
1.0
 40
1.0
 40
1.0
 40
1.0
 10
8.6188
 20
-19.5967
 30
0.0
 10
8.6188
 20
-19.5967
 30
0.0
 10
8.6593
 20
-19.9047
 30
0.0
 10
8.6593
 20
-19.9047
 30
0.0
  0
SPLINE
  5
69
330
1F
100
AcDbEntity
  8
Ilustrace
 62
   250
370
    30
100
AcDbSpline
210
0.0
220
0.0
230
1.0
 70
     8
 71
     3
 72
    12
 73
     8
 74
     0
 42
0.0000000001
 43
0.0000000001
 40
0.0
 40
0.0
 40
0.0
 40
0.0
 40
0.3333333333333333
 40
0.3333333333333333
 40
0.3333333333333333
 40
0.3333333333333333
 40
1.0
 40
1.0
 40
1.0
 40
1.0
 10
8.6593
 20
-19.9047
 30
0.0
 10
8.6593
 20
-20.3296
 30
0.0
 10
8.4275
 20
-20.7311
 30
0.0
 10
8.0595
 20
-20.9436
 30
0.0
 10
8.0595
 20
-20.9436
 30
0.0
 10
7.8148
 20
-21.0849
 30
0.0
 10
7.7323
 20
-21.0687
 30
0.0
 10
7.4594
 20
-21.1046
 30
0.0
  0
SPLINE
  5
6A
330
1F
100
AcDbEntity
  8
Ilustrace
 62
   250
370
    30
100
AcDbSpline
210
0.0
220
0.0
230
1.0
 70
    24
 71
     3
 72
    12
 73
     8
 74
     0
 42
0.0000000001
 43
0.0000000001
 40
0.0
 40
0.0
 40
0.0
 40
0.0
 40
0.3333333333333333
 40
0.3333333333333333
 40
0.3333333333333333
 40
0.3333333333333333
 40
1.0
 40
1.0
 40
1.0
 40
1.0
 10
7.4594
 20
-21.1046
 30
0.0
 10
7.4594
 20
-21.1046
 30
0.0
 10
6.6595
 20
-21.1046
 30
0.0
 10
6.6595
 20
-21.1046
 30
0.0
 10
6.6595
 20
-21.1046
 30
0.0
 10
6.6595
 20
-21.1046
 30
0.0
 10
-13.3387
 20
-21.1046
 30
0.0
 10
-13.3387
 20
-21.1046
 30
0.0
  0
SPLINE
  5
6B
330
1F
100
AcDbEntity
  8
Ilustrace
 62
   250
370
    30
100
AcDbSpline
210
0.0
220
0.0
230
1.0
 70
     8
 71
     3
 72
    16
 73
    12
 74
     0
 42
0.0000000001
 43
0.0000000001
 40
0.0
 40
0.0
 40
0.0
 40
0.0
 40
0.25
 40
0.25
 40
0.25
 40
0.25
 40
0.5
 40
0.5
 40
0.5
 40
0.5
 40
1.0
 40
1.0
 40
1.0
 40
1.0
 10
-13.3387
 20
-21.1046
 30
0.0
 10
-13.7254
 20
-21.1046
 30
0.0
 10
-14.2255
 20
-21.1729
 30
0.0
 10
-14.612
 20
-21.0073
 30
0.0
 10
-14.612
 20
-21.0073
 30
0.0
 10
-15.4612
 20
-20.6428
 30
0.0
 10
-15.5827
 20
-19.4478
 30
0.0
 10
-14.8241
 20
-18.9197
 30
0.0
 10
-14.8241
 20
-18.9197
 30
0.0
 10
-14.3887
 20
-18.6165
 30
0.0
 10
-13.8379
 20
-18.7046
 30
0.0
 10
-13.3387
 20
-18.7046
 30
0.0
  0
SPLINE
  5
6C
330
1F
100
AcDbEntity
  8
Ilustrace
 62
   250
370
    30
100
AcDbSpline
210
0.0
220
0.0
230
1.0
 70
     8
 71
     3
 72
    16
 73
    12
 74
     0
 42
0.0000000001
 43
0.0000000001
 40
0.0
 40
0.0
 40
0.0
 40
0.0
 40
0.25
 40
0.25
 40
0.25
 40
0.25
 40
0.5
 40
0.5
 40
0.5
 40
0.5
 40
1.0
 40
1.0
 40
1.0
 40
1.0
 10
-13.3387
 20
-18.7046
 30
0.0
 10
-13.3387
 20
-18.7046
 30
0.0
 10
6.6595
 20
-18.7046
 30
0.0
 10
6.6595
 20
-18.7046
 30
0.0
 10
6.6595
 20
-18.7046
 30
0.0
 10
6.6595
 20
-18.7046
 30
0.0
 10
7.4594
 20
-18.7046
 30
0.0
 10
7.4594
 20
-18.7046
 30
0.0
 10
7.4594
 20
-18.7046
 30
0.0
 10
7.4594
 20
-18.7046
 30
0.0
 10
7.7578
 20
-18.744
 30
0.0
 10
7.7578
 20
-18.744
 30
0.0
  0
SPLINE
  5
6D
330
1F
100
AcDbEntity
  8
Ilustrace
 62
   250
370
    30
100
AcDbSpline
210
0.0
220
0.0
230
1.0
 70
     8
 71
     3
 72
     8
 73
     4
 74
     0
 42
0.0000000001
 43
0.0000000001
 40
0.0
 40
0.0
 40
0.0
 40
0.0
 40
1.0
 40
1.0
 40
1.0
 40
1.0
 10
-13.7903
 20
-11.8637
 30
0.0
 10
-14.0583
 20
-11.8285
 30
0.0
 10
-14.1363
 20
-11.8444
 30
0.0
 10
-14.3786
 20
-11.7044
 30
0.0
  0
SPLINE
  5
6E
330
1F
100
AcDbEntity
  8
Ilustrace
 62
   250
370
    30
100
AcDbSpline
210
0.0
220
0.0
230
1.0
 70
    24
 71
     3
 72
     8
 73
     4
 74
     0
 42
0.0000000001
 43
0.0000000001
 40
0.0
 40
0.0
 40
0.0
 40
0.0
 40
1.0
 40
1.0
 40
1.0
 40
1.0
 10
-14.3786
 20
-11.7044
 30
0.0
 10
-14.3786
 20
-11.7044
 30
0.0
 10
-14.627
 20
-11.5136
 30
0.0
 10
-14.627
 20
-11.5136
 30
0.0
  0
SPLINE
  5
6F
330
1F
100
AcDbEntity
  8
Ilustrace
 62
   250
370
    30
100
AcDbSpline
210
0.0
220
0.0
230
1.0
 70
     8
 71
     3
 72
     8
 73
     4
 74
     0
 42
0.0000000001
 43
0.0000000001
 40
0.0
 40
0.0
 40
0.0
 40
0.0
 40
1.0
 40
1.0
 40
1.0
 40
1.0
 10
-14.627
 20
-11.5136
 30
0.0
 10
-15.0748
 20
-11.0661
 30
0.0
 10
-14.9786
 20
-10.4426
 30
0.0
 10
-14.9786
 20
-9.8655
 30
0.0
  0
SPLINE
  5
70
330
1F
100
AcDbEntity
  8
Ilustrace
 62
   250
370
    30
100
AcDbSpline
210
0.0
220
0.0
230
1.0
 70
    24
 71
     3
 72
     8
 73
     4
 74
     0
 42
0.0000000001
 43
0.0000000001
 40
0.0
 40
0.0
 40
0.0
 40
0.0
 40
1.0
 40
1.0
 40
1.0
 40
1.0
 10
-14.9786
 20
-9.8655
 30
0.0
 10
-14.9786
 20
-9.8655
 30
0.0
 10
-14.9786
 20
0.5339
 30
0.0
 10
-14.9786
 20
0.5339
 30
0.0
  0
SPLINE
  5
71
330
1F
100
AcDbEntity
  8
Ilustrace
 62
   250
370
    30
100
AcDbSpline
210
0.0
220
0.0
230
1.0
 70
     8
 71
     3
 72
    16
 73
    12
 74
     0
 42
0.0000000001
 43
0.0000000001
 40
0.0
 40
0.0
 40
0.0
 40
0.0
 40
0.25
 40
0.25
 40
0.25
 40
0.25
 40
0.5
 40
0.5
 40
0.5
 40
0.5
 40
1.0
 40
1.0
 40
1.0
 40
1.0
 10
-14.9786
 20
0.5339
 30
0.0
 10
-14.9786
 20
1.0329
 30
0.0
 10
-15.0668
 20
1.5836
 30
0.0
 10
-14.7636
 20
2.0192
 30
0.0
 10
-14.7636
 20
2.0192
 30
0.0
 10
-14.2355
 20
2.7777
 30
0.0
 10
-13.0404
 20
2.6564
 30
0.0
 10
-12.6761
 20
1.8068
 30
0.0
 10
-12.6761
 20
1.8068
 30
0.0
 10
-12.5102
 20
1.4205
 30
0.0
 10
-12.5788
 20
0.9206
 30
0.0
 10
-12.5788
 20
0.5339
 30
0.0
  0
SPLINE
  5
72
330
1F
100
AcDbEntity
  8
Ilustrace
 62
   250
370
    30
100
AcDbSpline
210
0.0
220
0.0
230
1.0
 70
    24
 71
     3
 72
     8
 73
     4
 74
     0
 42
0.0000000001
 43
0.0000000001
 40
0.0
 40
0.0
 40
0.0
 40
0.0
 40
1.0
 40
1.0
 40
1.0
 40
1.0
 10
-12.5788
 20
0.5339
 30
0.0
 10
-12.5788
 20
0.5339
 30
0.0
 10
-12.5788
 20
-9.8655
 30
0.0
 10
-12.5788
 20
-9.8655
 30
0.0
  0
SPLINE
  5
73
330
1F
100
AcDbEntity
  8
Ilustrace
 62
   250
370
    30
100
AcDbSpline
210
0.0
220
0.0
230
1.0
 70
     8
 71
     3
 72
    28
 73
    24
 74
     0
 42
0.0000000001
 43
0.0000000001
 40
0.0
 40
0.0
 40
0.0
 40
0.0
 40
0.1428571428571428
 40
0.1428571428571428
 40
0.1428571428571428
 40
0.1428571428571428
 40
0.2857142857142857
 40
0.2857142857142857
 40
0.2857142857142857
 40
0.2857142857142857
 40
0.4285714285714285
 40
0.4285714285714285
 40
0.4285714285714285
 40
0.4285714285714285
 40
0.5714285714285714
 40
0.5714285714285714
 40
0.5714285714285714
 40
0.5714285714285714
 40
0.7142857142857143
 40
0.7142857142857143
 40
0.7142857142857143
 40
0.7142857142857143
 40
1.0
 40
1.0
 40
1.0
 40
1.0
 10
-12.5788
 20
-9.8655
 30
0.0
 10
-12.5788
 20
-10.4619
 30
0.0
 10
-12.4812
 20
-11.0874
 30
0.0
 10
-12.9519
 20
-11.5351
 30
0.0
 10
-12.9519
 20
-11.5351
 30
0.0
 10
-13.0401
 20
-11.6188
 30
0.0
 10
-13.1411
 20
-11.6891
 30
0.0
 10
-13.2503
 20
-11.7427
 30
0.0
 10
-13.2503
 20
-11.7427
 30
0.0
 10
-13.3999
 20
-11.8161
 30
0.0
 10
-13.5536
 20
-11.8469
 30
0.0
 10
-13.7179
 20
-11.8637
 30
0.0
 10
-13.7179
 20
-11.8637
 30
0.0
 10
-13.8833
 20
-11.8637
 30
0.0
 10
-14.0391
 20
-11.8485
 30
0.0
 10
-14.1954
 20
-11.7907
 30
0.0
 10
-14.1954
 20
-11.7907
 30
0.0
 10
-14.3094
 20
-11.7482
 30
0.0
 10
-14.4171
 20
-11.6887
 30
0.0
 10
-14.5133
 20
-11.6143
 30
0.0
 10
-14.5133
 20
-11.6143
 30
0.0
 10
-15.0759
 20
-11.1784
 30
0.0
 10
-14.9786
 20
-10.5059
 30
0.0
 10
-14.9786
 20
-9.8655
 30
0.0
  0
SPLINE
  5
74
330
1F
100
AcDbEntity
  8
Ilustrace
 62
   250
370
    30
100
AcDbSpline
210
0.0
220
0.0
230
1.0
 70
    24
 71
     3
 72
     8
 73
     4
 74
     0
 42
0.0000000001
 43
0.0000000001
 40
0.0
 40
0.0
 40
0.0
 40
0.0
 40
1.0
 40
1.0
 40
1.0
 40
1.0
 10
-14.9786
 20
-9.8655
 30
0.0
 10
-14.9786
 20
-9.8655
 30
0.0
 10
-14.9786
 20
0.5339
 30
0.0
 10
-14.9786
 20
0.5339
 30
0.0
  0
SPLINE
  5
75
330
1F
100
AcDbEntity
  8
Ilustrace
 62
   250
370
    30
100
AcDbSpline
210
0.0
220
0.0
230
1.0
 70
     8
 71
     3
 72
     8
 73
     4
 74
     0
 42
0.0000000001
 43
0.0000000001
 40
0.0
 40
0.0
 40
0.0
 40
0.0
 40
1.0
 40
1.0
 40
1.0
 40
1.0
 10
-14.9786
 20
0.5339
 30
0.0
 10
-14.9786
 20
0.6947
 30
0.0
 10
-15.0135
 20
1.3604
 30
0.0
 10
-14.9376
 20
1.6442
 30
0.0
  0
SPLINE
  5
76
330
1F
100
AcDbEntity
  8
Ilustrace
 62
   250
370
    30
100
AcDbSpline
210
0.0
220
0.0
230
1.0
 70
    24
 71
     3
 72
     8
 73
     4
 74
     0
 42
0.0000000001
 43
0.0000000001
 40
0.0
 40
0.0
 40
0.0
 40
0.0
 40
1.0
 40
1.0
 40
1.0
 40
1.0
 10
-14.9376
 20
1.6442
 30
0.0
 10
-14.9376
 20
1.6442
 30
0.0
 10
-14.8199
 20
1.9289
 30
0.0
 10
-14.8199
 20
1.9289
 30
0.0
  0
SPLINE
  5
77
330
1F
100
AcDbEntity
  8
Ilustrace
 62
   250
370
    30
100
AcDbSpline
210
0.0
220
0.0
230
1.0
 70
     8
 71
     3
 72
    12
 73
     8
 74
     0
 42
0.0000000001
 43
0.0000000001
 40
0.0
 40
0.0
 40
0.0
 40
0.0
 40
0.3333333333333333
 40
0.3333333333333333
 40
0.3333333333333333
 40
0.3333333333333333
 40
1.0
 40
1.0
 40
1.0
 40
1.0
 10
-10.5376
 20
-15.1166
 30
0.0
 10
-10.5376
 20
-15.6748
 30
0.0
 10
-10.1251
 20
-16.1684
 30
0.0
 10
-9.5806
 20
-16.2804
 30
0.0
 10
-9.5806
 20
-16.2804
 30
0.0
 10
-9.2622
 20
-16.3459
 30
0.0
 10
-8.7943
 20
-16.305
 30
0.0
 10
-8.5392
 20
-16.305
 30
0.0
  0
SPLINE
  5
78
330
1F
100
AcDbEntity
  8
Ilustrace
 62
   250
370
    30
100
AcDbSpline
210
0.0
220
0.0
230
1.0
 70
    24
 71
     3
 72
    12
 73
     8
 74
     0
 42
0.0000000001
 43
0.0000000001
 40
0.0
 40
0.0
 40
0.0
 40
0.0
 40
0.3333333333333333
 40
0.3333333333333333
 40
0.3333333333333333
 40
0.3333333333333333
 40
1.0
 40
1.0
 40
1.0
 40
1.0
 10
-8.5392
 20
-16.305
 30
0.0
 10
-8.5392
 20
-16.305
 30
0.0
 10
1.86
 20
-16.305
 30
0.0
 10
1.86
 20
-16.305
 30
0.0
 10
1.86
 20
-16.305
 30
0.0
 10
1.86
 20
-16.305
 30
0.0
 10
2.6599
 20
-16.305
 30
0.0
 10
2.6599
 20
-16.305
 30
0.0
  0
SPLINE
  5
79
330
1F
100
AcDbEntity
  8
Ilustrace
 62
   250
370
    30
100
AcDbSpline
210
0.0
220
0.0
230
1.0
 70
     8
 71
     3
 72
    12
 73
     8
 74
     0
 42
0.0000000001
 43
0.0000000001
 40
0.0
 40
0.0
 40
0.0
 40
0.0
 40
0.3333333333333333
 40
0.3333333333333333
 40
0.3333333333333333
 40
0.3333333333333333
 40
1.0
 40
1.0
 40
1.0
 40
1.0
 10
2.6599
 20
-16.305
 30
0.0
 10
3.1992
 20
-16.2849
 30
0.0
 10
3.6761
 20
-15.9487
 30
0.0
 10
3.8191
 20
-15.4156
 30
0.0
 10
3.8191
 20
-15.4156
 30
0.0
 10
3.8918
 20
-15.1433
 30
0.0
 10
3.8552
 20
-15.0687
 30
0.0
 10
3.8192
 20
-14.7972
 30
0.0
  0
SPLINE
  5
7A
330
1F
100
AcDbEntity
  8
Ilustrace
 62
   250
370
    30
100
AcDbSpline
210
0.0
220
0.0
230
1.0
 70
     8
 71
     3
 72
     8
 73
     4
 74
     0
 42
0.0000000001
 43
0.0000000001
 40
0.0
 40
0.0
 40
0.0
 40
0.0
 40
1.0
 40
1.0
 40
1.0
 40
1.0
 10
7.0877
 20
-11.8637
 30
0.0
 10
6.8202
 20
-11.8285
 30
0.0
 10
6.7421
 20
-11.8444
 30
0.0
 10
6.4995
 20
-11.7044
 30
0.0
  0
SPLINE
  5
7B
330
1F
100
AcDbEntity
  8
Ilustrace
 62
   250
370
    30
100
AcDbSpline
210
0.0
220
0.0
230
1.0
 70
    24
 71
     3
 72
     8
 73
     4
 74
     0
 42
0.0000000001
 43
0.0000000001
 40
0.0
 40
0.0
 40
0.0
 40
0.0
 40
1.0
 40
1.0
 40
1.0
 40
1.0
 10
6.4995
 20
-11.7044
 30
0.0
 10
6.4995
 20
-11.7044
 30
0.0
 10
6.2512
 20
-11.5136
 30
0.0
 10
6.2512
 20
-11.5136
 30
0.0
  0
SPLINE
  5
7C
330
1F
100
AcDbEntity
  8
Ilustrace
 62
   250
370
    30
100
AcDbSpline
210
0.0
220
0.0
230
1.0
 70
     8
 71
     3
 72
     8
 73
     4
 74
     0
 42
0.0000000001
 43
0.0000000001
 40
0.0
 40
0.0
 40
0.0
 40
0.0
 40
1.0
 40
1.0
 40
1.0
 40
1.0
 10
6.2512
 20
-11.5136
 30
0.0
 10
5.8034
 20
-11.0661
 30
0.0
 10
5.8997
 20
-10.4426
 30
0.0
 10
5.8997
 20
-9.8655
 30
0.0
  0
SPLINE
  5
7D
330
1F
100
AcDbEntity
  8
Ilustrace
 62
   250
370
    30
100
AcDbSpline
210
0.0
220
0.0
230
1.0
 70
    24
 71
     3
 72
     8
 73
     4
 74
     0
 42
0.0000000001
 43
0.0000000001
 40
0.0
 40
0.0
 40
0.0
 40
0.0
 40
1.0
 40
1.0
 40
1.0
 40
1.0
 10
5.8997
 20
-9.8655
 30
0.0
 10
5.8997
 20
-9.8655
 30
0.0
 10
5.8997
 20
0.5339
 30
0.0
 10
5.8997
 20
0.5339
 30
0.0
  0
SPLINE
  5
7E
330
1F
100
AcDbEntity
  8
Ilustrace
 62
   250
370
    30
100
AcDbSpline
210
0.0
220
0.0
230
1.0
 70
     8
 71
     3
 72
     8
 73
     4
 74
     0
 42
0.0000000001
 43
0.0000000001
 40
0.0
 40
0.0
 40
0.0
 40
0.0
 40
1.0
 40
1.0
 40
1.0
 40
1.0
 10
5.8997
 20
0.5339
 30
0.0
 10
5.8997
 20
1.1111
 30
0.0
 10
5.8034
 20
1.7346
 30
0.0
 10
6.2512
 20
2.182
 30
0.0
  0
SPLINE
  5
7F
330
1F
100
AcDbEntity
  8
Ilustrace
 62
   250
370
    30
100
AcDbSpline
210
0.0
220
0.0
230
1.0
 70
    24
 71
     3
 72
     8
 73
     4
 74
     0
 42
0.0000000001
 43
0.0000000001
 40
0.0
 40
0.0
 40
0.0
 40
0.0
 40
1.0
 40
1.0
 40
1.0
 40
1.0
 10
6.2512
 20
2.182
 30
0.0
 10
6.2512
 20
2.182
 30
0.0
 10
6.4995
 20
2.3729
 30
0.0
 10
6.4995
 20
2.3729
 30
0.0
  0
SPLINE
  5
80
330
1F
100
AcDbEntity
  8
Ilustrace
 62
   250
370
    30
100
AcDbSpline
210
0.0
220
0.0
230
1.0
 70
     8
 71
     3
 72
     8
 73
     4
 74
     0
 42
0.0000000001
 43
0.0000000001
 40
0.0
 40
0.0
 40
0.0
 40
0.0
 40
1.0
 40
1.0
 40
1.0
 40
1.0
 10
6.4995
 20
2.3729
 30
0.0
 10
6.7421
 20
2.5128
 30
0.0
 10
6.8202
 20
2.4968
 30
0.0
 10
7.0877
 20
2.5321
 30
0.0
  0
SPLINE
  5
81
330
1F
100
AcDbEntity
  8
Ilustrace
 62
   250
370
    30
100
AcDbSpline
210
0.0
220
0.0
230
1.0
 70
     8
 71
     3
 72
    16
 73
    12
 74
     0
 42
0.0000000001
 43
0.0000000001
 40
0.0
 40
0.0
 40
0.0
 40
0.0
 40
0.25
 40
0.25
 40
0.25
 40
0.25
 40
0.5
 40
0.5
 40
0.5
 40
0.5
 40
1.0
 40
1.0
 40
1.0
 40
1.0
 10
5.8997
 20
1.3336
 30
0.0
 10
5.9186
 20
1.7075
 30
0.0
 10
6.0631
 20
2.0485
 30
0.0
 10
6.3652
 20
2.2826
 30
0.0
 10
6.3652
 20
2.2826
 30
0.0
 10
7.0149
 20
2.7855
 30
0.0
 10
7.9985
 20
2.4771
 30
0.0
 10
8.2443
 20
1.6928
 30
0.0
 10
8.2443
 20
1.6928
 30
0.0
 10
8.3554
 20
1.3397
 30
0.0
 10
8.2994
 20
0.8578
 30
0.0
 10
8.2994
 20
0.5339
 30
0.0
  0
SPLINE
  5
82
330
1F
100
AcDbEntity
  8
Ilustrace
 62
   250
370
    30
100
AcDbSpline
210
0.0
220
0.0
230
1.0
 70
    24
 71
     3
 72
     8
 73
     4
 74
     0
 42
0.0000000001
 43
0.0000000001
 40
0.0
 40
0.0
 40
0.0
 40
0.0
 40
1.0
 40
1.0
 40
1.0
 40
1.0
 10
8.2994
 20
0.5339
 30
0.0
 10
8.2994
 20
0.5339
 30
0.0
 10
8.2994
 20
-9.8655
 30
0.0
 10
8.2994
 20
-9.8655
 30
0.0
  0
SPLINE
  5
83
330
1F
100
AcDbEntity
  8
Ilustrace
 62
   250
370
    30
100
AcDbSpline
210
0.0
220
0.0
230
1.0
 70
     8
 71
     3
 72
    24
 73
    20
 74
     0
 42
0.0000000001
 43
0.0000000001
 40
0.0
 40
0.0
 40
0.0
 40
0.0
 40
0.1666666666666667
 40
0.1666666666666667
 40
0.1666666666666667
 40
0.1666666666666667
 40
0.3333333333333333
 40
0.3333333333333333
 40
0.3333333333333333
 40
0.3333333333333333
 40
0.5
 40
0.5
 40
0.5
 40
0.5
 40
0.6666666666666666
 40
0.6666666666666666
 40
0.6666666666666666
 40
0.6666666666666666
 40
1.0
 40
1.0
 40
1.0
 40
1.0
 10
8.2994
 20
-9.8655
 30
0.0
 10
8.2994
 20
-10.4619
 30
0.0
 10
8.3973
 20
-11.0876
 30
0.0
 10
7.9262
 20
-11.5351
 30
0.0
 10
7.9262
 20
-11.5351
 30
0.0
 10
7.838
 20
-11.6188
 30
0.0
 10
7.7373
 20
-11.6891
 30
0.0
 10
7.628
 20
-11.7427
 30
0.0
 10
7.628
 20
-11.7427
 30
0.0
 10
7.4783
 20
-11.8161
 30
0.0
 10
7.3248
 20
-11.8469
 30
0.0
 10
7.1603
 20
-11.8637
 30
0.0
 10
7.1603
 20
-11.8637
 30
0.0
 10
6.9952
 20
-11.8637
 30
0.0
 10
6.8393
 20
-11.8485
 30
0.0
 10
6.6828
 20
-11.7907
 30
0.0
 10
6.6828
 20
-11.7907
 30
0.0
 10
6.1997
 20
-11.6116
 30
0.0
 10
5.925
 20
-11.1659
 30
0.0
 10
5.8997
 20
-10.6653
 30
0.0
  0
SPLINE
  5
84
330
1F
100
AcDbEntity
  8
Ilustrace
 62
   250
370
    30
100
AcDbSpline
210
0.0
220
0.0
230
1.0
 70
     8
 71
     3
 72
    16
 73
    12
 74
     0
 42
0.0000000001
 43
0.0000000001
 40
0.0
 40
0.0
 40
0.0
 40
0.0
 40
0.25
 40
0.25
 40
0.25
 40
0.25
 40
0.5
 40
0.5
 40
0.5
 40
0.5
 40
1.0
 40
1.0
 40
1.0
 40
1.0
 10
2.6599
 20
-16.305
 30
0.0
 10
2.992
 20
-16.288
 30
0.0
 10
3.2963
 20
-16.1771
 30
0.0
 10
3.5296
 20
-15.9318
 30
0.0
 10
3.5296
 20
-15.9318
 30
0.0
 10
4.0616
 20
-15.3719
 30
0.0
 10
3.9177
 20
-14.4306
 30
0.0
 10
3.2424
 20
-14.0558
 30
0.0
 10
3.2424
 20
-14.0558
 30
0.0
 10
3.0594
 20
-13.9542
 30
0.0
 10
2.8668
 20
-13.9156
 30
0.0
 10
2.6599
 20
-13.9052
 30
0.0
  0
SPLINE
  5
85
330
1F
100
AcDbEntity
  8
Ilustrace
 62
   250
370
    30
100
AcDbSpline
210
0.0
220
0.0
230
1.0
 70
     8
 71
     3
 72
    12
 73
     8
 74
     0
 42
0.0000000001
 43
0.0000000001
 40
0.0
 40
0.0
 40
0.0
 40
0.0
 40
0.3333333333333333
 40
0.3333333333333333
 40
0.3333333333333333
 40
0.3333333333333333
 40
1.0
 40
1.0
 40
1.0
 40
1.0
 10
-10.4983
 20
-15.413
 30
0.0
 10
-10.5281
 20
-15.1873
 30
0.0
 10
-10.5572
 20
-15.0218
 30
0.0
 10
-10.5006
 20
-14.8041
 30
0.0
 10
-10.5006
 20
-14.8041
 30
0.0
 10
-10.3646
 20
-14.2784
 30
0.0
 10
-9.8799
 20
-13.9088
 30
0.0
 10
-9.3391
 20
-13.9052
 30
0.0
  0
SPLINE
  5
86
330
1F
100
AcDbEntity
  8
Ilustrace
 62
   250
370
    30
100
AcDbSpline
210
0.0
220
0.0
230
1.0
 70
     8
 71
     3
 72
    20
 73
    16
 74
     0
 42
0.0000000001
 43
0.0000000001
 40
0.0
 40
0.0
 40
0.0
 40
0.0
 40
0.2
 40
0.2
 40
0.2
 40
0.2
 40
0.4
 40
0.4
 40
0.4
 40
0.4
 40
0.6
 40
0.6
 40
0.6
 40
0.6
 40
1.0
 40
1.0
 40
1.0
 40
1.0
 10
-9.3391
 20
-13.9052
 30
0.0
 10
-9.3391
 20
-13.9052
 30
0.0
 10
-8.5392
 20
-13.9052
 30
0.0
 10
-8.5392
 20
-13.9052
 30
0.0
 10
-8.5392
 20
-13.9052
 30
0.0
 10
-8.5392
 20
-13.9052
 30
0.0
 10
1.86
 20
-13.9052
 30
0.0
 10
1.86
 20
-13.9052
 30
0.0
 10
1.86
 20
-13.9052
 30
0.0
 10
1.86
 20
-13.9052
 30
0.0
 10
2.6599
 20
-13.9052
 30
0.0
 10
2.6599
 20
-13.9052
 30
0.0
 10
2.6599
 20
-13.9052
 30
0.0
 10
2.6599
 20
-13.9052
 30
0.0
 10
2.9583
 20
-13.9442
 30
0.0
 10
2.9583
 20
-13.9442
 30
0.0
  0
SPLINE
  5
87
330
1F
100
AcDbEntity
  8
Ilustrace
 62
   250
370
    30
100
AcDbSpline
210
0.0
220
0.0
230
1.0
 70
     8
 71
     3
 72
    20
 73
    16
 74
     0
 42
0.0000000001
 43
0.0000000001
 40
0.0
 40
0.0
 40
0.0
 40
0.0
 40
0.2
 40
0.2
 40
0.2
 40
0.2
 40
0.4
 40
0.4
 40
0.4
 40
0.4
 40
0.6
 40
0.6
 40
0.6
 40
0.6
 40
1.0
 40
1.0
 40
1.0
 40
1.0
 10
2.6599
 20
6.9732
 30
0.0
 10
2.8668
 20
6.9626
 30
0.0
 10
3.0594
 20
6.924
 30
0.0
 10
3.2424
 20
6.8225
 30
0.0
 10
3.2424
 20
6.8225
 30
0.0
 10
3.7166
 20
6.5591
 30
0.0
 10
3.9616
 20
5.989
 30
0.0
 10
3.8191
 20
5.4629
 30
0.0
 10
3.8191
 20
5.4629
 30
0.0
 10
3.7636
 20
5.2584
 30
0.0
 10
3.6581
 20
5.0746
 30
0.0
 10
3.5085
 20
4.9249
 30
0.0
 10
3.5085
 20
4.9249
 30
0.0
 10
3.261
 20
4.6774
 30
0.0
 10
2.9918
 20
4.617
 30
0.0
 10
2.6599
 20
4.5735
 30
0.0
  0
SPLINE
  5
88
330
1F
100
AcDbEntity
  8
Ilustrace
 62
   250
370
    30
100
AcDbSpline
210
0.0
220
0.0
230
1.0
 70
    24
 71
     3
 72
    12
 73
     8
 74
     0
 42
0.0000000001
 43
0.0000000001
 40
0.0
 40
0.0
 40
0.0
 40
0.0
 40
0.3333333333333333
 40
0.3333333333333333
 40
0.3333333333333333
 40
0.3333333333333333
 40
1.0
 40
1.0
 40
1.0
 40
1.0
 10
2.6599
 20
4.5735
 30
0.0
 10
2.6599
 20
4.5735
 30
0.0
 10
1.86
 20
4.5735
 30
0.0
 10
1.86
 20
4.5735
 30
0.0
 10
1.86
 20
4.5735
 30
0.0
 10
1.86
 20
4.5735
 30
0.0
 10
-8.5392
 20
4.5735
 30
0.0
 10
-8.5392
 20
4.5735
 30
0.0
  0
SPLINE
  5
89
330
1F
100
AcDbEntity
  8
Ilustrace
 62
   250
370
    30
100
AcDbSpline
210
0.0
220
0.0
230
1.0
 70
     8
 71
     3
 72
    16
 73
    12
 74
     0
 42
0.0000000001
 43
0.0000000001
 40
0.0
 40
0.0
 40
0.0
 40
0.0
 40
0.25
 40
0.25
 40
0.25
 40
0.25
 40
0.5
 40
0.5
 40
0.5
 40
0.5
 40
1.0
 40
1.0
 40
1.0
 40
1.0
 10
-8.5392
 20
4.5735
 30
0.0
 10
-9.0384
 20
4.5735
 30
0.0
 10
-9.5891
 20
4.4853
 30
0.0
 10
-10.0247
 20
4.7884
 30
0.0
 10
-10.0247
 20
4.7884
 30
0.0
 10
-10.7832
 20
5.3164
 30
0.0
 10
-10.6617
 20
6.5114
 30
0.0
 10
-9.8123
 20
6.876
 30
0.0
 10
-9.8123
 20
6.876
 30
0.0
 10
-9.426
 20
7.0416
 30
0.0
 10
-8.9258
 20
6.9732
 30
0.0
 10
-8.5392
 20
6.9732
 30
0.0
  0
SPLINE
  5
8A
330
1F
100
AcDbEntity
  8
Ilustrace
 62
   250
370
    30
100
AcDbSpline
210
0.0
220
0.0
230
1.0
 70
     8
 71
     3
 72
    16
 73
    12
 74
     0
 42
0.0000000001
 43
0.0000000001
 40
0.0
 40
0.0
 40
0.0
 40
0.0
 40
0.25
 40
0.25
 40
0.25
 40
0.25
 40
0.5
 40
0.5
 40
0.5
 40
0.5
 40
1.0
 40
1.0
 40
1.0
 40
1.0
 10
-8.5392
 20
6.9732
 30
0.0
 10
-8.5392
 20
6.9732
 30
0.0
 10
1.86
 20
6.9732
 30
0.0
 10
1.86
 20
6.9732
 30
0.0
 10
1.86
 20
6.9732
 30
0.0
 10
1.86
 20
6.9732
 30
0.0
 10
2.6599
 20
6.9732
 30
0.0
 10
2.6599
 20
6.9732
 30
0.0
 10
2.6599
 20
6.9732
 30
0.0
 10
2.6599
 20
6.9732
 30
0.0
 10
2.9583
 20
6.9338
 30
0.0
 10
2.9583
 20
6.9338
 30
0.0
  0
SPLINE
  5
8B
330
1F
100
AcDbEntity
  8
Ilustrace
 62
   250
370
    30
100
AcDbSpline
210
0.0
220
0.0
230
1.0
 70
    24
 71
     3
 72
     8
 73
     4
 74
     0
 42
0.0000000001
 43
0.0000000001
 40
0.0
 40
0.0
 40
0.0
 40
0.0
 40
1.0
 40
1.0
 40
1.0
 40
1.0
 10
-8.6714
 20
-7.025
 30
0.0
 10
-8.6714
 20
-7.025
 30
0.0
 10
-8.979
 20
-7.0656
 30
0.0
 10
-8.979
 20
-7.0656
 30
0.0
  0
SPLINE
  5
8C
330
1F
100
AcDbEntity
  8
Ilustrace
 62
   250
370
    30
100
AcDbSpline
210
0.0
220
0.0
230
1.0
 70
     8
 71
     3
 72
     8
 73
     4
 74
     0
 42
0.0000000001
 43
0.0000000001
 40
0.0
 40
0.0
 40
0.0
 40
0.0
 40
1.0
 40
1.0
 40
1.0
 40
1.0
 10
-8.979
 20
-7.0656
 30
0.0
 10
-9.252
 20
-7.0296
 30
0.0
 10
-9.3344
 20
-7.046
 30
0.0
 10
-9.579
 20
-6.9049
 30
0.0
  0
SPLINE
  5
8D
330
1F
100
AcDbEntity
  8
Ilustrace
 62
   250
370
    30
100
AcDbSpline
210
0.0
220
0.0
230
1.0
 70
    24
 71
     3
 72
     8
 73
     4
 74
     0
 42
0.0000000001
 43
0.0000000001
 40
0.0
 40
0.0
 40
0.0
 40
0.0
 40
1.0
 40
1.0
 40
1.0
 40
1.0
 10
-9.579
 20
-6.9049
 30
0.0
 10
-9.579
 20
-6.9049
 30
0.0
 10
-9.8275
 20
-6.7143
 30
0.0
 10
-9.8275
 20
-6.7143
 30
0.0
  0
SPLINE
  5
8E
330
1F
100
AcDbEntity
  8
Ilustrace
 62
   250
370
    30
100
AcDbSpline
210
0.0
220
0.0
230
1.0
 70
     8
 71
     3
 72
     8
 73
     4
 74
     0
 42
0.0000000001
 43
0.0000000001
 40
0.0
 40
0.0
 40
0.0
 40
0.0
 40
1.0
 40
1.0
 40
1.0
 40
1.0
 10
-9.8275
 20
-6.7143
 30
0.0
 10
-10.2751
 20
-6.2666
 30
0.0
 10
-10.1789
 20
-5.6429
 30
0.0
 10
-10.1789
 20
-5.0657
 30
0.0
  0
SPLINE
  5
8F
330
1F
100
AcDbEntity
  8
Ilustrace
 62
   250
370
    30
100
AcDbSpline
210
0.0
220
0.0
230
1.0
 70
    24
 71
     3
 72
     8
 73
     4
 74
     0
 42
0.0000000001
 43
0.0000000001
 40
0.0
 40
0.0
 40
0.0
 40
0.0
 40
1.0
 40
1.0
 40
1.0
 40
1.0
 10
-10.1789
 20
-5.0657
 30
0.0
 10
-10.1789
 20
-5.0657
 30
0.0
 10
-10.1789
 20
-4.266
 30
0.0
 10
-10.1789
 20
-4.266
 30
0.0
  0
SPLINE
  5
90
330
1F
100
AcDbEntity
  8
Ilustrace
 62
   250
370
    30
100
AcDbSpline
210
0.0
220
0.0
230
1.0
 70
     8
 71
     3
 72
    20
 73
    16
 74
     0
 42
0.0000000001
 43
0.0000000001
 40
0.0
 40
0.0
 40
0.0
 40
0.0
 40
0.2
 40
0.2
 40
0.2
 40
0.2
 40
0.4
 40
0.4
 40
0.4
 40
0.4
 40
0.6
 40
0.6
 40
0.6
 40
0.6
 40
1.0
 40
1.0
 40
1.0
 40
1.0
 10
-10.1789
 20
-4.266
 30
0.0
 10
-10.1789
 20
-4.011
 30
0.0
 10
-10.22
 20
-3.5428
 30
0.0
 10
-10.1543
 20
-3.2245
 30
0.0
 10
-10.1543
 20
-3.2245
 30
0.0
 10
-10.0368
 20
-2.6513
 30
0.0
 10
-9.5026
 20
-2.238
 30
0.0
 10
-8.9184
 20
-2.2676
 30
0.0
 10
-8.9184
 20
-2.2676
 30
0.0
 10
-8.3785
 20
-2.2949
 30
0.0
 10
-7.9125
 20
-2.6949
 30
0.0
 10
-7.8039
 20
-3.2245
 30
0.0
 10
-7.8039
 20
-3.2245
 30
0.0
 10
-7.7383
 20
-3.5428
 30
0.0
 10
-7.7792
 20
-4.011
 30
0.0
 10
-7.7792
 20
-4.266
 30
0.0
  0
SPLINE
  5
91
330
1F
100
AcDbEntity
  8
Ilustrace
 62
   250
370
    30
100
AcDbSpline
210
0.0
220
0.0
230
1.0
 70
    24
 71
     3
 72
     8
 73
     4
 74
     0
 42
0.0000000001
 43
0.0000000001
 40
0.0
 40
0.0
 40
0.0
 40
0.0
 40
1.0
 40
1.0
 40
1.0
 40
1.0
 10
-7.7792
 20
-4.266
 30
0.0
 10
-7.7792
 20
-4.266
 30
0.0
 10
-7.7794
 20
-5.0657
 30
0.0
 10
-7.7794
 20
-5.0657
 30
0.0
  0
SPLINE
  5
92
330
1F
100
AcDbEntity
  8
Ilustrace
 62
   250
370
    30
100
AcDbSpline
210
0.0
220
0.0
230
1.0
 70
     8
 71
     3
 72
    24
 73
    20
 74
     0
 42
0.0000000001
 43
0.0000000001
 40
0.0
 40
0.0
 40
0.0
 40
0.0
 40
0.1666666666666667
 40
0.1666666666666667
 40
0.1666666666666667
 40
0.1666666666666667
 40
0.3333333333333333
 40
0.3333333333333333
 40
0.3333333333333333
 40
0.3333333333333333
 40
0.5
 40
0.5
 40
0.5
 40
0.5
 40
0.6666666666666666
 40
0.6666666666666666
 40
0.6666666666666666
 40
0.6666666666666666
 40
1.0
 40
1.0
 40
1.0
 40
1.0
 10
-7.7794
 20
-5.0657
 30
0.0
 10
-7.7794
 20
-5.6623
 30
0.0
 10
-7.6816
 20
-6.2879
 30
0.0
 10
-8.1526
 20
-6.7353
 30
0.0
 10
-8.1526
 20
-6.7353
 30
0.0
 10
-8.2406
 20
-6.8193
 30
0.0
 10
-8.3416
 20
-6.8894
 30
0.0
 10
-8.4505
 20
-6.943
 30
0.0
 10
-8.4505
 20
-6.943
 30
0.0
 10
-8.6002
 20
-7.0165
 30
0.0
 10
-8.7538
 20
-7.0473
 30
0.0
 10
-8.9184
 20
-7.0641
 30
0.0
 10
-8.9184
 20
-7.0641
 30
0.0
 10
-9.4196
 20
-7.0641
 30
0.0
 10
-9.8785
 20
-6.8125
 30
0.0
 10
-10.0818
 20
-6.3388
 30
0.0
 10
-10.0818
 20
-6.3388
 30
0.0
 10
-10.1476
 20
-6.1856
 30
0.0
 10
-10.1707
 20
-6.0307
 30
0.0
 10
-10.1789
 20
-5.8659
 30
0.0
  0
SPLINE
  5
93
330
1F
100
AcDbEntity
  8
Ilustrace
 62
   250
370
    30
100
AcDbSpline
210
0.0
220
0.0
230
1.0
 70
     8
 71
     3
 72
    20
 73
    16
 74
     0
 42
0.0000000001
 43
0.0000000001
 40
0.0
 40
0.0
 40
0.0
 40
0.0
 40
0.2
 40
0.2
 40
0.2
 40
0.2
 40
0.4
 40
0.4
 40
0.4
 40
0.4
 40
0.6
 40
0.6
 40
0.6
 40
0.6
 40
1.0
 40
1.0
 40
1.0
 40
1.0
 10
-2.1396
 20
-11.5052
 30
0.0
 10
-1.933
 20
-11.4949
 30
0.0
 10
-1.7404
 20
-11.4561
 30
0.0
 10
-1.5574
 20
-11.3545
 30
0.0
 10
-1.5574
 20
-11.3545
 30
0.0
 10
-1.083
 20
-11.0912
 30
0.0
 10
-0.8382
 20
-10.521
 30
0.0
 10
-0.9808
 20
-9.9948
 30
0.0
 10
-0.9808
 20
-9.9948
 30
0.0
 10
-1.0359
 20
-9.7904
 30
0.0
 10
-1.1416
 20
-9.6067
 30
0.0
 10
-1.2913
 20
-9.4568
 30
0.0
 10
-1.2913
 20
-9.4568
 30
0.0
 10
-1.5385
 20
-9.2095
 30
0.0
 10
-1.8077
 20
-9.1491
 30
0.0
 10
-2.1396
 20
-9.1054
 30
0.0
  0
SPLINE
  5
94
330
1F
100
AcDbEntity
  8
Ilustrace
 62
   250
370
    30
100
AcDbSpline
210
0.0
220
0.0
230
1.0
 70
     8
 71
     3
 72
    16
 73
    12
 74
     0
 42
0.0000000001
 43
0.0000000001
 40
0.0
 40
0.0
 40
0.0
 40
0.0
 40
0.25
 40
0.25
 40
0.25
 40
0.25
 40
0.5
 40
0.5
 40
0.5
 40
0.5
 40
1.0
 40
1.0
 40
1.0
 40
1.0
 10
1.1002
 20
-3.4661
 30
0.0
 10
1.1147
 20
-3.1755
 30
0.0
 10
1.1973
 20
-2.9083
 30
0.0
 10
1.3895
 20
-2.6842
 30
0.0
 10
1.3895
 20
-2.6842
 30
0.0
 10
1.8613
 20
-2.1349
 30
0.0
 10
2.7387
 20
-2.1349
 30
0.0
 10
3.2103
 20
-2.6842
 30
0.0
 10
3.2103
 20
-2.6842
 30
0.0
 10
3.5941
 20
-3.1314
 30
0.0
 10
3.4997
 20
-3.7164
 30
0.0
 10
3.4997
 20
-4.266
 30
0.0
  0
SPLINE
  5
95
330
1F
100
AcDbEntity
  8
Ilustrace
 62
   250
370
    30
100
AcDbSpline
210
0.0
220
0.0
230
1.0
 70
    24
 71
     3
 72
     8
 73
     4
 74
     0
 42
0.0000000001
 43
0.0000000001
 40
0.0
 40
0.0
 40
0.0
 40
0.0
 40
1.0
 40
1.0
 40
1.0
 40
1.0
 10
3.4997
 20
-4.266
 30
0.0
 10
3.4997
 20
-4.266
 30
0.0
 10
3.4997
 20
-5.0657
 30
0.0
 10
3.4997
 20
-5.0657
 30
0.0
  0
SPLINE
  5
96
330
1F
100
AcDbEntity
  8
Ilustrace
 62
   250
370
    30
100
AcDbSpline
210
0.0
220
0.0
230
1.0
 70
     8
 71
     3
 72
    24
 73
    20
 74
     0
 42
0.0000000001
 43
0.0000000001
 40
0.0
 40
0.0
 40
0.0
 40
0.0
 40
0.1666666666666667
 40
0.1666666666666667
 40
0.1666666666666667
 40
0.1666666666666667
 40
0.3333333333333333
 40
0.3333333333333333
 40
0.3333333333333333
 40
0.3333333333333333
 40
0.5
 40
0.5
 40
0.5
 40
0.5
 40
0.6666666666666666
 40
0.6666666666666666
 40
0.6666666666666666
 40
0.6666666666666666
 40
1.0
 40
1.0
 40
1.0
 40
1.0
 10
3.4997
 20
-5.0657
 30
0.0
 10
3.4997
 20
-5.6623
 30
0.0
 10
3.5975
 20
-6.2879
 30
0.0
 10
3.1267
 20
-6.7353
 30
0.0
 10
3.1267
 20
-6.7353
 30
0.0
 10
3.0385
 20
-6.8193
 30
0.0
 10
2.9374
 20
-6.8894
 30
0.0
 10
2.8284
 20
-6.943
 30
0.0
 10
2.8284
 20
-6.943
 30
0.0
 10
2.6788
 20
-7.0165
 30
0.0
 10
2.525
 20
-7.0473
 30
0.0
 10
2.3608
 20
-7.0641
 30
0.0
 10
2.3608
 20
-7.0641
 30
0.0
 10
2.1954
 20
-7.0641
 30
0.0
 10
2.0396
 20
-7.049
 30
0.0
 10
1.8832
 20
-6.991
 30
0.0
 10
1.8832
 20
-6.991
 30
0.0
 10
1.4001
 20
-6.8118
 30
0.0
 10
1.1254
 20
-6.3662
 30
0.0
 10
1.1002
 20
-5.8659
 30
0.0
  0
SPLINE
  5
97
330
1F
100
AcDbEntity
  8
Ilustrace
 62
   250
370
    30
100
AcDbSpline
210
0.0
220
0.0
230
1.0
 70
     8
 71
     3
 72
    16
 73
    12
 74
     0
 42
0.0000000001
 43
0.0000000001
 40
0.0
 40
0.0
 40
0.0
 40
0.0
 40
0.25
 40
0.25
 40
0.25
 40
0.25
 40
0.5
 40
0.5
 40
0.5
 40
0.5
 40
1.0
 40
1.0
 40
1.0
 40
1.0
 10
-1.8412
 20
-9.1449
 30
0.0
 10
-1.8412
 20
-9.1449
 30
0.0
 10
-2.1396
 20
-9.1054
 30
0.0
 10
-2.1396
 20
-9.1054
 30
0.0
 10
-2.1396
 20
-9.1054
 30
0.0
 10
-2.1396
 20
-9.1054
 30
0.0
 10
-2.9395
 20
-9.1054
 30
0.0
 10
-2.9395
 20
-9.1054
 30
0.0
 10
-2.9395
 20
-9.1054
 30
0.0
 10
-2.9395
 20
-9.1054
 30
0.0
 10
-4.5395
 20
-9.1054
 30
0.0
 10
-4.5395
 20
-9.1054
 30
0.0
  0
SPLINE
  5
98
330
1F
100
AcDbEntity
  8
Ilustrace
 62
   250
370
    30
100
AcDbSpline
210
0.0
220
0.0
230
1.0
 70
     8
 71
     3
 72
    16
 73
    12
 74
     0
 42
0.0000000001
 43
0.0000000001
 40
0.0
 40
0.0
 40
0.0
 40
0.0
 40
0.25
 40
0.25
 40
0.25
 40
0.25
 40
0.5
 40
0.5
 40
0.5
 40
0.5
 40
1.0
 40
1.0
 40
1.0
 40
1.0
 10
-4.5395
 20
-9.1054
 30
0.0
 10
-4.8298
 20
-9.12
 30
0.0
 10
-5.0972
 20
-9.2027
 30
0.0
 10
-5.321
 20
-9.3951
 30
0.0
 10
-5.321
 20
-9.3951
 30
0.0
 10
-5.9071
 20
-9.8979
 30
0.0
 10
-5.859
 20
-10.8489
 30
0.0
 10
-5.2249
 20
-11.2901
 30
0.0
 10
-5.2249
 20
-11.2901
 30
0.0
 10
-4.7893
 20
-11.5932
 30
0.0
 10
-4.2386
 20
-11.5052
 30
0.0
 10
-3.7396
 20
-11.5052
 30
0.0
  0
SPLINE
  5
99
330
1F
100
AcDbEntity
  8
Ilustrace
 62
   250
370
    30
100
AcDbSpline
210
0.0
220
0.0
230
1.0
 70
    24
 71
     3
 72
     8
 73
     4
 74
     0
 42
0.0000000001
 43
0.0000000001
 40
0.0
 40
0.0
 40
0.0
 40
0.0
 40
1.0
 40
1.0
 40
1.0
 40
1.0
 10
-3.7396
 20
-11.5052
 30
0.0
 10
-3.7396
 20
-11.5052
 30
0.0
 10
-2.1396
 20
-11.5052
 30
0.0
 10
-2.1396
 20
-11.5052
 30
0.0
  0
SPLINE
  5
9A
330
1F
100
AcDbEntity
  8
Ilustrace
 62
   250
370
    30
100
AcDbSpline
210
0.0
220
0.0
230
1.0
 70
     8
 71
     3
 72
    12
 73
     8
 74
     0
 42
0.0000000001
 43
0.0000000001
 40
0.0
 40
0.0
 40
0.0
 40
0.0
 40
0.3333333333333333
 40
0.3333333333333333
 40
0.3333333333333333
 40
0.3333333333333333
 40
1.0
 40
1.0
 40
1.0
 40
1.0
 10
-2.1396
 20
-11.5052
 30
0.0
 10
-1.6003
 20
-11.4853
 30
0.0
 10
-1.1234
 20
-11.1491
 30
0.0
 10
-0.9808
 20
-10.6158
 30
0.0
 10
-0.9808
 20
-10.6158
 30
0.0
 10
-0.9076
 20
-10.3437
 30
0.0
 10
-0.9445
 20
-10.2693
 30
0.0
 10
-0.9802
 20
-9.9974
 30
0.0
  0
SPLINE
  5
9B
330
1F
100
AcDbEntity
  8
Ilustrace
 62
   250
370
    30
100
AcDbSpline
210
0.0
220
0.0
230
1.0
 70
     8
 71
     3
 72
     8
 73
     4
 74
     0
 42
0.0000000001
 43
0.0000000001
 40
0.0
 40
0.0
 40
0.0
 40
0.0
 40
1.0
 40
1.0
 40
1.0
 40
1.0
 10
2.2883
 20
-7.0641
 30
0.0
 10
2.0204
 20
-7.0288
 30
0.0
 10
1.9423
 20
-7.0448
 30
0.0
 10
1.7
 20
-6.9049
 30
0.0
  0
SPLINE
  5
9C
330
1F
100
AcDbEntity
  8
Ilustrace
 62
   250
370
    30
100
AcDbSpline
210
0.0
220
0.0
230
1.0
 70
    24
 71
     3
 72
     8
 73
     4
 74
     0
 42
0.0000000001
 43
0.0000000001
 40
0.0
 40
0.0
 40
0.0
 40
0.0
 40
1.0
 40
1.0
 40
1.0
 40
1.0
 10
1.7
 20
-6.9049
 30
0.0
 10
1.7
 20
-6.9049
 30
0.0
 10
1.4515
 20
-6.7143
 30
0.0
 10
1.4515
 20
-6.7143
 30
0.0
  0
SPLINE
  5
9D
330
1F
100
AcDbEntity
  8
Ilustrace
 62
   250
370
    30
100
AcDbSpline
210
0.0
220
0.0
230
1.0
 70
     8
 71
     3
 72
    12
 73
     8
 74
     0
 42
0.0000000001
 43
0.0000000001
 40
0.0
 40
0.0
 40
0.0
 40
0.0
 40
0.3333333333333333
 40
0.3333333333333333
 40
0.3333333333333333
 40
0.3333333333333333
 40
1.0
 40
1.0
 40
1.0
 40
1.0
 10
1.4515
 20
-6.7143
 30
0.0
 10
1.004
 20
-6.2666
 30
0.0
 10
1.1002
 20
-5.6429
 30
0.0
 10
1.1002
 20
-5.0657
 30
0.0
 10
1.1002
 20
-5.0657
 30
0.0
 10
1.1002
 20
-4.4357
 30
0.0
 10
1.057
 20
-3.7931
 30
0.0
 10
1.1393
 20
-3.1675
 30
0.0
  0
SPLINE
  5
9E
330
1F
100
AcDbEntity
  8
Ilustrace
 62
   250
370
    30
100
AcDbSpline
210
0.0
220
0.0
230
1.0
 70
     8
 71
     3
 72
    16
 73
    12
 74
     0
 42
0.0000000001
 43
0.0000000001
 40
0.0
 40
0.0
 40
0.0
 40
0.0
 40
0.25
 40
0.25
 40
0.25
 40
0.25
 40
0.5
 40
0.5
 40
0.5
 40
0.5
 40
1.0
 40
1.0
 40
1.0
 40
1.0
 10
-1.8412
 20
2.1342
 30
0.0
 10
-1.8412
 20
2.1342
 30
0.0
 10
-2.1396
 20
2.1737
 30
0.0
 10
-2.1396
 20
2.1737
 30
0.0
 10
-2.1396
 20
2.1737
 30
0.0
 10
-2.1396
 20
2.1737
 30
0.0
 10
-2.9395
 20
2.1737
 30
0.0
 10
-2.9395
 20
2.1737
 30
0.0
 10
-2.9395
 20
2.1737
 30
0.0
 10
-2.9395
 20
2.1737
 30
0.0
 10
-4.5395
 20
2.1737
 30
0.0
 10
-4.5395
 20
2.1737
 30
0.0
  0
SPLINE
  5
9F
330
1F
100
AcDbEntity
  8
Ilustrace
 62
   250
370
    30
100
AcDbSpline
210
0.0
220
0.0
230
1.0
 70
     8
 71
     3
 72
    16
 73
    12
 74
     0
 42
0.0000000001
 43
0.0000000001
 40
0.0
 40
0.0
 40
0.0
 40
0.0
 40
0.25
 40
0.25
 40
0.25
 40
0.25
 40
0.5
 40
0.5
 40
0.5
 40
0.5
 40
1.0
 40
1.0
 40
1.0
 40
1.0
 10
-4.5395
 20
2.1737
 30
0.0
 10
-4.8298
 20
2.159
 30
0.0
 10
-5.0972
 20
2.0765
 30
0.0
 10
-5.321
 20
1.8842
 30
0.0
 10
-5.321
 20
1.8842
 30
0.0
 10
-5.9071
 20
1.381
 30
0.0
 10
-5.8588
 20
0.4301
 30
0.0
 10
-5.2249
 20
-0.0111
 30
0.0
 10
-5.2249
 20
-0.0111
 30
0.0
 10
-4.7893
 20
-0.3143
 30
0.0
 10
-4.2386
 20
-0.2262
 30
0.0
 10
-3.7396
 20
-0.2262
 30
0.0
  0
SPLINE
  5
A0
330
1F
100
AcDbEntity
  8
Ilustrace
 62
   250
370
    30
100
AcDbSpline
210
0.0
220
0.0
230
1.0
 70
    24
 71
     3
 72
     8
 73
     4
 74
     0
 42
0.0000000001
 43
0.0000000001
 40
0.0
 40
0.0
 40
0.0
 40
0.0
 40
1.0
 40
1.0
 40
1.0
 40
1.0
 10
-3.7396
 20
-0.2262
 30
0.0
 10
-3.7396
 20
-0.2262
 30
0.0
 10
-2.1396
 20
-0.2262
 30
0.0
 10
-2.1396
 20
-0.2262
 30
0.0
  0
SPLINE
  5
A1
330
1F
100
AcDbEntity
  8
Ilustrace
 62
   250
370
    30
100
AcDbSpline
210
0.0
220
0.0
230
1.0
 70
     8
 71
     3
 72
    12
 73
     8
 74
     0
 42
0.0000000001
 43
0.0000000001
 40
0.0
 40
0.0
 40
0.0
 40
0.0
 40
0.3333333333333333
 40
0.3333333333333333
 40
0.3333333333333333
 40
0.3333333333333333
 40
1.0
 40
1.0
 40
1.0
 40
1.0
 10
-2.1396
 20
-0.2262
 30
0.0
 10
-1.6003
 20
-0.2064
 30
0.0
 10
-1.1234
 20
0.13
 30
0.0
 10
-0.9808
 20
0.6631
 30
0.0
 10
-0.9808
 20
0.6631
 30
0.0
 10
-0.9076
 20
0.9354
 30
0.0
 10
-0.9445
 20
1.0098
 30
0.0
 10
-0.9802
 20
1.2815
 30
0.0
  0
SPLINE
  5
A2
330
1F
100
AcDbEntity
  8
Ilustrace
 62
   250
370
    30
100
AcDbSpline
210
0.0
220
0.0
230
1.0
 70
     8
 71
     3
 72
    16
 73
    12
 74
     0
 42
0.0000000001
 43
0.0000000001
 40
0.0
 40
0.0
 40
0.0
 40
0.0
 40
0.25
 40
0.25
 40
0.25
 40
0.25
 40
0.5
 40
0.5
 40
0.5
 40
0.5
 40
1.0
 40
1.0
 40
1.0
 40
1.0
 10
-2.1396
 20
2.1737
 30
0.0
 10
-1.933
 20
2.1631
 30
0.0
 10
-1.7404
 20
2.1243
 30
0.0
 10
-1.5574
 20
2.0227
 30
0.0
 10
-1.5574
 20
2.0227
 30
0.0
 10
-0.882
 20
1.6481
 30
0.0
 10
-0.7379
 20
0.7068
 30
0.0
 10
-1.2698
 20
0.1471
 30
0.0
 10
-1.2698
 20
0.1471
 30
0.0
 10
-1.5032
 20
-0.0984
 30
0.0
 10
-1.8077
 20
-0.2095
 30
0.0
 10
-2.1396
 20
-0.2262
 30
0.0
  0
SPLINE
  5
A3
330
1F
100
AcDbEntity
  8
Ilustrace
 62
   254
100
AcDbSpline
210
0.0
220
0.0
230
1.0
 70
    11
 71
     3
 72
    48
 73
    44
 74
     0
 42
0.0000000001
 43
0.0000000001
 40
0.0
 40
0.0
 40
0.0
 40
0.0
 40
0.0833333333333333
 40
0.0833333333333333
 40
0.0833333333333333
 40
0.0833333333333333
 40
0.1666666666666667
 40
0.1666666666666667
 40
0.1666666666666667
 40
0.1666666666666667
 40
0.25
 40
0.25
 40
0.25
 40
0.25
 40
0.3333333333333333
 40
0.3333333333333333
 40
0.3333333333333333
 40
0.3333333333333333
 40
0.4166666666666667
 40
0.4166666666666667
 40
0.4166666666666667
 40
0.4166666666666667
 40
0.5
 40
0.5
 40
0.5
 40
0.5
 40
0.5833333333333334
 40
0.5833333333333334
 40
0.5833333333333334
 40
0.5833333333333334
 40
0.6666666666666666
 40
0.6666666666666666
 40
0.6666666666666666
 40
0.6666666666666666
 40
0.75
 40
0.75
 40
0.75
 40
0.75
 40
0.8333333333333334
 40
0.8333333333333334
 40
0.8333333333333334
 40
0.8333333333333334
 40
1.0
 40
1.0
 40
1.0
 40
1.0
 10
29.6509
 20
15.6848
 30
0.0
 10
29.6509
 20
15.6848
 30
0.0
 10
30.9518
 20
15.751
 30
0.0
 10
30.9518
 20
15.751
 30
0.0
 10
30.9518
 20
15.751
 30
0.0
 10
30.9518
 20
15.751
 30
0.0
 10
31.2439
 20
15.5692
 30
0.0
 10
31.2439
 20
15.5692
 30
0.0
 10
31.2439
 20
15.5692
 30
0.0
 10
31.2439
 20
15.5692
 30
0.0
 10
31.4479
 20
15.4094
 30
0.0
 10
31.4479
 20
15.4094
 30
0.0
 10
31.4479
 20
15.4094
 30
0.0
 10
31.4479
 20
15.4094
 30
0.0
 10
31.5802
 20
15.2109
 30
0.0
 10
31.5802
 20
15.2109
 30
0.0
 10
31.5802
 20
15.2109
 30
0.0
 10
31.5802
 20
15.2109
 30
0.0
 10
31.6518
 20
14.9904
 30
0.0
 10
31.6518
 20
14.9904
 30
0.0
 10
31.6518
 20
14.9904
 30
0.0
 10
31.6518
 20
14.9904
 30
0.0
 10
31.6354
 20
-24.3229
 30
0.0
 10
31.6354
 20
-24.3229
 30
0.0
 10
31.6354
 20
-24.3229
 30
0.0
 10
31.6354
 20
-24.3229
 30
0.0
 10
31.6023
 20
-24.5655
 30
0.0
 10
31.6023
 20
-24.5655
 30
0.0
 10
31.6023
 20
-24.5655
 30
0.0
 10
31.6023
 20
-24.5655
 30
0.0
 10
31.3047
 20
-24.8742
 30
0.0
 10
31.3047
 20
-24.8742
 30
0.0
 10
31.3047
 20
-24.8742
 30
0.0
 10
31.3047
 20
-24.8742
 30
0.0
 10
31.0291
 20
-25.0285
 30
0.0
 10
31.0291
 20
-25.0285
 30
0.0
 10
31.0291
 20
-25.0285
 30
0.0
 10
31.0291
 20
-25.0285
 30
0.0
 10
29.7282
 20
-25.0175
 30
0.0
 10
29.7282
 20
-25.0175
 30
0.0
 10
29.7282
 20
-25.0175
 30
0.0
 10
29.7282
 20
-25.0175
 30
0.0
 10
29.6509
 20
15.6848
 30
0.0
 10
29.6509
 20
15.6848
 30
0.0
  0
SPLINE
  5
A4
330
1F
100
AcDbEntity
  8
Ilustrace
 62
   250
370
    70
100
AcDbSpline
210
0.0
220
0.0
230
1.0
 70
    24
 71
     3
 72
     8
 73
     4
 74
     0
 42
0.0000000001
 43
0.0000000001
 40
0.0
 40
0.0
 40
0.0
 40
0.0
 40
1.0
 40
1.0
 40
1.0
 40
1.0
 10
29.6734
 20
-25.0163
 30
0.0
 10
29.6734
 20
-25.0163
 30
0.0
 10
30.871
 20
-25.0163
 30
0.0
 10
30.871
 20
-25.0163
 30
0.0
  0
SPLINE
  5
A5
330
1F
100
AcDbEntity
  8
Ilustrace
 62
   250
370
    70
100
AcDbSpline
210
0.0
220
0.0
230
1.0
 70
    24
 71
     3
 72
     8
 73
     4
 74
     0
 42
0.0000000001
 43
0.0000000001
 40
0.0
 40
0.0
 40
0.0
 40
0.0
 40
1.0
 40
1.0
 40
1.0
 40
1.0
 10
29.6734
 20
-25.0163
 30
0.0
 10
29.6734
 20
-25.0163
 30
0.0
 10
29.6734
 20
13.304
 30
0.0
 10
29.6734
 20
13.304
 30
0.0
  0
SPLINE
  5
A6
330
1F
100
AcDbEntity
  8
Ilustrace
 62
   250
370
     9
100
AcDbSpline
210
0.0
220
0.0
230
1.0
 70
    24
 71
     3
 72
     8
 73
     4
 74
     0
 42
0.0000000001
 43
0.0000000001
 40
0.0
 40
0.0
 40
0.0
 40
0.0
 40
1.0
 40
1.0
 40
1.0
 40
1.0
 10
31.67
 20
-24.2179
 30
0.0
 10
31.67
 20
-24.2179
 30
0.0
 10
31.67
 20
14.9105
 30
0.0
 10
31.67
 20
14.9105
 30
0.0
  0
SPLINE
  5
A7
330
1F
100
AcDbEntity
  8
Ilustrace
 62
   250
370
    70
100
AcDbSpline
210
0.0
220
0.0
230
1.0
 70
     8
 71
     3
 72
     8
 73
     4
 74
     0
 42
0.0000000001
 43
0.0000000001
 40
0.0
 40
0.0
 40
0.0
 40
0.0
 40
1.0
 40
1.0
 40
1.0
 40
1.0
 10
30.871
 20
-25.0163
 30
0.0
 10
31.3119
 20
-25.0163
 30
0.0
 10
31.6694
 20
-24.6588
 30
0.0
 10
31.6694
 20
-24.2179
 30
0.0
  0
SPLINE
  5
A8
330
1F
100
AcDbEntity
  8
Ilustrace
 62
   250
370
    70
100
AcDbSpline
210
0.0
220
0.0
230
1.0
 70
    24
 71
     3
 72
     8
 73
     4
 74
     0
 42
0.0000000001
 43
0.0000000001
 40
0.0
 40
0.0
 40
0.0
 40
0.0
 40
1.0
 40
1.0
 40
1.0
 40
1.0
 10
29.6734
 20
13.304
 30
0.0
 10
29.6734
 20
13.304
 30
0.0
 10
29.6734
 20
15.7012
 30
0.0
 10
29.6734
 20
15.7012
 30
0.0
  0
SPLINE
  5
A9
330
1F
100
AcDbEntity
  8
Ilustrace
 62
   250
370
    70
100
AcDbSpline
210
0.0
220
0.0
230
1.0
 70
    24
 71
     3
 72
     8
 73
     4
 74
     0
 42
0.0000000001
 43
0.0000000001
 40
0.0
 40
0.0
 40
0.0
 40
0.0
 40
1.0
 40
1.0
 40
1.0
 40
1.0
 10
29.6734
 20
15.7012
 30
0.0
 10
29.6734
 20
15.7012
 30
0.0
 10
30.871
 20
15.7012
 30
0.0
 10
30.871
 20
15.7012
 30
0.0
  0
SPLINE
  5
AA
330
1F
100
AcDbEntity
  8
Ilustrace
 62
   250
370
    70
100
AcDbSpline
210
0.0
220
0.0
230
1.0
 70
     8
 71
     3
 72
     8
 73
     4
 74
     0
 42
0.0000000001
 43
0.0000000001
 40
0.0
 40
0.0
 40
0.0
 40
0.0
 40
1.0
 40
1.0
 40
1.0
 40
1.0
 10
31.6694
 20
14.9028
 30
0.0
 10
31.6694
 20
15.3438
 30
0.0
 10
31.3119
 20
15.7012
 30
0.0
 10
30.871
 20
15.7012
 30
0.0
  0
SPLINE
  5
AB
330
1F
100
AcDbEntity
  8
Ilustrace
 62
   250
370
    70
100
AcDbSpline
210
0.0
220
0.0
230
1.0
 70
    24
 71
     3
 72
     8
 73
     4
 74
     0
 42
0.0000000001
 43
0.0000000001
 40
0.0
 40
0.0
 40
0.0
 40
0.0
 40
1.0
 40
1.0
 40
1.0
 40
1.0
 10
-23.7985
 20
15.9507
 30
0.0
 10
-23.7985
 20
15.9507
 30
0.0
 10
-23.7985
 20
22.3283
 30
0.0
 10
-23.7985
 20
22.3283
 30
0.0
  0
SPLINE
  5
AC
330
1F
100
AcDbEntity
  8
Ilustrace
 62
   250
370
    80
100
AcDbSpline
210
0.0
220
0.0
230
1.0
 70
    24
 71
     3
 72
     8
 73
     4
 74
     0
 42
0.0000000001
 43
0.0000000001
 40
0.0
 40
0.0
 40
0.0
 40
0.0
 40
1.0
 40
1.0
 40
1.0
 40
1.0
 10
16.9209
 20
16.6531
 30
0.0
 10
16.9209
 20
16.6531
 30
0.0
 10
16.9209
 20
22.4716
 30
0.0
 10
16.9209
 20
22.4716
 30
0.0
  0
SPLINE
  5
AD
330
1F
100
AcDbEntity
  8
Ilustrace
 62
   250
370
    30
100
AcDbSpline
210
0.0
220
0.0
230
1.0
 70
    24
 71
     3
 72
     8
 73
     4
 74
     0
 42
0.0000000001
 43
0.0000000001
 40
0.0
 40
0.0
 40
0.0
 40
0.0
 40
1.0
 40
1.0
 40
1.0
 40
1.0
 10
16.5496
 20
21.7968
 30
0.0
 10
16.5496
 20
21.7968
 30
0.0
 10
-23.3127
 20
21.7968
 30
0.0
 10
-23.3127
 20
21.7968
 30
0.0
  0
TEXT
  5
D1
330
1F
100
AcDbEntity
  8
Ilustrace
 62
   250
100
AcDbText
 10
-5.2839
 20
22.5564
 30
0.0
 40
2.79396
  1
102
 51
-0.0000015352345087
  7
0
100
AcDbText
  0
SPLINE
  5
D2
330
1F
100
AcDbEntity
  8
Ilustrace
 62
   250
370
    70
100
AcDbSpline
210
0.0
220
0.0
230
1.0
 70
    24
 71
     3
 72
     8
 73
     4
 74
     0
 42
0.0000000001
 43
0.0000000001
 40
0.0
 40
0.0
 40
0.0
 40
0.0
 40
1.0
 40
1.0
 40
1.0
 40
1.0
 10
-24.4215
 20
-25.0259
 30
0.0
 10
-24.4215
 20
-25.0259
 30
0.0
 10
-30.6031
 20
-25.0259
 30
0.0
 10
-30.6031
 20
-25.0259
 30
0.0
  0
SPLINE
  5
D3
330
1F
100
AcDbEntity
  8
Ilustrace
 62
   250
370
    80
100
AcDbSpline
210
0.0
220
0.0
230
1.0
 70
    24
 71
     3
 72
     8
 73
     4
 74
     0
 42
0.0000000001
 43
0.0000000001
 40
0.0
 40
0.0
 40
0.0
 40
0.0
 40
1.0
 40
1.0
 40
1.0
 40
1.0
 10
-25.1239
 20
15.6935
 30
0.0
 10
-25.1239
 20
15.6935
 30
0.0
 10
-30.6469
 20
15.6935
 30
0.0
 10
-30.6469
 20
15.6935
 30
0.0
  0
SPLINE
  5
D4
330
1F
100
AcDbEntity
  8
Ilustrace
 62
   250
370
    30
100
AcDbSpline
210
0.0
220
0.0
230
1.0
 70
    24
 71
     3
 72
     8
 73
     4
 74
     0
 42
0.0000000001
 43
0.0000000001
 40
0.0
 40
0.0
 40
0.0
 40
0.0
 40
1.0
 40
1.0
 40
1.0
 40
1.0
 10
-30.2676
 20
15.3222
 30
0.0
 10
-30.2676
 20
15.3222
 30
0.0
 10
-30.2676
 20
-24.5401
 30
0.0
 10
-30.2676
 20
-24.5401
 30
0.0
  0
TEXT
  5
D5
330
1F
100
AcDbEntity
  8
Ilustrace
 62
   250
100
AcDbText
 10
-31.02720000000005
 20
-6.511299999999954
 30
0.0
 40
2.79396
  1
102
 50
89.99999999999848
 51
-0.0000015352345087
  7
0
100
AcDbText
  0
SPLINE
  5
D6
330
1F
100
AcDbEntity
  8
Ilustrace
 62
   250
370
    70
100
AcDbSpline
210
0.0
220
0.0
230
1.0
 70
    24
 71
     3
 72
     8
 73
     4
 74
     0
 42
0.0000000001
 43
0.0000000001
 40
0.0
 40
0.0
 40
0.0
 40
0.0
 40
1.0
 40
1.0
 40
1.0
 40
1.0
 10
29.6165
 20
15.9764
 30
0.0
 10
29.6165
 20
15.9764
 30
0.0
 10
29.6165
 20
22.6861
 30
0.0
 10
29.6165
 20
22.6861
 30
0.0
  0
SPLINE
  5
D7
330
1F
100
AcDbEntity
  8
Ilustrace
 62
   250
370
    70
100
AcDbSpline
210
0.0
220
0.0
230
1.0
 70
    24
 71
     3
 72
     8
 73
     4
 74
     0
 42
0.0000000001
 43
0.0000000001
 40
0.0
 40
0.0
 40
0.0
 40
0.0
 40
1.0
 40
1.0
 40
1.0
 40
1.0
 10
31.7314
 20
15.9158
 30
0.0
 10
31.7314
 20
15.9158
 30
0.0
 10
31.7314
 20
22.8454
 30
0.0
 10
31.7314
 20
22.8454
 30
0.0
  0
SPLINE
  5
D8
330
1F
100
AcDbEntity
  8
Ilustrace
 62
   250
370
    40
100
AcDbSpline
210
0.0
220
0.0
230
1.0
 70
    24
 71
     3
 72
     8
 73
     4
 74
     0
 42
0.0000000001
 43
0.0000000001
 40
0.0
 40
0.0
 40
0.0
 40
0.0
 40
1.0
 40
1.0
 40
1.0
 40
1.0
 10
33.5922
 20
21.8225
 30
0.0
 10
33.5922
 20
21.8225
 30
0.0
 10
27.5729
 20
21.8225
 30
0.0
 10
27.5729
 20
21.8225
 30
0.0
  0
TEXT
  5
DA
330
1F
100
AcDbEntity
  8
Ilustrace
 62
   250
100
AcDbText
 10
30.009
 20
22.5572
 30
0.0
 40
2.79396
  1
4
 51
-0.0000015352345087
  7
1
100
AcDbText
  0
SPLINE
  5
DB
330
1F
100
AcDbEntity
  8
Ilustrace
 62
   250
370
     9
100
AcDbSpline
210
0.0
220
0.0
230
1.0
 70
    11
 71
     3
 72
    32
 73
    28
 74
     0
 42
0.0000000001
 43
0.0000000001
 40
0.0
 40
0.0
 40
0.0
 40
0.0
 40
0.125
 40
0.125
 40
0.125
 40
0.125
 40
0.25
 40
0.25
 40
0.25
 40
0.25
 40
0.375
 40
0.375
 40
0.375
 40
0.375
 40
0.5
 40
0.5
 40
0.5
 40
0.5
 40
0.625
 40
0.625
 40
0.625
 40
0.625
 40
0.75
 40
0.75
 40
0.75
 40
0.75
 40
1.0
 40
1.0
 40
1.0
 40
1.0
 10
15.5944
 20
21.3862
 30
0.0
 10
15.5944
 20
21.3862
 30
0.0
 10
15.5944
 20
21.3862
 30
0.0
 10
15.5944
 20
21.3862
 30
0.0
 10
15.5944
 20
21.3862
 30
0.0
 10
15.5944
 20
21.3862
 30
0.0
 10
15.5944
 20
21.3862
 30
0.0
 10
15.5944
 20
21.3862
 30
0.0
 10
15.5944
 20
21.3862
 30
0.0
 10
15.5944
 20
21.3862
 30
0.0
 10
16.8672
 20
21.8296
 30
0.0
 10
16.8672
 20
21.8296
 30
0.0
 10
16.8672
 20
21.8296
 30
0.0
 10
16.8672
 20
21.8296
 30
0.0
 10
15.5944
 20
22.273
 30
0.0
 10
15.5944
 20
22.273
 30
0.0
 10
15.5944
 20
22.273
 30
0.0
 10
15.5944
 20
22.273
 30
0.0
 10
15.5944
 20
22.273
 30
0.0
 10
15.5944
 20
22.273
 30
0.0
 10
15.5944
 20
22.273
 30
0.0
 10
15.5944
 20
22.273
 30
0.0
 10
15.5944
 20
22.273
 30
0.0
 10
15.5944
 20
22.273
 30
0.0
 10
15.5944
 20
22.273
 30
0.0
 10
15.5944
 20
22.273
 30
0.0
 10
15.5944
 20
21.3862
 30
0.0
 10
15.5944
 20
21.3862
 30
0.0
  0
SPLINE
  5
DC
330
1F
100
AcDbEntity
  8
Ilustrace
 62
   250
370
     9
100
AcDbSpline
210
0.0
220
0.0
230
1.0
 70
    11
 71
     3
 72
    32
 73
    28
 74
     0
 42
0.0000000001
 43
0.0000000001
 40
0.0
 40
0.0
 40
0.0
 40
0.0
 40
0.125
 40
0.125
 40
0.125
 40
0.125
 40
0.25
 40
0.25
 40
0.25
 40
0.25
 40
0.375
 40
0.375
 40
0.375
 40
0.375
 40
0.5
 40
0.5
 40
0.5
 40
0.5
 40
0.625
 40
0.625
 40
0.625
 40
0.625
 40
0.75
 40
0.75
 40
0.75
 40
0.75
 40
1.0
 40
1.0
 40
1.0
 40
1.0
 10
28.3385
 20
21.3642
 30
0.0
 10
28.3385
 20
21.3642
 30
0.0
 10
28.3385
 20
21.3642
 30
0.0
 10
28.3385
 20
21.3642
 30
0.0
 10
28.3385
 20
21.3642
 30
0.0
 10
28.3385
 20
21.3642
 30
0.0
 10
28.3385
 20
21.3642
 30
0.0
 10
28.3385
 20
21.3642
 30
0.0
 10
28.3385
 20
21.3642
 30
0.0
 10
28.3385
 20
21.3642
 30
0.0
 10
29.6113
 20
21.8076
 30
0.0
 10
29.6113
 20
21.8076
 30
0.0
 10
29.6113
 20
21.8076
 30
0.0
 10
29.6113
 20
21.8076
 30
0.0
 10
28.3385
 20
22.251
 30
0.0
 10
28.3385
 20
22.251
 30
0.0
 10
28.3385
 20
22.251
 30
0.0
 10
28.3385
 20
22.251
 30
0.0
 10
28.3385
 20
22.251
 30
0.0
 10
28.3385
 20
22.251
 30
0.0
 10
28.3385
 20
22.251
 30
0.0
 10
28.3385
 20
22.251
 30
0.0
 10
28.3385
 20
22.251
 30
0.0
 10
28.3385
 20
22.251
 30
0.0
 10
28.3385
 20
22.251
 30
0.0
 10
28.3385
 20
22.251
 30
0.0
 10
28.3385
 20
21.3642
 30
0.0
 10
28.3385
 20
21.3642
 30
0.0
  0
SPLINE
  5
DD
330
1F
100
AcDbEntity
  8
Ilustrace
 62
   250
370
     9
100
AcDbSpline
210
0.0
220
0.0
230
1.0
 70
    11
 71
     3
 72
    32
 73
    28
 74
     0
 42
0.0000000001
 43
0.0000000001
 40
0.0
 40
0.0
 40
0.0
 40
0.0
 40
0.125
 40
0.125
 40
0.125
 40
0.125
 40
0.25
 40
0.25
 40
0.25
 40
0.25
 40
0.375
 40
0.375
 40
0.375
 40
0.375
 40
0.5
 40
0.5
 40
0.5
 40
0.5
 40
0.625
 40
0.625
 40
0.625
 40
0.625
 40
0.75
 40
0.75
 40
0.75
 40
0.75
 40
1.0
 40
1.0
 40
1.0
 40
1.0
 10
33.0288
 20
21.3863
 30
0.0
 10
33.0288
 20
21.3863
 30
0.0
 10
33.0288
 20
21.3863
 30
0.0
 10
33.0288
 20
21.3863
 30
0.0
 10
33.0288
 20
21.3863
 30
0.0
 10
33.0288
 20
21.3863
 30
0.0
 10
33.0288
 20
21.3863
 30
0.0
 10
33.0288
 20
21.3863
 30
0.0
 10
33.0288
 20
21.3863
 30
0.0
 10
33.0288
 20
21.3863
 30
0.0
 10
31.756
 20
21.8297
 30
0.0
 10
31.756
 20
21.8297
 30
0.0
 10
31.756
 20
21.8297
 30
0.0
 10
31.756
 20
21.8297
 30
0.0
 10
33.0288
 20
22.2731
 30
0.0
 10
33.0288
 20
22.2731
 30
0.0
 10
33.0288
 20
22.2731
 30
0.0
 10
33.0288
 20
22.2731
 30
0.0
 10
33.0288
 20
22.2731
 30
0.0
 10
33.0288
 20
22.2731
 30
0.0
 10
33.0288
 20
22.2731
 30
0.0
 10
33.0288
 20
22.2731
 30
0.0
 10
33.0288
 20
22.2731
 30
0.0
 10
33.0288
 20
22.2731
 30
0.0
 10
33.0288
 20
22.2731
 30
0.0
 10
33.0288
 20
22.2731
 30
0.0
 10
33.0288
 20
21.3863
 30
0.0
 10
33.0288
 20
21.3863
 30
0.0
  0
SPLINE
  5
DE
330
1F
100
AcDbEntity
  8
Ilustrace
 62
   250
370
     9
100
AcDbSpline
210
0.0
220
0.0
230
1.0
 70
    11
 71
     3
 72
    32
 73
    28
 74
     0
 42
0.0000000001
 43
0.0000000001
 40
0.0
 40
0.0
 40
0.0
 40
0.0
 40
0.125
 40
0.125
 40
0.125
 40
0.125
 40
0.25
 40
0.25
 40
0.25
 40
0.25
 40
0.375
 40
0.375
 40
0.375
 40
0.375
 40
0.5
 40
0.5
 40
0.5
 40
0.5
 40
0.625
 40
0.625
 40
0.625
 40
0.625
 40
0.75
 40
0.75
 40
0.75
 40
0.75
 40
1.0
 40
1.0
 40
1.0
 40
1.0
 10
-29.78
 20
14.3719
 30
0.0
 10
-29.78
 20
14.3719
 30
0.0
 10
-29.78
 20
14.3719
 30
0.0
 10
-29.78
 20
14.3719
 30
0.0
 10
-29.78
 20
14.3719
 30
0.0
 10
-29.78
 20
14.3719
 30
0.0
 10
-29.78
 20
14.3719
 30
0.0
 10
-29.78
 20
14.3719
 30
0.0
 10
-29.78
 20
14.3719
 30
0.0
 10
-29.78
 20
14.3719
 30
0.0
 10
-30.2234
 20
15.6447
 30
0.0
 10
-30.2234
 20
15.6447
 30
0.0
 10
-30.2234
 20
15.6447
 30
0.0
 10
-30.2234
 20
15.6447
 30
0.0
 10
-30.6668
 20
14.3719
 30
0.0
 10
-30.6668
 20
14.3719
 30
0.0
 10
-30.6668
 20
14.3719
 30
0.0
 10
-30.6668
 20
14.3719
 30
0.0
 10
-30.6668
 20
14.3719
 30
0.0
 10
-30.6668
 20
14.3719
 30
0.0
 10
-30.6668
 20
14.3719
 30
0.0
 10
-30.6668
 20
14.3719
 30
0.0
 10
-30.6668
 20
14.3719
 30
0.0
 10
-30.6668
 20
14.3719
 30
0.0
 10
-30.6668
 20
14.3719
 30
0.0
 10
-30.6668
 20
14.3719
 30
0.0
 10
-29.78
 20
14.3719
 30
0.0
 10
-29.78
 20
14.3719
 30
0.0
  0
SPLINE
  5
DF
330
1F
100
AcDbEntity
  8
Ilustrace
 62
   250
370
     9
100
AcDbSpline
210
0.0
220
0.0
230
1.0
 70
    11
 71
     3
 72
    32
 73
    28
 74
     0
 42
0.0000000001
 43
0.0000000001
 40
0.0
 40
0.0
 40
0.0
 40
0.0
 40
0.125
 40
0.125
 40
0.125
 40
0.125
 40
0.25
 40
0.25
 40
0.25
 40
0.25
 40
0.375
 40
0.375
 40
0.375
 40
0.375
 40
0.5
 40
0.5
 40
0.5
 40
0.5
 40
0.625
 40
0.625
 40
0.625
 40
0.625
 40
0.75
 40
0.75
 40
0.75
 40
0.75
 40
1.0
 40
1.0
 40
1.0
 40
1.0
 10
-22.4679
 20
21.3692
 30
0.0
 10
-22.4679
 20
21.3692
 30
0.0
 10
-22.4679
 20
21.3692
 30
0.0
 10
-22.4679
 20
21.3692
 30
0.0
 10
-22.4679
 20
21.3692
 30
0.0
 10
-22.4679
 20
21.3692
 30
0.0
 10
-22.4679
 20
21.3692
 30
0.0
 10
-22.4679
 20
21.3692
 30
0.0
 10
-22.4679
 20
21.3692
 30
0.0
 10
-22.4679
 20
21.3692
 30
0.0
 10
-23.7407
 20
21.8126
 30
0.0
 10
-23.7407
 20
21.8126
 30
0.0
 10
-23.7407
 20
21.8126
 30
0.0
 10
-23.7407
 20
21.8126
 30
0.0
 10
-22.4679
 20
22.256
 30
0.0
 10
-22.4679
 20
22.256
 30
0.0
 10
-22.4679
 20
22.256
 30
0.0
 10
-22.4679
 20
22.256
 30
0.0
 10
-22.4679
 20
22.256
 30
0.0
 10
-22.4679
 20
22.256
 30
0.0
 10
-22.4679
 20
22.256
 30
0.0
 10
-22.4679
 20
22.256
 30
0.0
 10
-22.4679
 20
22.256
 30
0.0
 10
-22.4679
 20
22.256
 30
0.0
 10
-22.4679
 20
22.256
 30
0.0
 10
-22.4679
 20
22.256
 30
0.0
 10
-22.4679
 20
21.3692
 30
0.0
 10
-22.4679
 20
21.3692
 30
0.0
  0
SPLINE
  5
E0
330
1F
100
AcDbEntity
  8
Ilustrace
 62
   250
370
     9
100
AcDbSpline
210
0.0
220
0.0
230
1.0
 70
    11
 71
     3
 72
    32
 73
    28
 74
     0
 42
0.0000000001
 43
0.0000000001
 40
0.0
 40
0.0
 40
0.0
 40
0.0
 40
0.125
 40
0.125
 40
0.125
 40
0.125
 40
0.25
 40
0.25
 40
0.25
 40
0.25
 40
0.375
 40
0.375
 40
0.375
 40
0.375
 40
0.5
 40
0.5
 40
0.5
 40
0.5
 40
0.625
 40
0.625
 40
0.625
 40
0.625
 40
0.75
 40
0.75
 40
0.75
 40
0.75
 40
1.0
 40
1.0
 40
1.0
 40
1.0
 10
-29.763
 20
-23.6904
 30
0.0
 10
-29.763
 20
-23.6904
 30
0.0
 10
-29.763
 20
-23.6904
 30
0.0
 10
-29.763
 20
-23.6904
 30
0.0
 10
-29.763
 20
-23.6904
 30
0.0
 10
-29.763
 20
-23.6904
 30
0.0
 10
-29.763
 20
-23.6904
 30
0.0
 10
-29.763
 20
-23.6904
 30
0.0
 10
-29.763
 20
-23.6904
 30
0.0
 10
-29.763
 20
-23.6904
 30
0.0
 10
-30.2064
 20
-24.9632
 30
0.0
 10
-30.2064
 20
-24.9632
 30
0.0
 10
-30.2064
 20
-24.9632
 30
0.0
 10
-30.2064
 20
-24.9632
 30
0.0
 10
-30.6498
 20
-23.6904
 30
0.0
 10
-30.6498
 20
-23.6904
 30
0.0
 10
-30.6498
 20
-23.6904
 30
0.0
 10
-30.6498
 20
-23.6904
 30
0.0
 10
-30.6498
 20
-23.6904
 30
0.0
 10
-30.6498
 20
-23.6904
 30
0.0
 10
-30.6498
 20
-23.6904
 30
0.0
 10
-30.6498
 20
-23.6904
 30
0.0
 10
-30.6498
 20
-23.6904
 30
0.0
 10
-30.6498
 20
-23.6904
 30
0.0
 10
-30.6498
 20
-23.6904
 30
0.0
 10
-30.6498
 20
-23.6904
 30
0.0
 10
-29.763
 20
-23.6904
 30
0.0
 10
-29.763
 20
-23.6904
 30
0.0
  0
ENDSEC
  0
SECTION
  2
OBJECTS
  0
DICTIONARY
  5
C
330
0
100
AcDbDictionary
281
     1
  3
ACAD_GROUP
350
D
  3
ACAD_LAYOUT
350
1A
  3
ACAD_MATERIAL
350
3B
  3
ACAD_MLEADERSTYLE
350
E3
  3
ACAD_MLINESTYLE
350
17
  3
ACAD_PLOTSETTINGS
350
19
  3
ACAD_PLOTSTYLENAME
350
E
  3
ACAD_SCALELIST
350
AF
  3
ACAD_VISUALSTYLE
350
2A
  3
AcDbVariableDictionary
350
E1
  0
DICTIONARY
  5
D
102
{ACAD_REACTORS
330
C
102
}
330
C
100
AcDbDictionary
281
     1
  0
DICTIONARY
  5
1A
102
{ACAD_REACTORS
330
C
102
}
330
C
100
AcDbDictionary
281
     1
  3
Layout1
350
1E
  3
Layout2
350
26
  3
Model
350
22
  0
DICTIONARY
  5
3B
102
{ACAD_REACTORS
330
C
102
}
330
C
100
AcDbDictionary
281
     1
  3
ByBlock
350
3D
  3
ByLayer
350
3C
  3
Global
350
3E
  0
DICTIONARY
  5
E3
102
{ACAD_REACTORS
330
C
102
}
330
C
100
AcDbDictionary
281
     1
  0
DICTIONARY
  5
17
102
{ACAD_REACTORS
330
C
102
}
330
C
100
AcDbDictionary
281
     1
  3
Standard
350
18
  0
DICTIONARY
  5
19
102
{ACAD_REACTORS
330
C
102
}
330
C
100
AcDbDictionary
281
     1
  0
ACDBDICTIONARYWDFLT
  5
E
102
{ACAD_REACTORS
330
C
102
}
330
C
100
AcDbDictionary
281
     1
  3
Normal
350
F
100
AcDbDictionaryWithDefault
340
F
  0
DICTIONARY
  5
AF
102
{ACAD_REACTORS
330
C
102
}
330
C
100
AcDbDictionary
281
     1
  3
A0
350
B0
  3
A1
350
B1
  3
A2
350
B2
  3
A3
350
B3
  3
A4
350
B4
  3
A5
350
B5
  3
A6
350
B6
  3
A7
350
B7
  3
A8
350
B8
  3
A9
350
B9
  3
B0
350
BA
  3
B1
350
BB
  3
B2
350
BC
  3
B3
350
BD
  3
B4
350
BE
  3
B5
350
BF
  3
B6
350
C0
  3
B7
350
C1
  3
B8
350
C2
  3
B9
350
C3
  3
C0
350
C4
  3
C1
350
C5
  3
C2
350
C6
  3
C3
350
C7
  3
C4
350
C8
  3
C5
350
C9
  3
C6
350
CA
  3
C7
350
CB
  3
C8
350
CC
  3
C9
350
CD
  3
D0
350
CE
  3
D1
350
CF
  3
D2
350
D0
  0
DICTIONARY
  5
2A
102
{ACAD_REACTORS
330
C
102
}
330
C
100
AcDbDictionary
281
     1
  3
2dWireframe
350
2F
  3
3D Hidden
350
31
  3
3dWireframe
350
30
  3
Basic
350
32
  3
Brighten
350
36
  3
ColorChange
350
3A
  3
Conceptual
350
34
  3
Dim
350
35
  3
Facepattern
350
39
  3
Flat
350
2B
  3
FlatWithEdges
350
2C
  3
Gouraud
350
2D
  3
GouraudWithEdges
350
2E
  3
Linepattern
350
38
  3
Realistic
350
33
  3
Thicken
350
37
  0
DICTIONARY
  5
E1
102
{ACAD_REACTORS
330
C
102
}
330
C
100
AcDbDictionary
281
     1
  3
CANNOSCALE
350
E4
  3
DIMASSOC
350
E5
  3
HIDETEXT
350
E6
  0
LAYOUT
  5
1E
102
{ACAD_REACTORS
330
1A
102
}
330
1A
100
AcDbPlotSettings
  1

  2
none_device
  4

  6

 40
0.0
 41
0.0
 42
0.0
 43
0.0
 44
0.0
 45
0.0
 46
0.0
 47
0.0
 48
0.0
 49
0.0
140
0.0
141
0.0
142
1.0
143
1.0
 70
   688
 72
     0
 73
     0
 74
     5
  7

 75
    16
147
1.0
148
0.0
149
0.0
100
AcDbLayout
  1
Layout1
 70
     1
 71
     1
 10
0.0
 20
0.0
 11
12.0
 21
9.0
 12
0.0
 22
0.0
 32
0.0
 14
1.000000000000000E+20
 24
1.000000000000000E+20
 34
1.000000000000000E+20
 15
-1.000000000000000E+20
 25
-1.000000000000000E+20
 35
-1.000000000000000E+20
146
0.0
 13
0.0
 23
0.0
 33
0.0
 16
1.0
 26
0.0
 36
0.0
 17
0.0
 27
1.0
 37
0.0
 76
     0
330
1B
  0
LAYOUT
  5
26
102
{ACAD_REACTORS
330
1A
102
}
330
1A
100
AcDbPlotSettings
  1

  2
none_device
  4

  6

 40
0.0
 41
0.0
 42
0.0
 43
0.0
 44
0.0
 45
0.0
 46
0.0
 47
0.0
 48
0.0
 49
0.0
140
0.0
141
0.0
142
1.0
143
1.0
 70
   688
 72
     0
 73
     0
 74
     5
  7

 75
    16
147
1.0
148
0.0
149
0.0
100
AcDbLayout
  1
Layout2
 70
     1
 71
     2
 10
0.0
 20
0.0
 11
0.0
 21
0.0
 12
0.0
 22
0.0
 32
0.0
 14
0.0
 24
0.0
 34
0.0
 15
0.0
 25
0.0
 35
0.0
146
0.0
 13
0.0
 23
0.0
 33
0.0
 16
1.0
 26
0.0
 36
0.0
 17
0.0
 27
1.0
 37
0.0
 76
     0
330
23
  0
LAYOUT
  5
22
102
{ACAD_REACTORS
330
1A
102
}
330
1A
100
AcDbPlotSettings
  1

  2
none_device
  4

  6

 40
0.0
 41
0.0
 42
0.0
 43
0.0
 44
0.0
 45
0.0
 46
0.0
 47
0.0
 48
0.0
 49
0.0
140
0.0
141
0.0
142
1.0
143
1.0
 70
  1712
 72
     0
 73
     0
 74
     0
  7

 75
     0
147
1.0
148
0.0
149
0.0
100
AcDbLayout
  1
Model
 70
     1
 71
     0
 10
0.0
 20
0.0
 11
12.0
 21
9.0
 12
0.0
 22
0.0
 32
0.0
 14
-33.5922
 24
-25.2624
 34
0.0
 15
33.5922
 25
25.1214
 35
0.0
146
0.0
 13
0.0
 23
0.0
 33
0.0
 16
1.0
 26
0.0
 36
0.0
 17
0.0
 27
1.0
 37
0.0
 76
     0
330
1F
331
29
  0
MATERIAL
  5
3D
102
{ACAD_REACTORS
330
3B
102
}
102
{ACAD_XDICTIONARY
360
109
102
}
330
3B
100
AcDbMaterial
  1
ByBlock
  0
MATERIAL
  5
3C
102
{ACAD_REACTORS
330
3B
102
}
102
{ACAD_XDICTIONARY
360
107
102
}
330
3B
100
AcDbMaterial
  1
ByLayer
  0
MATERIAL
  5
3E
102
{ACAD_REACTORS
330
3B
102
}
102
{ACAD_XDICTIONARY
360
10B
102
}
330
3B
100
AcDbMaterial
  1
Global
  0
MLINESTYLE
  5
18
102
{ACAD_REACTORS
330
17
102
}
330
17
100
AcDbMlineStyle
  2
Standard
 70
     0
  3

 62
   256
 51
90.0
 52
90.0
 71
     2
 49
0.5
 62
   256
  6
BYLAYER
 49
-0.5
 62
   256
  6
BYLAYER
  0
ACDBPLACEHOLDER
  5
F
102
{ACAD_REACTORS
330
E
102
}
330
E
  0
SCALE
  5
B0
102
{ACAD_REACTORS
330
AF
102
}
330
AF
100
AcDbScale
 70
     0
300
1:1
140
1.0
141
1.0
290
     1
  0
SCALE
  5
B1
102
{ACAD_REACTORS
330
AF
102
}
330
AF
100
AcDbScale
 70
     0
300
1:2
140
1.0
141
2.0
290
     0
  0
SCALE
  5
B2
102
{ACAD_REACTORS
330
AF
102
}
330
AF
100
AcDbScale
 70
     0
300
1:4
140
1.0
141
4.0
290
     0
  0
SCALE
  5
B3
102
{ACAD_REACTORS
330
AF
102
}
330
AF
100
AcDbScale
 70
     0
300
1:5
140
1.0
141
5.0
290
     0
  0
SCALE
  5
B4
102
{ACAD_REACTORS
330
AF
102
}
330
AF
100
AcDbScale
 70
     0
300
1:8
140
1.0
141
8.0
290
     0
  0
SCALE
  5
B5
102
{ACAD_REACTORS
330
AF
102
}
330
AF
100
AcDbScale
 70
     0
300
1:10
140
1.0
141
10.0
290
     0
  0
SCALE
  5
B6
102
{ACAD_REACTORS
330
AF
102
}
330
AF
100
AcDbScale
 70
     0
300
1:16
140
1.0
141
16.0
290
     0
  0
SCALE
  5
B7
102
{ACAD_REACTORS
330
AF
102
}
330
AF
100
AcDbScale
 70
     0
300
1:20
140
1.0
141
20.0
290
     0
  0
SCALE
  5
B8
102
{ACAD_REACTORS
330
AF
102
}
330
AF
100
AcDbScale
 70
     0
300
1:30
140
1.0
141
30.0
290
     0
  0
SCALE
  5
B9
102
{ACAD_REACTORS
330
AF
102
}
330
AF
100
AcDbScale
 70
     0
300
1:40
140
1.0
141
40.0
290
     0
  0
SCALE
  5
BA
102
{ACAD_REACTORS
330
AF
102
}
330
AF
100
AcDbScale
 70
     0
300
1:50
140
1.0
141
50.0
290
     0
  0
SCALE
  5
BB
102
{ACAD_REACTORS
330
AF
102
}
330
AF
100
AcDbScale
 70
     0
300
1:100
140
1.0
141
100.0
290
     0
  0
SCALE
  5
BC
102
{ACAD_REACTORS
330
AF
102
}
330
AF
100
AcDbScale
 70
     0
300
2:1
140
2.0
141
1.0
290
     0
  0
SCALE
  5
BD
102
{ACAD_REACTORS
330
AF
102
}
330
AF
100
AcDbScale
 70
     0
300
4:1
140
4.0
141
1.0
290
     0
  0
SCALE
  5
BE
102
{ACAD_REACTORS
330
AF
102
}
330
AF
100
AcDbScale
 70
     0
300
8:1
140
8.0
141
1.0
290
     0
  0
SCALE
  5
BF
102
{ACAD_REACTORS
330
AF
102
}
330
AF
100
AcDbScale
 70
     0
300
10:1
140
10.0
141
1.0
290
     0
  0
SCALE
  5
C0
102
{ACAD_REACTORS
330
AF
102
}
330
AF
100
AcDbScale
 70
     0
300
100:1
140
100.0
141
1.0
290
     0
  0
SCALE
  5
C1
102
{ACAD_REACTORS
330
AF
102
}
330
AF
100
AcDbScale
 70
     0
300
1/128" = 1'-0"
140
0.0078125
141
12.0
290
     0
  0
SCALE
  5
C2
102
{ACAD_REACTORS
330
AF
102
}
330
AF
100
AcDbScale
 70
     0
300
1/64" = 1'-0"
140
0.015625
141
12.0
290
     0
  0
SCALE
  5
C3
102
{ACAD_REACTORS
330
AF
102
}
330
AF
100
AcDbScale
 70
     0
300
1/32" = 1'-0"
140
0.03125
141
12.0
290
     0
  0
SCALE
  5
C4
102
{ACAD_REACTORS
330
AF
102
}
330
AF
100
AcDbScale
 70
     0
300
1/16" = 1'-0"
140
0.0625
141
12.0
290
     0
  0
SCALE
  5
C5
102
{ACAD_REACTORS
330
AF
102
}
330
AF
100
AcDbScale
 70
     0
300
3/32" = 1'-0"
140
0.09375
141
12.0
290
     0
  0
SCALE
  5
C6
102
{ACAD_REACTORS
330
AF
102
}
330
AF
100
AcDbScale
 70
     0
300
1/8" = 1'-0"
140
0.125
141
12.0
290
     0
  0
SCALE
  5
C7
102
{ACAD_REACTORS
330
AF
102
}
330
AF
100
AcDbScale
 70
     0
300
3/16" = 1'-0"
140
0.1875
141
12.0
290
     0
  0
SCALE
  5
C8
102
{ACAD_REACTORS
330
AF
102
}
330
AF
100
AcDbScale
 70
     0
300
1/4" = 1'-0"
140
0.25
141
12.0
290
     0
  0
SCALE
  5
C9
102
{ACAD_REACTORS
330
AF
102
}
330
AF
100
AcDbScale
 70
     0
300
3/8" = 1'-0"
140
0.375
141
12.0
290
     0
  0
SCALE
  5
CA
102
{ACAD_REACTORS
330
AF
102
}
330
AF
100
AcDbScale
 70
     0
300
1/2" = 1'-0"
140
0.5
141
12.0
290
     0
  0
SCALE
  5
CB
102
{ACAD_REACTORS
330
AF
102
}
330
AF
100
AcDbScale
 70
     0
300
3/4" = 1'-0"
140
0.75
141
12.0
290
     0
  0
SCALE
  5
CC
102
{ACAD_REACTORS
330
AF
102
}
330
AF
100
AcDbScale
 70
     0
300
1" = 1'-0"
140
1.0
141
12.0
290
     0
  0
SCALE
  5
CD
102
{ACAD_REACTORS
330
AF
102
}
330
AF
100
AcDbScale
 70
     0
300
1-1/2" = 1'-0"
140
1.5
141
12.0
290
     0
  0
SCALE
  5
CE
102
{ACAD_REACTORS
330
AF
102
}
330
AF
100
AcDbScale
 70
     0
300
3" = 1'-0"
140
3.0
141
12.0
290
     0
  0
SCALE
  5
CF
102
{ACAD_REACTORS
330
AF
102
}
330
AF
100
AcDbScale
 70
     0
300
6" = 1'-0"
140
6.0
141
12.0
290
     0
  0
SCALE
  5
D0
102
{ACAD_REACTORS
330
AF
102
}
330
AF
100
AcDbScale
 70
     0
300
1'-0" = 1'-0"
140
12.0
141
12.0
290
     0
  0
VISUALSTYLE
  5
2F
102
{ACAD_REACTORS
330
2A
102
}
102
{ACAD_XDICTIONARY
360
EF
102
}
330
2A
100
AcDbVisualStyle
  2
2dWireframe
 70
     4
 71
     0
 72
     2
 73
     0
 90
        0
 40
-0.6
 41
-30.0
 62
     5
 63
     7
 74
     1
 91
        4
 64
     7
 65
   257
 75
     1
175
     1
 42
1.0
 92
        0
 66
   257
 43
1.0
 76
     1
 77
     6
 78
     2
 67
     7
 79
     5
170
     0
171
     0
290
     0
174
     0
 93
        1
 44
0.0
173
     0
291
     0
 45
0.0
1001
ACAD
1000
AcDbSavedByObjectVersion
1070
     0
  0
VISUALSTYLE
  5
31
102
{ACAD_REACTORS
330
2A
102
}
102
{ACAD_XDICTIONARY
360
F3
102
}
330
2A
100
AcDbVisualStyle
  2
3D Hidden
 70
     6
 71
     1
 72
     2
 73
     2
 90
        0
 40
-0.6
 41
-30.0
 62
     5
 63
     7
 74
     2
 91
        2
 64
     7
 65
   257
 75
     2
175
     1
 42
40.0
 92
        0
 66
   257
 43
1.0
 76
     1
 77
     6
 78
     2
 67
     7
 79
     3
170
     0
171
     0
290
     0
174
     0
 93
        1
 44
0.0
173
     0
291
     0
 45
0.0
1001
ACAD
1000
AcDbSavedByObjectVersion
1070
     0
  0
VISUALSTYLE
  5
30
102
{ACAD_REACTORS
330
2A
102
}
102
{ACAD_XDICTIONARY
360
F1
102
}
330
2A
100
AcDbVisualStyle
  2
3dWireframe
 70
     5
 71
     0
 72
     2
 73
     0
 90
        0
 40
-0.6
 41
-30.0
 62
     5
 63
     7
 74
     1
 91
        4
 64
     7
 65
   257
 75
     1
175
     1
 42
1.0
 92
        0
 66
   257
 43
1.0
 76
     1
 77
     6
 78
     2
 67
     7
 79
     5
170
     0
171
     0
290
     0
174
     0
 93
        1
 44
0.0
173
     0
291
     0
 45
0.0
1001
ACAD
1000
AcDbSavedByObjectVersion
1070
     0
  0
VISUALSTYLE
  5
32
102
{ACAD_REACTORS
330
2A
102
}
102
{ACAD_XDICTIONARY
360
F5
102
}
330
2A
100
AcDbVisualStyle
  2
Basic
 70
     7
 71
     1
 72
     0
 73
     1
 90
        0
 40
-0.6
 41
-30.0
 62
     5
 63
     7
 74
     0
 91
        4
 64
     7
 65
   257
 75
     1
175
     1
 42
1.0
 92
        8
 66
     7
 43
1.0
 76
     1
 77
     6
 78
     2
 67
     7
 79
     5
170
     0
171
     0
290
     0
174
     0
 93
        1
 44
0.0
173
     0
291
     1
 45
0.0
1001
ACAD
1000
AcDbSavedByObjectVersion
1070
     0
  0
VISUALSTYLE
  5
36
102
{ACAD_REACTORS
330
2A
102
}
102
{ACAD_XDICTIONARY
360
FD
102
}
330
2A
100
AcDbVisualStyle
  2
Brighten
 70
    12
 71
     2
 72
     2
 73
     0
 90
        0
 40
-0.6
 41
-30.0
 62
     5
 63
     7
 74
     1
 91
        4
 64
     7
 65
   257
 75
     1
175
     1
 42
1.0
 92
        8
 66
     7
 43
1.0
 76
     1
 77
     6
 78
     2
 67
     7
 79
     5
170
     0
171
     0
290
     0
174
     0
 93
        1
 44
50.0
173
     0
291
     1
 45
0.0
1001
ACAD
1000
AcDbSavedByObjectVersion
1070
     0
  0
VISUALSTYLE
  5
3A
102
{ACAD_REACTORS
330
2A
102
}
102
{ACAD_XDICTIONARY
360
105
102
}
330
2A
100
AcDbVisualStyle
  2
ColorChange
 70
    16
 71
     2
 72
     2
 73
     3
 90
        0
 40
-0.6
 41
-30.0
 62
     5
 63
     8
 74
     1
 91
        4
 64
     7
 65
   257
 75
     1
175
     1
 42
1.0
 92
        8
 66
     8
 43
1.0
 76
     1
 77
     6
 78
     2
 67
     7
 79
     5
170
     0
171
     0
290
     0
174
     0
 93
        1
 44
0.0
173
     0
291
     1
 45
0.0
1001
ACAD
1000
AcDbSavedByObjectVersion
1070
     0
  0
VISUALSTYLE
  5
34
102
{ACAD_REACTORS
330
2A
102
}
102
{ACAD_XDICTIONARY
360
F9
102
}
330
2A
100
AcDbVisualStyle
  2
Conceptual
 70
     9
 71
     3
 72
     2
 73
     0
 90
        0
 40
-0.6
 41
-30.0
 62
     5
 63
     7
 74
     2
 91
        2
 64
     7
 65
   257
 75
     1
175
     1
 42
40.0
 92
        8
 66
     7
 43
1.0
 76
     1
 77
     6
 78
     2
 67
     7
 79
     3
170
     0
171
     0
290
     0
174
     0
 93
        1
 44
0.0
173
     0
291
     0
 45
0.0
1001
ACAD
1000
AcDbSavedByObjectVersion
1070
     0
  0
VISUALSTYLE
  5
35
102
{ACAD_REACTORS
330
2A
102
}
102
{ACAD_XDICTIONARY
360
FB
102
}
330
2A
100
AcDbVisualStyle
  2
Dim
 70
    11
 71
     2
 72
     2
 73
     0
 90
        0
 40
-0.6
 41
-30.0
 62
     5
 63
     7
 74
     1
 91
        4
 64
     7
 65
   257
 75
     1
175
     1
 42
1.0
 92
        8
 66
     7
 43
1.0
 76
     1
 77
     6
 78
     2
 67
     7
 79
     5
170
     0
171
     0
290
     0
174
     0
 93
        1
 44
-50.0
173
     0
291
     1
 45
0.0
1001
ACAD
1000
AcDbSavedByObjectVersion
1070
     0
  0
VISUALSTYLE
  5
39
102
{ACAD_REACTORS
330
2A
102
}
102
{ACAD_XDICTIONARY
360
103
102
}
330
2A
100
AcDbVisualStyle
  2
Facepattern
 70
    15
 71
     2
 72
     2
 73
     0
 90
        0
 40
-0.6
 41
-30.0
 62
     5
 63
     7
 74
     1
 91
        4
 64
     7
 65
   257
 75
     1
175
     1
 42
1.0
 92
        8
 66
     7
 43
1.0
 76
     1
 77
     6
 78
     2
 67
     7
 79
     5
170
     0
171
     0
290
     0
174
     0
 93
        1
 44
0.0
173
     0
291
     1
 45
0.0
1001
ACAD
1000
AcDbSavedByObjectVersion
1070
     0
  0
VISUALSTYLE
  5
2B
102
{ACAD_REACTORS
330
2A
102
}
102
{ACAD_XDICTIONARY
360
E7
102
}
330
2A
100
AcDbVisualStyle
  2
Flat
 70
     0
 71
     2
 72
     1
 73
     1
 90
        2
 40
-0.6
 41
30.0
 62
     5
 63
     7
 74
     0
 91
        4
 64
     7
 65
   257
 75
     1
175
     1
 42
1.0
 92
        8
 66
     7
 43
1.0
 76
     1
 77
     6
 78
     2
 67
     7
 79
     5
170
     0
171
     0
290
     0
174
     0
 93
       13
 44
0.0
173
     0
291
     1
 45
0.0
1001
ACAD
1000
AcDbSavedByObjectVersion
1070
     0
  0
VISUALSTYLE
  5
2C
102
{ACAD_REACTORS
330
2A
102
}
102
{ACAD_XDICTIONARY
360
E9
102
}
330
2A
100
AcDbVisualStyle
  2
FlatWithEdges
 70
     1
 71
     2
 72
     1
 73
     1
 90
        2
 40
-0.6
 41
30.0
 62
     5
 63
     7
 74
     1
 91
        4
 64
     7
 65
   257
 75
     1
175
     1
 42
1.0
 92
        0
 66
   257
 43
1.0
 76
     1
 77
     6
 78
     2
 67
     7
 79
     5
170
     0
171
     0
290
     0
174
     0
 93
       13
 44
0.0
173
     0
291
     1
 45
0.0
1001
ACAD
1000
AcDbSavedByObjectVersion
1070
     0
  0
VISUALSTYLE
  5
2D
102
{ACAD_REACTORS
330
2A
102
}
102
{ACAD_XDICTIONARY
360
EB
102
}
330
2A
100
AcDbVisualStyle
  2
Gouraud
 70
     2
 71
     2
 72
     2
 73
     1
 90
        2
 40
-0.6
 41
30.0
 62
     5
 63
     7
 74
     0
 91
        4
 64
     7
 65
   257
 75
     1
175
     1
 42
1.0
 92
        0
 66
     7
 43
1.0
 76
     1
 77
     6
 78
     2
 67
     7
 79
     5
170
     0
171
     0
290
     0
174
     0
 93
       13
 44
0.0
173
     0
291
     1
 45
0.0
1001
ACAD
1000
AcDbSavedByObjectVersion
1070
     0
  0
VISUALSTYLE
  5
2E
102
{ACAD_REACTORS
330
2A
102
}
102
{ACAD_XDICTIONARY
360
ED
102
}
330
2A
100
AcDbVisualStyle
  2
GouraudWithEdges
 70
     3
 71
     2
 72
     2
 73
     1
 90
        2
 40
-0.6
 41
30.0
 62
     5
 63
     7
 74
     1
 91
        4
 64
     7
 65
   257
 75
     1
175
     1
 42
1.0
 92
        0
 66
   257
 43
1.0
 76
     1
 77
     6
 78
     2
 67
     7
 79
     5
170
     0
171
     0
290
     0
174
     0
 93
       13
 44
0.0
173
     0
291
     1
 45
0.0
1001
ACAD
1000
AcDbSavedByObjectVersion
1070
     0
  0
VISUALSTYLE
  5
38
102
{ACAD_REACTORS
330
2A
102
}
102
{ACAD_XDICTIONARY
360
101
102
}
330
2A
100
AcDbVisualStyle
  2
Linepattern
 70
    14
 71
     2
 72
     2
 73
     0
 90
        0
 40
-0.6
 41
-30.0
 62
     5
 63
     7
 74
     1
 91
        4
 64
     7
 65
   257
 75
     7
175
     7
 42
1.0
 92
        8
 66
     7
 43
1.0
 76
     1
 77
     6
 78
     2
 67
     7
 79
     5
170
     0
171
     0
290
     0
174
     0
 93
        1
 44
0.0
173
     0
291
     1
 45
0.0
1001
ACAD
1000
AcDbSavedByObjectVersion
1070
     0
  0
VISUALSTYLE
  5
33
102
{ACAD_REACTORS
330
2A
102
}
102
{ACAD_XDICTIONARY
360
F7
102
}
330
2A
100
AcDbVisualStyle
  2
Realistic
 70
     8
 71
     2
 72
     2
 73
     0
 90
        0
 40
-0.6
 41
-30.0
 62
     5
 63
     7
 74
     1
 91
        0
 64
     7
 65
   257
 75
     1
175
     1
 42
1.0
 92
        8
 66
     8
 43
1.0
 76
     1
 77
     6
 78
     2
 67
     7
 79
     5
170
     0
171
     0
290
     0
174
     0
 93
       13
 44
0.0
173
     0
291
     0
 45
0.0
1001
ACAD
1000
AcDbSavedByObjectVersion
1070
     0
  0
VISUALSTYLE
  5
37
102
{ACAD_REACTORS
330
2A
102
}
102
{ACAD_XDICTIONARY
360
FF
102
}
330
2A
100
AcDbVisualStyle
  2
Thicken
 70
    13
 71
     2
 72
     2
 73
     0
 90
        0
 40
-0.6
 41
-30.0
 62
     5
 63
     7
 74
     1
 91
        4
 64
     7
 65
   257
 75
     1
175
     1
 42
1.0
 92
       12
 66
     7
 43
1.0
 76
     1
 77
     6
 78
     2
 67
     7
 79
     5
170
     0
171
     0
290
     0
174
     0
 93
        1
 44
0.0
173
     0
291
     1
 45
0.0
1001
ACAD
1000
AcDbSavedByObjectVersion
1070
     0
  0
DICTIONARYVAR
  5
E4
102
{ACAD_REACTORS
330
E1
102
}
330
E1
100
DictionaryVariables
280
     0
  1
1:1
  0
DICTIONARYVAR
  5
E5
102
{ACAD_REACTORS
330
E1
102
}
330
E1
100
DictionaryVariables
280
     0
  1
2
  0
DICTIONARYVAR
  5
E6
102
{ACAD_REACTORS
330
E1
102
}
330
E1
100
DictionaryVariables
280
     0
  1
1
  0
DICTIONARY
  5
109
330
3D
100
AcDbDictionary
280
     1
281
     1
  3
ACAD_XREC_ROUNDTRIP
360
10A
  0
DICTIONARY
  5
107
330
3C
100
AcDbDictionary
280
     1
281
     1
  3
ACAD_XREC_ROUNDTRIP
360
108
  0
DICTIONARY
  5
10B
330
3E
100
AcDbDictionary
280
     1
281
     1
  3
ACAD_XREC_ROUNDTRIP
360
10C
  0
DICTIONARY
  5
EF
330
2F
100
AcDbDictionary
280
     1
281
     1
  3
ACAD_XREC_ROUNDTRIP
360
F0
  0
DICTIONARY
  5
F3
330
31
100
AcDbDictionary
280
     1
281
     1
  3
ACAD_XREC_ROUNDTRIP
360
F4
  0
DICTIONARY
  5
F1
330
30
100
AcDbDictionary
280
     1
281
     1
  3
ACAD_XREC_ROUNDTRIP
360
F2
  0
DICTIONARY
  5
F5
330
32
100
AcDbDictionary
280
     1
281
     1
  3
ACAD_XREC_ROUNDTRIP
360
F6
  0
DICTIONARY
  5
FD
330
36
100
AcDbDictionary
280
     1
281
     1
  3
ACAD_XREC_ROUNDTRIP
360
FE
  0
DICTIONARY
  5
105
330
3A
100
AcDbDictionary
280
     1
281
     1
  3
ACAD_XREC_ROUNDTRIP
360
106
  0
DICTIONARY
  5
F9
330
34
100
AcDbDictionary
280
     1
281
     1
  3
ACAD_XREC_ROUNDTRIP
360
FA
  0
DICTIONARY
  5
FB
330
35
100
AcDbDictionary
280
     1
281
     1
  3
ACAD_XREC_ROUNDTRIP
360
FC
  0
DICTIONARY
  5
103
330
39
100
AcDbDictionary
280
     1
281
     1
  3
ACAD_XREC_ROUNDTRIP
360
104
  0
DICTIONARY
  5
E7
330
2B
100
AcDbDictionary
280
     1
281
     1
  3
ACAD_XREC_ROUNDTRIP
360
E8
  0
DICTIONARY
  5
E9
330
2C
100
AcDbDictionary
280
     1
281
     1
  3
ACAD_XREC_ROUNDTRIP
360
EA
  0
DICTIONARY
  5
EB
330
2D
100
AcDbDictionary
280
     1
281
     1
  3
ACAD_XREC_ROUNDTRIP
360
EC
  0
DICTIONARY
  5
ED
330
2E
100
AcDbDictionary
280
     1
281
     1
  3
ACAD_XREC_ROUNDTRIP
360
EE
  0
DICTIONARY
  5
101
330
38
100
AcDbDictionary
280
     1
281
     1
  3
ACAD_XREC_ROUNDTRIP
360
102
  0
DICTIONARY
  5
F7
330
33
100
AcDbDictionary
280
     1
281
     1
  3
ACAD_XREC_ROUNDTRIP
360
F8
  0
DICTIONARY
  5
FF
330
37
100
AcDbDictionary
280
     1
281
     1
  3
ACAD_XREC_ROUNDTRIP
360
100
  0
XRECORD
  5
10A
102
{ACAD_REACTORS
330
109
102
}
330
109
100
AcDbXrecord
280
     1
102
MATERIAL
148
0.0
149
0.0
149
0.0
 93
        0
 94
      127
282
     0
 72
     1
 77
     1
171
     1
175
     1
179
     1
273
     0
  0
XRECORD
  5
108
102
{ACAD_REACTORS
330
107
102
}
330
107
100
AcDbXrecord
280
     1
102
MATERIAL
148
0.0
149
0.0
149
0.0
 93
        0
 94
      127
282
     0
 72
     1
 77
     1
171
     1
175
     1
179
     1
273
     0
  0
XRECORD
  5
10C
102
{ACAD_REACTORS
330
10B
102
}
330
10B
100
AcDbXrecord
280
     1
102
MATERIAL
148
0.0
149
0.0
149
0.0
 93
        0
 94
      127
282
     0
 72
     1
 77
     1
171
     1
175
     1
179
     1
273
     0
  0
XRECORD
  5
F0
102
{ACAD_REACTORS
330
EF
102
}
330
EF
100
AcDbXrecord
280
     1
102
RTVSPropertyOp0
 70
     1
102
RTVSPropertyOp1
 70
     1
102
RTVSPropertyOp2
 70
     1
102
RTVSPropertyOp3
 70
     1
102
RTVSPropertyOp4
 70
     1
102
RTVSPropertyOp5
 70
     1
102
RTVSPropertyOp6
 70
     1
102
RTVSPropertyOp7
 70
     1
102
RTVSPropertyOp8
 70
     1
102
RTVSPropertyOp9
 70
     1
102
RTVSPropertyOp10
 70
     1
102
RTVSPropertyOp11
 70
     1
102
RTVSPropertyOp12
 70
     1
102
RTVSPropertyOp13
 70
     1
102
RTVSPropertyOp14
 70
     1
102
RTVSPropertyOp15
 70
     1
102
RTVSPropertyOp16
 70
     1
102
RTVSPropertyOp17
 70
     1
102
RTVSPropertyOp18
 70
     1
102
RTVSPropertyOp19
 70
     1
102
RTVSPropertyOp20
 70
     1
102
RTVSPropertyOp21
 70
     1
102
RTVSPropertyOp22
 70
     1
102
RTVSPropertyOp23
 70
     1
102
RTVSPropertyOp24
 70
     1
102
RTVSPropertyOp25
 70
     1
102
RTVSPropertyOp26
 70
     1
102
RTVSPropertyOp27
 70
     1
  0
XRECORD
  5
F4
102
{ACAD_REACTORS
330
F3
102
}
330
F3
100
AcDbXrecord
280
     1
102
RTVSPropertyOp0
 70
     1
102
RTVSPropertyOp1
 70
     1
102
RTVSPropertyOp2
 70
     1
102
RTVSPropertyOp3
 70
     1
102
RTVSPropertyOp4
 70
     1
102
RTVSPropertyOp5
 70
     1
102
RTVSPropertyOp6
 70
     1
102
RTVSPropertyOp7
 70
     1
102
RTVSPropertyOp8
 70
     1
102
RTVSPropertyOp9
 70
     1
102
RTVSPropertyOp10
 70
     1
102
RTVSPropertyOp11
 70
     1
102
RTVSPropertyOp12
 70
     1
102
RTVSPropertyOp13
 70
     1
102
RTVSPropertyOp14
 70
     1
102
RTVSPropertyOp15
 70
     1
102
RTVSPropertyOp16
 70
     1
102
RTVSPropertyOp17
 70
     1
102
RTVSPropertyOp18
 70
     1
102
RTVSPropertyOp19
 70
     1
102
RTVSPropertyOp20
 70
     1
102
RTVSPropertyOp21
 70
     1
102
RTVSPropertyOp22
 70
     1
102
RTVSPropertyOp23
 70
     1
102
RTVSPropertyOp24
 70
     1
102
RTVSPropertyOp25
 70
     1
102
RTVSPropertyOp26
 70
     1
102
RTVSPropertyOp27
 70
     1
  0
XRECORD
  5
F2
102
{ACAD_REACTORS
330
F1
102
}
330
F1
100
AcDbXrecord
280
     1
102
RTVSPropertyOp0
 70
     1
102
RTVSPropertyOp1
 70
     1
102
RTVSPropertyOp2
 70
     1
102
RTVSPropertyOp3
 70
     1
102
RTVSPropertyOp4
 70
     1
102
RTVSPropertyOp5
 70
     1
102
RTVSPropertyOp6
 70
     1
102
RTVSPropertyOp7
 70
     1
102
RTVSPropertyOp8
 70
     1
102
RTVSPropertyOp9
 70
     1
102
RTVSPropertyOp10
 70
     1
102
RTVSPropertyOp11
 70
     1
102
RTVSPropertyOp12
 70
     1
102
RTVSPropertyOp13
 70
     1
102
RTVSPropertyOp14
 70
     1
102
RTVSPropertyOp15
 70
     1
102
RTVSPropertyOp16
 70
     1
102
RTVSPropertyOp17
 70
     1
102
RTVSPropertyOp18
 70
     1
102
RTVSPropertyOp19
 70
     1
102
RTVSPropertyOp20
 70
     1
102
RTVSPropertyOp21
 70
     1
102
RTVSPropertyOp22
 70
     1
102
RTVSPropertyOp23
 70
     1
102
RTVSPropertyOp24
 70
     1
102
RTVSPropertyOp25
 70
     1
102
RTVSPropertyOp26
 70
     1
102
RTVSPropertyOp27
 70
     1
  0
XRECORD
  5
F6
102
{ACAD_REACTORS
330
F5
102
}
330
F5
100
AcDbXrecord
280
     1
102
RTVSPropertyOp0
 70
     1
102
RTVSPropertyOp1
 70
     1
102
RTVSPropertyOp2
 70
     1
102
RTVSPropertyOp3
 70
     1
102
RTVSPropertyOp4
 70
     1
102
RTVSPropertyOp5
 70
     1
102
RTVSPropertyOp6
 70
     1
102
RTVSPropertyOp7
 70
     1
102
RTVSPropertyOp8
 70
     1
102
RTVSPropertyOp9
 70
     1
102
RTVSPropertyOp10
 70
     1
102
RTVSPropertyOp11
 70
     1
102
RTVSPropertyOp12
 70
     1
102
RTVSPropertyOp13
 70
     1
102
RTVSPropertyOp14
 70
     1
102
RTVSPropertyOp15
 70
     1
102
RTVSPropertyOp16
 70
     1
102
RTVSPropertyOp17
 70
     1
102
RTVSPropertyOp18
 70
     1
102
RTVSPropertyOp19
 70
     1
102
RTVSPropertyOp20
 70
     1
102
RTVSPropertyOp21
 70
     1
102
RTVSPropertyOp22
 70
     1
102
RTVSPropertyOp23
 70
     1
102
RTVSPropertyOp24
 70
     1
102
RTVSPropertyOp25
 70
     1
102
RTVSPropertyOp26
 70
     1
102
RTVSPropertyOp27
 70
     1
  0
XRECORD
  5
FE
102
{ACAD_REACTORS
330
FD
102
}
330
FD
100
AcDbXrecord
280
     1
102
RTVSPropertyOp0
 70
     1
102
RTVSPropertyOp1
 70
     1
102
RTVSPropertyOp2
 70
     1
102
RTVSPropertyOp3
 70
     1
102
RTVSPropertyOp4
 70
     1
102
RTVSPropertyOp5
 70
     1
102
RTVSPropertyOp6
 70
     1
102
RTVSPropertyOp7
 70
     1
102
RTVSPropertyOp8
 70
     1
102
RTVSPropertyOp9
 70
     1
102
RTVSPropertyOp10
 70
     1
102
RTVSPropertyOp11
 70
     1
102
RTVSPropertyOp12
 70
     1
102
RTVSPropertyOp13
 70
     1
102
RTVSPropertyOp14
 70
     1
102
RTVSPropertyOp15
 70
     1
102
RTVSPropertyOp16
 70
     1
102
RTVSPropertyOp17
 70
     1
102
RTVSPropertyOp18
 70
     1
102
RTVSPropertyOp19
 70
     1
102
RTVSPropertyOp20
 70
     1
102
RTVSPropertyOp21
 70
     1
102
RTVSPropertyOp22
 70
     1
102
RTVSPropertyOp23
 70
     1
102
RTVSPropertyOp24
 70
     1
102
RTVSPropertyOp25
 70
     1
102
RTVSPropertyOp26
 70
     1
102
RTVSPropertyOp27
 70
     1
  0
XRECORD
  5
106
102
{ACAD_REACTORS
330
105
102
}
330
105
100
AcDbXrecord
280
     1
102
RTVSPropertyOp0
 70
     1
102
RTVSPropertyOp1
 70
     1
102
RTVSPropertyOp2
 70
     1
102
RTVSPropertyOp3
 70
     1
102
RTVSPropertyOp4
 70
     1
102
RTVSPropertyOp5
 70
     1
102
RTVSPropertyOp6
 70
     1
102
RTVSPropertyOp7
 70
     1
102
RTVSPropertyOp8
 70
     1
102
RTVSPropertyOp9
 70
     1
102
RTVSPropertyOp10
 70
     1
102
RTVSPropertyOp11
 70
     1
102
RTVSPropertyOp12
 70
     1
102
RTVSPropertyOp13
 70
     1
102
RTVSPropertyOp14
 70
     1
102
RTVSPropertyOp15
 70
     1
102
RTVSPropertyOp16
 70
     1
102
RTVSPropertyOp17
 70
     1
102
RTVSPropertyOp18
 70
     1
102
RTVSPropertyOp19
 70
     1
102
RTVSPropertyOp20
 70
     1
102
RTVSPropertyOp21
 70
     1
102
RTVSPropertyOp22
 70
     1
102
RTVSPropertyOp23
 70
     1
102
RTVSPropertyOp24
 70
     1
102
RTVSPropertyOp25
 70
     1
102
RTVSPropertyOp26
 70
     1
102
RTVSPropertyOp27
 70
     1
  0
XRECORD
  5
FA
102
{ACAD_REACTORS
330
F9
102
}
330
F9
100
AcDbXrecord
280
     1
102
RTVSPropertyOp0
 70
     1
102
RTVSPropertyOp1
 70
     1
102
RTVSPropertyOp2
 70
     1
102
RTVSPropertyOp3
 70
     1
102
RTVSPropertyOp4
 70
     1
102
RTVSPropertyOp5
 70
     1
102
RTVSPropertyOp6
 70
     1
102
RTVSPropertyOp7
 70
     1
102
RTVSPropertyOp8
 70
     1
102
RTVSPropertyOp9
 70
     1
102
RTVSPropertyOp10
 70
     1
102
RTVSPropertyOp11
 70
     1
102
RTVSPropertyOp12
 70
     1
102
RTVSPropertyOp13
 70
     1
102
RTVSPropertyOp14
 70
     1
102
RTVSPropertyOp15
 70
     1
102
RTVSPropertyOp16
 70
     1
102
RTVSPropertyOp17
 70
     1
102
RTVSPropertyOp18
 70
     1
102
RTVSPropertyOp19
 70
     1
102
RTVSPropertyOp20
 70
     1
102
RTVSPropertyOp21
 70
     1
102
RTVSPropertyOp22
 70
     1
102
RTVSPropertyOp23
 70
     1
102
RTVSPropertyOp24
 70
     1
102
RTVSPropertyOp25
 70
     1
102
RTVSPropertyOp26
 70
     1
102
RTVSPropertyOp27
 70
     1
  0
XRECORD
  5
FC
102
{ACAD_REACTORS
330
FB
102
}
330
FB
100
AcDbXrecord
280
     1
102
RTVSPropertyOp0
 70
     1
102
RTVSPropertyOp1
 70
     1
102
RTVSPropertyOp2
 70
     1
102
RTVSPropertyOp3
 70
     1
102
RTVSPropertyOp4
 70
     1
102
RTVSPropertyOp5
 70
     1
102
RTVSPropertyOp6
 70
     1
102
RTVSPropertyOp7
 70
     1
102
RTVSPropertyOp8
 70
     1
102
RTVSPropertyOp9
 70
     1
102
RTVSPropertyOp10
 70
     1
102
RTVSPropertyOp11
 70
     1
102
RTVSPropertyOp12
 70
     1
102
RTVSPropertyOp13
 70
     1
102
RTVSPropertyOp14
 70
     1
102
RTVSPropertyOp15
 70
     1
102
RTVSPropertyOp16
 70
     1
102
RTVSPropertyOp17
 70
     1
102
RTVSPropertyOp18
 70
     1
102
RTVSPropertyOp19
 70
     1
102
RTVSPropertyOp20
 70
     1
102
RTVSPropertyOp21
 70
     1
102
RTVSPropertyOp22
 70
     1
102
RTVSPropertyOp23
 70
     1
102
RTVSPropertyOp24
 70
     1
102
RTVSPropertyOp25
 70
     1
102
RTVSPropertyOp26
 70
     1
102
RTVSPropertyOp27
 70
     1
  0
XRECORD
  5
104
102
{ACAD_REACTORS
330
103
102
}
330
103
100
AcDbXrecord
280
     1
102
RTVSPropertyOp0
 70
     1
102
RTVSPropertyOp1
 70
     1
102
RTVSPropertyOp2
 70
     1
102
RTVSPropertyOp3
 70
     1
102
RTVSPropertyOp4
 70
     1
102
RTVSPropertyOp5
 70
     1
102
RTVSPropertyOp6
 70
     1
102
RTVSPropertyOp7
 70
     1
102
RTVSPropertyOp8
 70
     1
102
RTVSPropertyOp9
 70
     1
102
RTVSPropertyOp10
 70
     1
102
RTVSPropertyOp11
 70
     1
102
RTVSPropertyOp12
 70
     1
102
RTVSPropertyOp13
 70
     1
102
RTVSPropertyOp14
 70
     1
102
RTVSPropertyOp15
 70
     1
102
RTVSPropertyOp16
 70
     1
102
RTVSPropertyOp17
 70
     1
102
RTVSPropertyOp18
 70
     1
102
RTVSPropertyOp19
 70
     1
102
RTVSPropertyOp20
 70
     1
102
RTVSPropertyOp21
 70
     1
102
RTVSPropertyOp22
 70
     1
102
RTVSPropertyOp23
 70
     1
102
RTVSPropertyOp24
 70
     1
102
RTVSPropertyOp25
 70
     1
102
RTVSPropertyOp26
 70
     1
102
RTVSPropertyOp27
 70
     1
  0
XRECORD
  5
E8
102
{ACAD_REACTORS
330
E7
102
}
330
E7
100
AcDbXrecord
280
     1
102
RTVSPropertyOp0
 70
     1
102
RTVSPropertyOp1
 70
     1
102
RTVSPropertyOp2
 70
     1
102
RTVSPropertyOp3
 70
     1
102
RTVSPropertyOp4
 70
     1
102
RTVSPropertyOp5
 70
     1
102
RTVSPropertyOp6
 70
     1
102
RTVSPropertyOp7
 70
     1
102
RTVSPropertyOp8
 70
     1
102
RTVSPropertyOp9
 70
     1
102
RTVSPropertyOp10
 70
     1
102
RTVSPropertyOp11
 70
     1
102
RTVSPropertyOp12
 70
     1
102
RTVSPropertyOp13
 70
     1
102
RTVSPropertyOp14
 70
     1
102
RTVSPropertyOp15
 70
     1
102
RTVSPropertyOp16
 70
     1
102
RTVSPropertyOp17
 70
     1
102
RTVSPropertyOp18
 70
     1
102
RTVSPropertyOp19
 70
     1
102
RTVSPropertyOp20
 70
     1
102
RTVSPropertyOp21
 70
     1
102
RTVSPropertyOp22
 70
     1
102
RTVSPropertyOp23
 70
     1
102
RTVSPropertyOp24
 70
     1
102
RTVSPropertyOp25
 70
     1
102
RTVSPropertyOp26
 70
     1
102
RTVSPropertyOp27
 70
     1
  0
XRECORD
  5
EA
102
{ACAD_REACTORS
330
E9
102
}
330
E9
100
AcDbXrecord
280
     1
102
RTVSPropertyOp0
 70
     1
102
RTVSPropertyOp1
 70
     1
102
RTVSPropertyOp2
 70
     1
102
RTVSPropertyOp3
 70
     1
102
RTVSPropertyOp4
 70
     1
102
RTVSPropertyOp5
 70
     1
102
RTVSPropertyOp6
 70
     1
102
RTVSPropertyOp7
 70
     1
102
RTVSPropertyOp8
 70
     1
102
RTVSPropertyOp9
 70
     1
102
RTVSPropertyOp10
 70
     1
102
RTVSPropertyOp11
 70
     1
102
RTVSPropertyOp12
 70
     1
102
RTVSPropertyOp13
 70
     1
102
RTVSPropertyOp14
 70
     1
102
RTVSPropertyOp15
 70
     1
102
RTVSPropertyOp16
 70
     1
102
RTVSPropertyOp17
 70
     1
102
RTVSPropertyOp18
 70
     1
102
RTVSPropertyOp19
 70
     1
102
RTVSPropertyOp20
 70
     1
102
RTVSPropertyOp21
 70
     1
102
RTVSPropertyOp22
 70
     1
102
RTVSPropertyOp23
 70
     1
102
RTVSPropertyOp24
 70
     1
102
RTVSPropertyOp25
 70
     1
102
RTVSPropertyOp26
 70
     1
102
RTVSPropertyOp27
 70
     1
  0
XRECORD
  5
EC
102
{ACAD_REACTORS
330
EB
102
}
330
EB
100
AcDbXrecord
280
     1
102
RTVSPropertyOp0
 70
     1
102
RTVSPropertyOp1
 70
     1
102
RTVSPropertyOp2
 70
     1
102
RTVSPropertyOp3
 70
     1
102
RTVSPropertyOp4
 70
     1
102
RTVSPropertyOp5
 70
     1
102
RTVSPropertyOp6
 70
     1
102
RTVSPropertyOp7
 70
     1
102
RTVSPropertyOp8
 70
     1
102
RTVSPropertyOp9
 70
     1
102
RTVSPropertyOp10
 70
     1
102
RTVSPropertyOp11
 70
     1
102
RTVSPropertyOp12
 70
     1
102
RTVSPropertyOp13
 70
     1
102
RTVSPropertyOp14
 70
     1
102
RTVSPropertyOp15
 70
     1
102
RTVSPropertyOp16
 70
     1
102
RTVSPropertyOp17
 70
     1
102
RTVSPropertyOp18
 70
     1
102
RTVSPropertyOp19
 70
     1
102
RTVSPropertyOp20
 70
     1
102
RTVSPropertyOp21
 70
     1
102
RTVSPropertyOp22
 70
     1
102
RTVSPropertyOp23
 70
     1
102
RTVSPropertyOp24
 70
     1
102
RTVSPropertyOp25
 70
     1
102
RTVSPropertyOp26
 70
     1
102
RTVSPropertyOp27
 70
     1
  0
XRECORD
  5
EE
102
{ACAD_REACTORS
330
ED
102
}
330
ED
100
AcDbXrecord
280
     1
102
RTVSPropertyOp0
 70
     1
102
RTVSPropertyOp1
 70
     1
102
RTVSPropertyOp2
 70
     1
102
RTVSPropertyOp3
 70
     1
102
RTVSPropertyOp4
 70
     1
102
RTVSPropertyOp5
 70
     1
102
RTVSPropertyOp6
 70
     1
102
RTVSPropertyOp7
 70
     1
102
RTVSPropertyOp8
 70
     1
102
RTVSPropertyOp9
 70
     1
102
RTVSPropertyOp10
 70
     1
102
RTVSPropertyOp11
 70
     1
102
RTVSPropertyOp12
 70
     1
102
RTVSPropertyOp13
 70
     1
102
RTVSPropertyOp14
 70
     1
102
RTVSPropertyOp15
 70
     1
102
RTVSPropertyOp16
 70
     1
102
RTVSPropertyOp17
 70
     1
102
RTVSPropertyOp18
 70
     1
102
RTVSPropertyOp19
 70
     1
102
RTVSPropertyOp20
 70
     1
102
RTVSPropertyOp21
 70
     1
102
RTVSPropertyOp22
 70
     1
102
RTVSPropertyOp23
 70
     1
102
RTVSPropertyOp24
 70
     1
102
RTVSPropertyOp25
 70
     1
102
RTVSPropertyOp26
 70
     1
102
RTVSPropertyOp27
 70
     1
  0
XRECORD
  5
102
102
{ACAD_REACTORS
330
101
102
}
330
101
100
AcDbXrecord
280
     1
102
RTVSPropertyOp0
 70
     1
102
RTVSPropertyOp1
 70
     1
102
RTVSPropertyOp2
 70
     1
102
RTVSPropertyOp3
 70
     1
102
RTVSPropertyOp4
 70
     1
102
RTVSPropertyOp5
 70
     1
102
RTVSPropertyOp6
 70
     1
102
RTVSPropertyOp7
 70
     1
102
RTVSPropertyOp8
 70
     1
102
RTVSPropertyOp9
 70
     1
102
RTVSPropertyOp10
 70
     1
102
RTVSPropertyOp11
 70
     1
102
RTVSPropertyOp12
 70
     1
102
RTVSPropertyOp13
 70
     1
102
RTVSPropertyOp14
 70
     1
102
RTVSPropertyOp15
 70
     1
102
RTVSPropertyOp16
 70
     1
102
RTVSPropertyOp17
 70
     1
102
RTVSPropertyOp18
 70
     1
102
RTVSPropertyOp19
 70
     1
102
RTVSPropertyOp20
 70
     1
102
RTVSPropertyOp21
 70
     1
102
RTVSPropertyOp22
 70
     1
102
RTVSPropertyOp23
 70
     1
102
RTVSPropertyOp24
 70
     1
102
RTVSPropertyOp25
 70
     1
102
RTVSPropertyOp26
 70
     1
102
RTVSPropertyOp27
 70
     1
  0
XRECORD
  5
F8
102
{ACAD_REACTORS
330
F7
102
}
330
F7
100
AcDbXrecord
280
     1
102
RTVSPropertyOp0
 70
     1
102
RTVSPropertyOp1
 70
     1
102
RTVSPropertyOp2
 70
     1
102
RTVSPropertyOp3
 70
     1
102
RTVSPropertyOp4
 70
     1
102
RTVSPropertyOp5
 70
     1
102
RTVSPropertyOp6
 70
     1
102
RTVSPropertyOp7
 70
     1
102
RTVSPropertyOp8
 70
     1
102
RTVSPropertyOp9
 70
     1
102
RTVSPropertyOp10
 70
     1
102
RTVSPropertyOp11
 70
     1
102
RTVSPropertyOp12
 70
     1
102
RTVSPropertyOp13
 70
     1
102
RTVSPropertyOp14
 70
     1
102
RTVSPropertyOp15
 70
     1
102
RTVSPropertyOp16
 70
     1
102
RTVSPropertyOp17
 70
     1
102
RTVSPropertyOp18
 70
     1
102
RTVSPropertyOp19
 70
     1
102
RTVSPropertyOp20
 70
     1
102
RTVSPropertyOp21
 70
     1
102
RTVSPropertyOp22
 70
     1
102
RTVSPropertyOp23
 70
     1
102
RTVSPropertyOp24
 70
     1
102
RTVSPropertyOp25
 70
     1
102
RTVSPropertyOp26
 70
     1
102
RTVSPropertyOp27
 70
     1
  0
XRECORD
  5
100
102
{ACAD_REACTORS
330
FF
102
}
330
FF
100
AcDbXrecord
280
     1
102
RTVSPropertyOp0
 70
     1
102
RTVSPropertyOp1
 70
     1
102
RTVSPropertyOp2
 70
     1
102
RTVSPropertyOp3
 70
     1
102
RTVSPropertyOp4
 70
     1
102
RTVSPropertyOp5
 70
     1
102
RTVSPropertyOp6
 70
     1
102
RTVSPropertyOp7
 70
     1
102
RTVSPropertyOp8
 70
     1
102
RTVSPropertyOp9
 70
     1
102
RTVSPropertyOp10
 70
     1
102
RTVSPropertyOp11
 70
     1
102
RTVSPropertyOp12
 70
     1
102
RTVSPropertyOp13
 70
     1
102
RTVSPropertyOp14
 70
     1
102
RTVSPropertyOp15
 70
     1
102
RTVSPropertyOp16
 70
     1
102
RTVSPropertyOp17
 70
     1
102
RTVSPropertyOp18
 70
     1
102
RTVSPropertyOp19
 70
     1
102
RTVSPropertyOp20
 70
     1
102
RTVSPropertyOp21
 70
     1
102
RTVSPropertyOp22
 70
     1
102
RTVSPropertyOp23
 70
     1
102
RTVSPropertyOp24
 70
     1
102
RTVSPropertyOp25
 70
     1
102
RTVSPropertyOp26
 70
     1
102
RTVSPropertyOp27
 70
     1
  0
ENDSEC
  0
EOF
