  0
SECTION
  2
HEADER
  9
$ACADVER
  1
AC1014
  9
$ACADMAINTVER
 70
     9
  9
$DWGCODEPAGE
  3
ANSI_1250
  9
$INSBASE
 10
0.0
 20
0.0
 30
0.0
  9
$EXTMIN
 10
-19.0226
 20
-24.3479
 30
0.0
  9
$EXTMAX
 10
19.0226
 20
24.3476
 30
0.0
  9
$LIMMIN
 10
0.0
 20
0.0
  9
$LIMMAX
 10
12.0
 20
9.0
  9
$ORTHOMODE
 70
     0
  9
$REGENMODE
 70
     1
  9
$FILLMODE
 70
     1
  9
$QTEXTMODE
 70
     0
  9
$MIRRTEXT
 70
     1
  9
$DRAGMODE
 70
     2
  9
$LTSCALE
 40
1.0
  9
$OSMODE
 70
    37
  9
$ATTMODE
 70
     1
  9
$TEXTSIZE
 40
0.2
  9
$TRACEWID
 40
0.05
  9
$TEXTSTYLE
  7
STANDARD
  9
$CLAYER
  8
0
  9
$CELTYPE
  6
BYLAYER
  9
$CECOLOR
 62
   256
  9
$CELTSCALE
 40
1.0
  9
$DELOBJ
 70
     1
  9
$DISPSILH
 70
     0
  9
$DIMSCALE
 40
1.0
  9
$DIMASZ
 40
0.18
  9
$DIMEXO
 40
0.0625
  9
$DIMDLI
 40
0.38
  9
$DIMRND
 40
0.0
  9
$DIMDLE
 40
0.0
  9
$DIMEXE
 40
0.18
  9
$DIMTP
 40
0.0
  9
$DIMTM
 40
0.0
  9
$DIMTXT
 40
0.18
  9
$DIMCEN
 40
0.09
  9
$DIMTSZ
 40
0.0
  9
$DIMTOL
 70
     0
  9
$DIMLIM
 70
     0
  9
$DIMTIH
 70
     1
  9
$DIMTOH
 70
     1
  9
$DIMSE1
 70
     0
  9
$DIMSE2
 70
     0
  9
$DIMTAD
 70
     0
  9
$DIMZIN
 70
     0
  9
$DIMBLK
  1

  9
$DIMASO
 70
     1
  9
$DIMSHO
 70
     1
  9
$DIMPOST
  1

  9
$DIMAPOST
  1

  9
$DIMALT
 70
     0
  9
$DIMALTD
 70
     2
  9
$DIMALTF
 40
25.4
  9
$DIMLFAC
 40
1.0
  9
$DIMTOFL
 70
     0
  9
$DIMTVP
 40
0.0
  9
$DIMTIX
 70
     0
  9
$DIMSOXD
 70
     0
  9
$DIMSAH
 70
     0
  9
$DIMBLK1
  1

  9
$DIMBLK2
  1

  9
$DIMSTYLE
  2
STANDARD
  9
$DIMCLRD
 70
     0
  9
$DIMCLRE
 70
     0
  9
$DIMCLRT
 70
     0
  9
$DIMTFAC
 40
1.0
  9
$DIMGAP
 40
0.09
  9
$DIMJUST
 70
     0
  9
$DIMSD1
 70
     0
  9
$DIMSD2
 70
     0
  9
$DIMTOLJ
 70
     1
  9
$DIMTZIN
 70
     0
  9
$DIMALTZ
 70
     0
  9
$DIMALTTZ
 70
     0
  9
$DIMFIT
 70
     3
  9
$DIMUPT
 70
     0
  9
$DIMUNIT
 70
     2
  9
$DIMDEC
 70
     4
  9
$DIMTDEC
 70
     4
  9
$DIMALTU
 70
     2
  9
$DIMALTTD
 70
     2
  9
$DIMTXSTY
  7
STANDARD
  9
$DIMAUNIT
 70
     0
  9
$LUNITS
 70
     2
  9
$LUPREC
 70
     4
  9
$SKETCHINC
 40
0.1
  9
$FILLETRAD
 40
0.5
  9
$AUNITS
 70
     0
  9
$AUPREC
 70
     0
  9
$MENU
  1
.
  9
$ELEVATION
 40
0.0
  9
$PELEVATION
 40
0.0
  9
$THICKNESS
 40
0.0
  9
$LIMCHECK
 70
     0
  9
$CHAMFERA
 40
0.5
  9
$CHAMFERB
 40
0.5
  9
$CHAMFERC
 40
1.0
  9
$CHAMFERD
 40
0.0
  9
$SKPOLY
 70
     0
  9
$TDCREATE
 40
2456266.377585868
  9
$TDUPDATE
 40
2456266.37758588
  9
$TDINDWG
 40
0.0000000116
  9
$TDUSRTIMER
 40
0.0000000116
  9
$USRTIMER
 70
     1
  9
$ANGBASE
 50
0.0
  9
$ANGDIR
 70
     0
  9
$PDMODE
 70
     0
  9
$PDSIZE
 40
0.0
  9
$PLINEWID
 40
0.0
  9
$COORDS
 70
     1
  9
$SPLFRAME
 70
     0
  9
$SPLINETYPE
 70
     6
  9
$SPLINESEGS
 70
     8
  9
$ATTDIA
 70
     0
  9
$ATTREQ
 70
     1
  9
$HANDLING
 70
     1
  9
$HANDSEED
  5
DA
  9
$SURFTAB1
 70
     6
  9
$SURFTAB2
 70
     6
  9
$SURFTYPE
 70
     6
  9
$SURFU
 70
     6
  9
$SURFV
 70
     6
  9
$UCSNAME
  2

  9
$UCSORG
 10
0.0
 20
0.0
 30
0.0
  9
$UCSXDIR
 10
1.0
 20
0.0
 30
0.0
  9
$UCSYDIR
 10
0.0
 20
1.0
 30
0.0
  9
$PUCSNAME
  2

  9
$PUCSORG
 10
0.0
 20
0.0
 30
0.0
  9
$PUCSXDIR
 10
1.0
 20
0.0
 30
0.0
  9
$PUCSYDIR
 10
0.0
 20
1.0
 30
0.0
  9
$USERI1
 70
     0
  9
$USERI2
 70
     0
  9
$USERI3
 70
     0
  9
$USERI4
 70
     0
  9
$USERI5
 70
     0
  9
$USERR1
 40
0.0
  9
$USERR2
 40
0.0
  9
$USERR3
 40
0.0
  9
$USERR4
 40
0.0
  9
$USERR5
 40
0.0
  9
$WORLDVIEW
 70
     1
  9
$SHADEDGE
 70
     3
  9
$SHADEDIF
 70
    70
  9
$TILEMODE
 70
     1
  9
$MAXACTVP
 70
    64
  9
$PINSBASE
 10
0.0
 20
0.0
 30
0.0
  9
$PLIMCHECK
 70
     0
  9
$PEXTMIN
 10
1.000000000000000E+20
 20
1.000000000000000E+20
 30
1.000000000000000E+20
  9
$PEXTMAX
 10
-1.000000000000000E+20
 20
-1.000000000000000E+20
 30
-1.000000000000000E+20
  9
$PLIMMIN
 10
0.0
 20
0.0
  9
$PLIMMAX
 10
12.0
 20
9.0
  9
$UNITMODE
 70
     0
  9
$VISRETAIN
 70
     1
  9
$PLINEGEN
 70
     0
  9
$PSLTSCALE
 70
     1
  9
$TREEDEPTH
 70
  3020
  9
$PICKSTYLE
 70
     1
  9
$CMLSTYLE
  2
STANDARD
  9
$CMLJUST
 70
     0
  9
$CMLSCALE
 40
1.0
  9
$PROXYGRAPHICS
 70
     1
  9
$MEASUREMENT
 70
     0
  0
ENDSEC
  0
SECTION
  2
CLASSES
  0
CLASS
  1
ACDBDICTIONARYWDFLT
  2
AcDbDictionaryWithDefault
  3
ObjectDBX Classes
 90
        0
280
     0
281
     0
  0
CLASS
  1
VISUALSTYLE
  2
AcDbVisualStyle
  3
ObjectDBX Classes
 90
     4095
280
     0
281
     0
  0
CLASS
  1
MATERIAL
  2
AcDbMaterial
  3
ObjectDBX Classes
 90
     1153
280
     0
281
     0
  0
CLASS
  1
DICTIONARYVAR
  2
AcDbDictionaryVar
  3
ObjectDBX Classes
 90
        0
280
     0
281
     0
  0
CLASS
  1
XRECORD
  2
AcDbXrecord
  3
AutoCAD 2000
 90
        0
280
     0
281
     0
  0
CLASS
  1
LWPOLYLINE
  2
AcDbPolyline
  3
AutoCAD 2000
 90
        0
280
     0
281
     1
  0
CLASS
  1
HATCH
  2
AcDbHatch
  3
AutoCAD 2000
 90
        0
280
     0
281
     1
  0
CLASS
  1
ACDBPLACEHOLDER
  2
AcDbPlaceHolder
  3
ObjectDBX Classes
 90
        0
280
     0
281
     0
  0
CLASS
  1
LAYOUT
  2
AcDbLayout
  3
ObjectDBX Classes
 90
        0
280
     0
281
     0
  0
ENDSEC
  0
SECTION
  2
TABLES
  0
TABLE
  2
VPORT
  5
8
330
0
100
AcDbSymbolTable
 70
     1
  0
VPORT
  5
29
330
8
100
AcDbSymbolTableRecord
100
AcDbViewportTableRecord
  2
*ACTIVE
 70
     0
 10
0.0
 20
0.0
 11
1.0
 21
1.0
 12
10.42990654205607
 22
4.5
 13
0.0
 23
0.0
 14
0.5
 24
0.5
 15
0.5
 25
0.5
 16
0.0
 26
0.0
 36
1.0
 17
0.0
 27
0.0
 37
0.0
 40
9.0
 41
1.972972972850329
 42
50.0
 43
0.0
 44
0.0
 50
0.0
 51
0.0
 71
     0
 72
   100
 73
     1
 74
     3
 75
     0
 76
     0
 77
     0
 78
     0
  0
ENDTAB
  0
TABLE
  2
LTYPE
  5
5
330
0
100
AcDbSymbolTable
 70
     3
  0
LTYPE
  5
14
330
5
100
AcDbSymbolTableRecord
100
AcDbLinetypeTableRecord
  2
BYBLOCK
 70
     0
  3

 72
    65
 73
     0
 40
0.0
  0
LTYPE
  5
15
330
5
100
AcDbSymbolTableRecord
100
AcDbLinetypeTableRecord
  2
BYLAYER
 70
     0
  3

 72
    65
 73
     0
 40
0.0
  0
LTYPE
  5
16
330
5
100
AcDbSymbolTableRecord
100
AcDbLinetypeTableRecord
  2
CONTINUOUS
 70
     0
  3
Solid line
 72
    65
 73
     0
 40
0.0
  0
LTYPE
  5
42
330
5
100
AcDbSymbolTableRecord
100
AcDbLinetypeTableRecord
  2
NEW_LINE1
 70
     0
  3

 72
    65
 73
     4
 40
1.2
 49
0.5
 74
     4
 75
     0
340
0
 46
1.0
 50
0.0
 44
0.0
 45
0.0
 49
-0.3
 74
     4
 75
     0
340
0
 46
1.0
 50
0.0
 44
0.0
 45
0.0
 49
0.1
 74
     4
 75
     0
340
0
 46
1.0
 50
0.0
 44
0.0
 45
0.0
 49
-0.3
 74
     4
 75
     0
340
0
 46
1.0
 50
0.0
 44
0.0
 45
0.0
  0
LTYPE
  5
AE
330
5
100
AcDbSymbolTableRecord
100
AcDbLinetypeTableRecord
  2
NEW_LINE2
 70
     0
  3

 72
    65
 73
     4
 40
1.2
 49
0.5
 74
     4
 75
     0
340
0
 46
1.0
 50
0.0
 44
0.0
 45
0.0
 49
-0.3
 74
     4
 75
     0
340
0
 46
1.0
 50
0.0
 44
0.0
 45
0.0
 49
0.1
 74
     4
 75
     0
340
0
 46
1.0
 50
0.0
 44
0.0
 45
0.0
 49
-0.3
 74
     4
 75
     0
340
0
 46
1.0
 50
0.0
 44
0.0
 45
0.0
  0
ENDTAB
  0
TABLE
  2
LAYER
  5
2
330
0
100
AcDbSymbolTable
 70
     2
  0
LAYER
  5
10
330
2
100
AcDbSymbolTableRecord
100
AcDbLayerTableRecord
  2
0
 70
     0
 62
     7
  6
CONTINUOUS
  0
LAYER
  5
40
330
2
100
AcDbSymbolTableRecord
100
AcDbLayerTableRecord
  2
VRSTVA_1
 70
     0
 62
     7
  6
CONTINUOUS
  0
ENDTAB
  0
TABLE
  2
STYLE
  5
3
330
0
100
AcDbSymbolTable
 70
     1
  0
STYLE
  5
11
330
3
100
AcDbSymbolTableRecord
100
AcDbTextStyleTableRecord
  2
STANDARD
 70
     0
 40
0.0
 41
1.0
 50
0.0
 71
     0
 42
0.2
  3
txt
  4

  0
ENDTAB
  0
TABLE
  2
VIEW
  5
6
330
0
100
AcDbSymbolTable
 70
     0
  0
ENDTAB
  0
TABLE
  2
UCS
  5
7
330
0
100
AcDbSymbolTable
 70
     0
  0
ENDTAB
  0
TABLE
  2
APPID
  5
9
330
0
100
AcDbSymbolTable
 70
     2
  0
APPID
  5
12
330
9
100
AcDbSymbolTableRecord
100
AcDbRegAppTableRecord
  2
ACAD
 70
     0
  0
APPID
  5
3F
330
9
100
AcDbSymbolTableRecord
100
AcDbRegAppTableRecord
  2
ODA
 70
     0
  0
ENDTAB
  0
TABLE
  2
DIMSTYLE
  5
A
330
0
100
AcDbSymbolTable
 70
     1
  0
DIMSTYLE
105
27
330
A
100
AcDbSymbolTableRecord
100
AcDbDimStyleTableRecord
  2
STANDARD
 70
     0
  3

  4

  5

  6

  7

 40
1.0
 41
0.18
 42
0.0625
 43
0.38
 44
0.18
 45
0.0
 46
0.0
 47
0.0
 48
0.0
140
0.18
141
0.09
142
0.0
143
25.4
144
1.0
145
0.0
146
1.0
147
0.09
 71
     0
 72
     0
 73
     1
 74
     1
 75
     0
 76
     0
 77
     0
 78
     0
170
     0
171
     2
172
     0
173
     0
174
     0
175
     0
176
     0
177
     0
178
     0
270
     2
271
     4
272
     4
273
     2
274
     2
340
11
275
     0
280
     0
281
     0
282
     0
283
     1
284
     0
285
     0
286
     0
287
     3
288
     0
  0
ENDTAB
  0
TABLE
  2
BLOCK_RECORD
  5
1
330
0
100
AcDbSymbolTable
 70
     1
  0
BLOCK_RECORD
  5
1F
330
1
100
AcDbSymbolTableRecord
100
AcDbBlockTableRecord
  2
*MODEL_SPACE
  0
BLOCK_RECORD
  5
1B
330
1
100
AcDbSymbolTableRecord
100
AcDbBlockTableRecord
  2
*PAPER_SPACE
  0
ENDTAB
  0
ENDSEC
  0
SECTION
  2
BLOCKS
  0
BLOCK
  5
20
330
1F
100
AcDbEntity
  8
0
100
AcDbBlockBegin
  2
*MODEL_SPACE
 70
     0
 10
0.0
 20
0.0
 30
0.0
  3
*MODEL_SPACE
  1

  0
ENDBLK
  5
21
330
1F
100
AcDbEntity
  8
0
100
AcDbBlockEnd
  0
BLOCK
  5
1C
330
1B
100
AcDbEntity
 67
     1
  8
0
100
AcDbBlockBegin
  2
*PAPER_SPACE
 70
     0
 10
0.0
 20
0.0
 30
0.0
  3
*PAPER_SPACE
  1

  0
ENDBLK
  5
1D
330
1B
100
AcDbEntity
 67
     1
  8
0
100
AcDbBlockEnd
  0
ENDSEC
  0
SECTION
  2
ENTITIES
  0
SPLINE
  5
41
330
1F
100
AcDbEntity
  8
VRSTVA_1
  6
NEW_LINE1
 62
   250
100
AcDbSpline
210
0.0
220
0.0
230
1.0
 70
    24
 71
     3
 72
     8
 73
     4
 74
     0
 42
0.0000000001
 43
0.0000000001
 40
0.0
 40
0.0
 40
0.0
 40
0.0
 40
1.0
 40
1.0
 40
1.0
 40
1.0
 10
-12.1311
 20
13.4024
 30
0.0
 10
-12.1311
 20
13.4024
 30
0.0
 10
10.9839
 20
13.4024
 30
0.0
 10
10.9839
 20
13.4024
 30
0.0
  0
SPLINE
  5
43
330
1F
100
AcDbEntity
  8
VRSTVA_1
 62
   250
100
AcDbSpline
210
0.0
220
0.0
230
1.0
 70
    11
 71
     3
 72
    92
 73
    88
 74
     0
 42
0.0000000001
 43
0.0000000001
 40
0.0
 40
0.0
 40
0.0
 40
0.0
 40
0.0434782608695652
 40
0.0434782608695652
 40
0.0434782608695652
 40
0.0434782608695652
 40
0.0869565217391304
 40
0.0869565217391304
 40
0.0869565217391304
 40
0.0869565217391304
 40
0.1304347826086956
 40
0.1304347826086956
 40
0.1304347826086956
 40
0.1304347826086956
 40
0.1739130434782609
 40
0.1739130434782609
 40
0.1739130434782609
 40
0.1739130434782609
 40
0.2173913043478261
 40
0.2173913043478261
 40
0.2173913043478261
 40
0.2173913043478261
 40
0.2608695652173913
 40
0.2608695652173913
 40
0.2608695652173913
 40
0.2608695652173913
 40
0.3043478260869565
 40
0.3043478260869565
 40
0.3043478260869565
 40
0.3043478260869565
 40
0.3478260869565217
 40
0.3478260869565217
 40
0.3478260869565217
 40
0.3478260869565217
 40
0.391304347826087
 40
0.391304347826087
 40
0.391304347826087
 40
0.391304347826087
 40
0.4347826086956522
 40
0.4347826086956522
 40
0.4347826086956522
 40
0.4347826086956522
 40
0.4782608695652174
 40
0.4782608695652174
 40
0.4782608695652174
 40
0.4782608695652174
 40
0.5217391304347826
 40
0.5217391304347826
 40
0.5217391304347826
 40
0.5217391304347826
 40
0.5652173913043478
 40
0.5652173913043478
 40
0.5652173913043478
 40
0.5652173913043478
 40
0.6086956521739131
 40
0.6086956521739131
 40
0.6086956521739131
 40
0.6086956521739131
 40
0.6521739130434783
 40
0.6521739130434783
 40
0.6521739130434783
 40
0.6521739130434783
 40
0.6956521739130435
 40
0.6956521739130435
 40
0.6956521739130435
 40
0.6956521739130435
 40
0.7391304347826086
 40
0.7391304347826086
 40
0.7391304347826086
 40
0.7391304347826086
 40
0.782608695652174
 40
0.782608695652174
 40
0.782608695652174
 40
0.782608695652174
 40
0.8260869565217391
 40
0.8260869565217391
 40
0.8260869565217391
 40
0.8260869565217391
 40
0.8695652173913043
 40
0.8695652173913043
 40
0.8695652173913043
 40
0.8695652173913043
 40
0.9130434782608695
 40
0.9130434782608695
 40
0.9130434782608695
 40
0.9130434782608695
 40
1.0
 40
1.0
 40
1.0
 40
1.0
 10
17.0159
 20
-1.4268
 30
0.0
 10
17.0159
 20
-1.4268
 30
0.0
 10
16.9886
 20
-1.1011
 30
0.0
 10
16.9886
 20
-1.1011
 30
0.0
 10
16.9886
 20
-1.1011
 30
0.0
 10
17.1474
 20
-1.0772
 30
0.0
 10
17.2662
 20
-1.0214
 30
0.0
 10
17.3463
 20
-0.9339
 30
0.0
 10
17.3463
 20
-0.9339
 30
0.0
 10
17.4264
 20
-0.8457
 30
0.0
 10
17.4664
 20
-0.74
 30
0.0
 10
17.4665
 20
-0.6159
 30
0.0
 10
17.4665
 20
-0.6159
 30
0.0
 10
17.4666
 20
-0.4666
 30
0.0
 10
17.4104
 20
-0.34
 30
0.0
 10
17.2982
 20
-0.2371
 30
0.0
 10
17.2982
 20
-0.2371
 30
0.0
 10
17.1854
 20
-0.1335
 30
0.0
 10
17.0361
 20
-0.0815
 30
0.0
 10
16.8503
 20
-0.0813
 30
0.0
 10
16.8503
 20
-0.0813
 30
0.0
 10
16.6733
 20
-0.0812
 30
0.0
 10
16.5339
 20
-0.1304
 30
0.0
 10
16.4315
 20
-0.2297
 30
0.0
 10
16.4315
 20
-0.2297
 30
0.0
 10
16.3291
 20
-0.329
 30
0.0
 10
16.2778
 20
-0.4589
 30
0.0
 10
16.2777
 20
-0.62
 30
0.0
 10
16.2777
 20
-0.62
 30
0.0
 10
16.2776
 20
-0.7199
 30
0.0
 10
16.3004
 20
-0.8099
 30
0.0
 10
16.3456
 20
-0.8905
 30
0.0
 10
16.3456
 20
-0.8905
 30
0.0
 10
16.3907
 20
-0.9711
 30
0.0
 10
16.4495
 20
-1.034
 30
0.0
 10
16.5218
 20
-1.08
 30
0.0
 10
16.5218
 20
-1.08
 30
0.0
 10
16.5218
 20
-1.08
 30
0.0
 10
16.4838
 20
-1.371
 30
0.0
 10
16.4838
 20
-1.371
 30
0.0
 10
16.4838
 20
-1.371
 30
0.0
 10
16.4838
 20
-1.371
 30
0.0
 10
15.1871
 20
-1.125
 30
0.0
 10
15.1871
 20
-1.125
 30
0.0
 10
15.1871
 20
-1.125
 30
0.0
 10
15.1871
 20
-1.125
 30
0.0
 10
15.1884
 20
0.1309
 30
0.0
 10
15.1884
 20
0.1309
 30
0.0
 10
15.1884
 20
0.1309
 30
0.0
 10
15.1884
 20
0.1309
 30
0.0
 10
15.4847
 20
0.1306
 30
0.0
 10
15.4847
 20
0.1306
 30
0.0
 10
15.4847
 20
0.1306
 30
0.0
 10
15.4847
 20
0.1306
 30
0.0
 10
15.4836
 20
-0.8772
 30
0.0
 10
15.4836
 20
-0.8772
 30
0.0
 10
15.4836
 20
-0.8772
 30
0.0
 10
15.4836
 20
-0.8772
 30
0.0
 10
16.162
 20
-1.0143
 30
0.0
 10
16.162
 20
-1.0143
 30
0.0
 10
16.162
 20
-1.0143
 30
0.0
 10
16.0563
 20
-0.8625
 30
0.0
 10
16.0036
 20
-0.7032
 30
0.0
 10
16.0038
 20
-0.5368
 30
0.0
 10
16.0038
 20
-0.5368
 30
0.0
 10
16.004
 20
-0.3163
 30
0.0
 10
16.0806
 20
-0.1306
 30
0.0
 10
16.2336
 20
0.021
 30
0.0
 10
16.2336
 20
0.021
 30
0.0
 10
16.3866
 20
0.1725
 30
0.0
 10
16.5831
 20
0.2481
 30
0.0
 10
16.823
 20
0.2479
 30
0.0
 10
16.823
 20
0.2479
 30
0.0
 10
17.0517
 20
0.2476
 30
0.0
 10
17.2492
 20
0.1804
 30
0.0
 10
17.4155
 20
0.0474
 30
0.0
 10
17.4155
 20
0.0474
 30
0.0
 10
17.6193
 20
-0.1151
 30
0.0
 10
17.7214
 20
-0.3362
 30
0.0
 10
17.7211
 20
-0.6161
 30
0.0
 10
17.7211
 20
-0.6161
 30
0.0
 10
17.7209
 20
-0.846
 30
0.0
 10
17.6566
 20
-1.0336
 30
0.0
 10
17.5277
 20
-1.1786
 30
0.0
 10
17.5277
 20
-1.1786
 30
0.0
 10
17.3988
 20
-1.3237
 30
0.0
 10
17.2282
 20
-1.4064
 30
0.0
 10
17.0159
 20
-1.4268
 30
0.0
  0
SPLINE
  5
44
330
1F
100
AcDbEntity
  8
VRSTVA_1
 62
   250
100
AcDbSpline
210
0.0
220
0.0
230
1.0
 70
    11
 71
     3
 72
    52
 73
    48
 74
     0
 42
0.0000000001
 43
0.0000000001
 40
0.0
 40
0.0
 40
0.0
 40
0.0
 40
0.0769230769230769
 40
0.0769230769230769
 40
0.0769230769230769
 40
0.0769230769230769
 40
0.1538461538461539
 40
0.1538461538461539
 40
0.1538461538461539
 40
0.1538461538461539
 40
0.2307692307692308
 40
0.2307692307692308
 40
0.2307692307692308
 40
0.2307692307692308
 40
0.3076923076923077
 40
0.3076923076923077
 40
0.3076923076923077
 40
0.3076923076923077
 40
0.3846153846153846
 40
0.3846153846153846
 40
0.3846153846153846
 40
0.3846153846153846
 40
0.4615384615384616
 40
0.4615384615384616
 40
0.4615384615384616
 40
0.4615384615384616
 40
0.5384615384615384
 40
0.5384615384615384
 40
0.5384615384615384
 40
0.5384615384615384
 40
0.6153846153846154
 40
0.6153846153846154
 40
0.6153846153846154
 40
0.6153846153846154
 40
0.6923076923076923
 40
0.6923076923076923
 40
0.6923076923076923
 40
0.6923076923076923
 40
0.7692307692307693
 40
0.7692307692307693
 40
0.7692307692307693
 40
0.7692307692307693
 40
0.8461538461538461
 40
0.8461538461538461
 40
0.8461538461538461
 40
0.8461538461538461
 40
1.0
 40
1.0
 40
1.0
 40
1.0
 10
16.4341
 20
0.5358
 30
0.0
 10
16.1354
 20
0.5361
 30
0.0
 10
15.8949
 20
0.5669
 30
0.0
 10
15.7133
 20
0.6288
 30
0.0
 10
15.7133
 20
0.6288
 30
0.0
 10
15.5311
 20
0.6902
 30
0.0
 10
15.3906
 20
0.7821
 30
0.0
 10
15.2921
 20
0.9033
 30
0.0
 10
15.2921
 20
0.9033
 30
0.0
 10
15.1934
 20
1.0245
 30
0.0
 10
15.1441
 20
1.1768
 30
0.0
 10
15.1443
 20
1.3603
 30
0.0
 10
15.1443
 20
1.3603
 30
0.0
 10
15.1445
 20
1.4961
 30
0.0
 10
15.1722
 20
1.6148
 30
0.0
 10
15.227
 20
1.7171
 30
0.0
 10
15.227
 20
1.7171
 30
0.0
 10
15.2812
 20
1.8194
 30
0.0
 10
15.3601
 20
1.9033
 30
0.0
 10
15.4631
 20
1.9703
 30
0.0
 10
15.4631
 20
1.9703
 30
0.0
 10
15.566
 20
2.0366
 30
0.0
 10
15.6913
 20
2.0887
 30
0.0
 10
15.8389
 20
2.1263
 30
0.0
 10
15.8389
 20
2.1263
 30
0.0
 10
15.9866
 20
2.1643
 30
0.0
 10
16.1853
 20
2.1829
 30
0.0
 10
16.4358
 20
2.1827
 30
0.0
 10
16.4358
 20
2.1827
 30
0.0
 10
16.7321
 20
2.1824
 30
0.0
 10
16.9707
 20
2.1515
 30
0.0
 10
17.153
 20
2.0908
 30
0.0
 10
17.153
 20
2.0908
 30
0.0
 10
17.3352
 20
2.0295
 30
0.0
 10
17.4756
 20
1.9382
 30
0.0
 10
17.5749
 20
1.817
 30
0.0
 10
17.5749
 20
1.817
 30
0.0
 10
17.6741
 20
1.6957
 30
0.0
 10
17.7233
 20
1.5429
 30
0.0
 10
17.7231
 20
1.3577
 30
0.0
 10
17.7231
 20
1.3577
 30
0.0
 10
17.7229
 20
1.1142
 30
0.0
 10
17.6357
 20
0.9231
 30
0.0
 10
17.4609
 20
0.7846
 30
0.0
 10
17.4609
 20
0.7846
 30
0.0
 10
17.2509
 20
0.6184
 30
0.0
 10
16.908
 20
0.5353
 30
0.0
 10
16.4341
 20
0.5358
 30
0.0
  0
SPLINE
  5
45
330
1F
100
AcDbEntity
  8
VRSTVA_1
 62
   250
100
AcDbSpline
210
0.0
220
0.0
230
1.0
 70
    11
 71
     3
 72
    36
 73
    32
 74
     0
 42
0.0000000001
 43
0.0000000001
 40
0.0
 40
0.0
 40
0.0
 40
0.0
 40
0.1111111111111111
 40
0.1111111111111111
 40
0.1111111111111111
 40
0.1111111111111111
 40
0.2222222222222222
 40
0.2222222222222222
 40
0.2222222222222222
 40
0.2222222222222222
 40
0.3333333333333333
 40
0.3333333333333333
 40
0.3333333333333333
 40
0.3333333333333333
 40
0.4444444444444444
 40
0.4444444444444444
 40
0.4444444444444444
 40
0.4444444444444444
 40
0.5555555555555556
 40
0.5555555555555556
 40
0.5555555555555556
 40
0.5555555555555556
 40
0.6666666666666666
 40
0.6666666666666666
 40
0.6666666666666666
 40
0.6666666666666666
 40
0.7777777777777778
 40
0.7777777777777778
 40
0.7777777777777778
 40
0.7777777777777778
 40
1.0
 40
1.0
 40
1.0
 40
1.0
 10
16.4344
 20
0.8545
 30
0.0
 10
16.8489
 20
0.8541
 30
0.0
 10
17.1248
 20
0.9026
 30
0.0
 10
17.2624
 20
0.9994
 30
0.0
 10
17.2624
 20
0.9994
 30
0.0
 10
17.3995
 20
1.0963
 30
0.0
 10
17.4684
 20
1.2156
 30
0.0
 10
17.4685
 20
1.3579
 30
0.0
 10
17.4685
 20
1.3579
 30
0.0
 10
17.4687
 20
1.5007
 30
0.0
 10
17.3995
 20
1.6202
 30
0.0
 10
17.262
 20
1.7173
 30
0.0
 10
17.262
 20
1.7173
 30
0.0
 10
17.1245
 20
1.8145
 30
0.0
 10
16.8487
 20
1.8636
 30
0.0
 10
16.4354
 20
1.864
 30
0.0
 10
16.4354
 20
1.864
 30
0.0
 10
16.0197
 20
1.8644
 30
0.0
 10
15.7433
 20
1.8159
 30
0.0
 10
15.6068
 20
1.719
 30
0.0
 10
15.6068
 20
1.719
 30
0.0
 10
15.4697
 20
1.6222
 30
0.0
 10
15.4014
 20
1.5017
 30
0.0
 10
15.4012
 20
1.357
 30
0.0
 10
15.4012
 20
1.357
 30
0.0
 10
15.4011
 20
1.2141
 30
0.0
 10
15.4616
 20
1.1007
 30
0.0
 10
15.582
 20
1.0153
 30
0.0
 10
15.582
 20
1.0153
 30
0.0
 10
15.7354
 20
0.9087
 30
0.0
 10
16.0199
 20
0.8549
 30
0.0
 10
16.4344
 20
0.8545
 30
0.0
  0
SPLINE
  5
46
330
1F
100
AcDbEntity
  8
VRSTVA_1
 62
   250
100
AcDbSpline
210
0.0
220
0.0
230
1.0
 70
    24
 71
     3
 72
     8
 73
     4
 74
     0
 42
0.0000000001
 43
0.0000000001
 40
0.0
 40
0.0
 40
0.0
 40
0.0
 40
1.0
 40
1.0
 40
1.0
 40
1.0
 10
18.2795
 20
12.7196
 30
0.0
 10
18.2795
 20
12.7196
 30
0.0
 10
18.2795
 20
-11.9007
 30
0.0
 10
18.2795
 20
-11.9007
 30
0.0
  0
SPLINE
  5
47
330
1F
100
AcDbEntity
  8
VRSTVA_1
 62
   250
100
AcDbSpline
210
0.0
220
0.0
230
1.0
 70
    11
 71
     3
 72
    20
 73
    16
 74
     0
 42
0.0000000001
 43
0.0000000001
 40
0.0
 40
0.0
 40
0.0
 40
0.0
 40
0.2
 40
0.2
 40
0.2
 40
0.2
 40
0.4
 40
0.4
 40
0.4
 40
0.4
 40
0.6
 40
0.6
 40
0.6
 40
0.6
 40
1.0
 40
1.0
 40
1.0
 40
1.0
 10
18.7332
 20
10.3159
 30
0.0
 10
18.7332
 20
10.3159
 30
0.0
 10
18.3406
 20
13.3058
 30
0.0
 10
18.3406
 20
13.3058
 30
0.0
 10
18.3406
 20
13.3058
 30
0.0
 10
18.3406
 20
13.3058
 30
0.0
 10
18.1828
 20
13.3051
 30
0.0
 10
18.1828
 20
13.3051
 30
0.0
 10
18.1828
 20
13.3051
 30
0.0
 10
18.1828
 20
13.3051
 30
0.0
 10
17.7296
 20
10.3058
 30
0.0
 10
17.7296
 20
10.3058
 30
0.0
 10
17.7296
 20
10.3058
 30
0.0
 10
17.7296
 20
10.3058
 30
0.0
 10
18.7332
 20
10.3159
 30
0.0
 10
18.7332
 20
10.3159
 30
0.0
  0
SPLINE
  5
48
330
1F
100
AcDbEntity
  8
VRSTVA_1
 62
   250
100
AcDbSpline
210
0.0
220
0.0
230
1.0
 70
    11
 71
     3
 72
    20
 73
    16
 74
     0
 42
0.0000000001
 43
0.0000000001
 40
0.0
 40
0.0
 40
0.0
 40
0.0
 40
0.2
 40
0.2
 40
0.2
 40
0.2
 40
0.4
 40
0.4
 40
0.4
 40
0.4
 40
0.6
 40
0.6
 40
0.6
 40
0.6
 40
1.0
 40
1.0
 40
1.0
 40
1.0
 10
17.7848
 20
-9.0224
 30
0.0
 10
17.7848
 20
-9.0224
 30
0.0
 10
18.1775
 20
-12.0125
 30
0.0
 10
18.1775
 20
-12.0125
 30
0.0
 10
18.1775
 20
-12.0125
 30
0.0
 10
18.1775
 20
-12.0125
 30
0.0
 10
18.3353
 20
-12.0118
 30
0.0
 10
18.3353
 20
-12.0118
 30
0.0
 10
18.3353
 20
-12.0118
 30
0.0
 10
18.3353
 20
-12.0118
 30
0.0
 10
18.7886
 20
-9.0124
 30
0.0
 10
18.7886
 20
-9.0124
 30
0.0
 10
18.7886
 20
-9.0124
 30
0.0
 10
18.7886
 20
-9.0124
 30
0.0
 10
17.7848
 20
-9.0224
 30
0.0
 10
17.7848
 20
-9.0224
 30
0.0
  0
SPLINE
  5
49
330
1F
100
AcDbEntity
  8
VRSTVA_1
 62
   250
100
AcDbSpline
210
0.0
220
0.0
230
1.0
 70
    24
 71
     3
 72
     8
 73
     4
 74
     0
 42
0.0000000001
 43
0.0000000001
 40
0.0
 40
0.0
 40
0.0
 40
0.0
 40
1.0
 40
1.0
 40
1.0
 40
1.0
 10
18.7293
 20
13.4076
 30
0.0
 10
18.7293
 20
13.4076
 30
0.0
 10
11.2895
 20
13.4076
 30
0.0
 10
11.2895
 20
13.4076
 30
0.0
  0
SPLINE
  5
4A
330
1F
100
AcDbEntity
  8
VRSTVA_1
 62
   250
100
AcDbSpline
210
0.0
220
0.0
230
1.0
 70
    24
 71
     3
 72
     8
 73
     4
 74
     0
 42
0.0000000001
 43
0.0000000001
 40
0.0
 40
0.0
 40
0.0
 40
0.0
 40
1.0
 40
1.0
 40
1.0
 40
1.0
 10
19.0226
 20
-12.1466
 30
0.0
 10
19.0226
 20
-12.1466
 30
0.0
 10
10.3256
 20
-12.1466
 30
0.0
 10
10.3256
 20
-12.1466
 30
0.0
  0
SPLINE
  5
4B
330
1F
100
AcDbEntity
  8
VRSTVA_1
 62
   250
100
AcDbSpline
210
0.0
220
0.0
230
1.0
 70
    24
 71
     3
 72
     8
 73
     4
 74
     0
 42
0.0000000001
 43
0.0000000001
 40
0.0
 40
0.0
 40
0.0
 40
0.0
 40
1.0
 40
1.0
 40
1.0
 40
1.0
 10
-11.8628
 20
20.5295
 30
0.0
 10
-11.8628
 20
20.5295
 30
0.0
 10
-16.8666
 20
20.5295
 30
0.0
 10
-16.8666
 20
20.5295
 30
0.0
  0
SPLINE
  5
4C
330
1F
100
AcDbEntity
  8
VRSTVA_1
 62
   250
100
AcDbSpline
210
0.0
220
0.0
230
1.0
 70
    11
 71
     3
 72
    84
 73
    80
 74
     0
 42
0.0000000001
 43
0.0000000001
 40
0.0
 40
0.0
 40
0.0
 40
0.0
 40
0.0476190476190476
 40
0.0476190476190476
 40
0.0476190476190476
 40
0.0476190476190476
 40
0.0952380952380952
 40
0.0952380952380952
 40
0.0952380952380952
 40
0.0952380952380952
 40
0.1428571428571428
 40
0.1428571428571428
 40
0.1428571428571428
 40
0.1428571428571428
 40
0.1904761904761905
 40
0.1904761904761905
 40
0.1904761904761905
 40
0.1904761904761905
 40
0.2380952380952381
 40
0.2380952380952381
 40
0.2380952380952381
 40
0.2380952380952381
 40
0.2857142857142857
 40
0.2857142857142857
 40
0.2857142857142857
 40
0.2857142857142857
 40
0.3333333333333333
 40
0.3333333333333333
 40
0.3333333333333333
 40
0.3333333333333333
 40
0.3809523809523809
 40
0.3809523809523809
 40
0.3809523809523809
 40
0.3809523809523809
 40
0.4285714285714285
 40
0.4285714285714285
 40
0.4285714285714285
 40
0.4285714285714285
 40
0.4761904761904762
 40
0.4761904761904762
 40
0.4761904761904762
 40
0.4761904761904762
 40
0.5238095238095238
 40
0.5238095238095238
 40
0.5238095238095238
 40
0.5238095238095238
 40
0.5714285714285714
 40
0.5714285714285714
 40
0.5714285714285714
 40
0.5714285714285714
 40
0.6190476190476191
 40
0.6190476190476191
 40
0.6190476190476191
 40
0.6190476190476191
 40
0.6666666666666666
 40
0.6666666666666666
 40
0.6666666666666666
 40
0.6666666666666666
 40
0.7142857142857143
 40
0.7142857142857143
 40
0.7142857142857143
 40
0.7142857142857143
 40
0.7619047619047619
 40
0.7619047619047619
 40
0.7619047619047619
 40
0.7619047619047619
 40
0.8095238095238095
 40
0.8095238095238095
 40
0.8095238095238095
 40
0.8095238095238095
 40
0.8571428571428571
 40
0.8571428571428571
 40
0.8571428571428571
 40
0.8571428571428571
 40
0.9047619047619048
 40
0.9047619047619048
 40
0.9047619047619048
 40
0.9047619047619048
 40
1.0
 40
1.0
 40
1.0
 40
1.0
 10
-7.1443
 20
-11.5025
 30
0.0
 10
-7.1443
 20
-11.5025
 30
0.0
 10
-6.855
 20
-11.1785
 30
0.0
 10
-6.855
 20
-11.1785
 30
0.0
 10
-6.855
 20
-11.1785
 30
0.0
 10
-6.855
 20
-11.1785
 30
0.0
 10
-6.6845
 20
-11.3231
 30
0.0
 10
-6.6845
 20
-11.3231
 30
0.0
 10
-6.6845
 20
-11.3231
 30
0.0
 10
-6.6845
 20
-11.3231
 30
0.0
 10
-6.9873
 20
-11.6642
 30
0.0
 10
-6.9873
 20
-11.6642
 30
0.0
 10
-6.9873
 20
-11.6642
 30
0.0
 10
-6.8885
 20
-11.8111
 30
0.0
 10
-6.8221
 20
-11.9399
 30
0.0
 10
-6.7874
 20
-12.0499
 30
0.0
 10
-6.7874
 20
-12.0499
 30
0.0
 10
-6.7415
 20
-12.1945
 30
0.0
 10
-6.7186
 20
-12.3568
 30
0.0
 10
-6.7186
 20
-12.5355
 30
0.0
 10
-6.7186
 20
-12.5355
 30
0.0
 10
-6.7186
 20
-12.7942
 30
0.0
 10
-6.7709
 20
-13.0247
 30
0.0
 10
-6.8756
 20
-13.2264
 30
0.0
 10
-6.8756
 20
-13.2264
 30
0.0
 10
-6.9803
 20
-13.4286
 30
0.0
 10
-7.1266
 20
-13.5815
 30
0.0
 10
-7.3154
 20
-13.685
 30
0.0
 10
-7.3154
 20
-13.685
 30
0.0
 10
-7.5047
 20
-13.7879
 30
0.0
 10
-7.7052
 20
-13.8396
 30
0.0
 10
-7.9174
 20
-13.8396
 30
0.0
 10
-7.9174
 20
-13.8396
 30
0.0
 10
-8.0762
 20
-13.8396
 30
0.0
 10
-8.2197
 20
-13.8173
 30
0.0
 10
-8.3484
 20
-13.7726
 30
0.0
 10
-8.3484
 20
-13.7726
 30
0.0
 10
-8.4472
 20
-13.7379
 30
0.0
 10
-8.5625
 20
-13.672
 30
0.0
 10
-8.6947
 20
-13.5745
 30
0.0
 10
-8.6947
 20
-13.5745
 30
0.0
 10
-8.6947
 20
-13.5745
 30
0.0
 10
-8.984
 20
-13.8984
 30
0.0
 10
-8.984
 20
-13.8984
 30
0.0
 10
-8.984
 20
-13.8984
 30
0.0
 10
-8.984
 20
-13.8984
 30
0.0
 10
-9.1545
 20
-13.7538
 30
0.0
 10
-9.1545
 20
-13.7538
 30
0.0
 10
-9.1545
 20
-13.7538
 30
0.0
 10
-9.1545
 20
-13.7538
 30
0.0
 10
-8.8511
 20
-13.4145
 30
0.0
 10
-8.8511
 20
-13.4145
 30
0.0
 10
-8.8511
 20
-13.4145
 30
0.0
 10
-8.964
 20
-13.2434
 30
0.0
 10
-9.0393
 20
-13.097
 30
0.0
 10
-9.0769
 20
-12.9759
 30
0.0
 10
-9.0769
 20
-12.9759
 30
0.0
 10
-9.1145
 20
-12.8548
 30
0.0
 10
-9.1339
 20
-12.709
 30
0.0
 10
-9.1339
 20
-12.5391
 30
0.0
 10
-9.1339
 20
-12.5391
 30
0.0
 10
-9.1339
 20
-12.2798
 30
0.0
 10
-9.0822
 20
-12.0487
 30
0.0
 10
-8.9787
 20
-11.8458
 30
0.0
 10
-8.9787
 20
-11.8458
 30
0.0
 10
-8.8752
 20
-11.643
 30
0.0
 10
-8.7306
 20
-11.4895
 30
0.0
 10
-8.5436
 20
-11.3849
 30
0.0
 10
-8.5436
 20
-11.3849
 30
0.0
 10
-8.3573
 20
-11.2808
 30
0.0
 10
-8.1497
 20
-11.2285
 30
0.0
 10
-7.921
 20
-11.2285
 30
0.0
 10
-7.921
 20
-11.2285
 30
0.0
 10
-7.7669
 20
-11.2285
 30
0.0
 10
-7.6323
 20
-11.2485
 30
0.0
 10
-7.517
 20
-11.2896
 30
0.0
 10
-7.517
 20
-11.2896
 30
0.0
 10
-7.4018
 20
-11.3302
 30
0.0
 10
-7.2772
 20
-11.4014
 30
0.0
 10
-7.1443
 20
-11.5025
 30
0.0
  0
SPLINE
  5
4D
330
1F
100
AcDbEntity
  8
VRSTVA_1
 62
   250
100
AcDbSpline
210
0.0
220
0.0
230
1.0
 70
    11
 71
     3
 72
    32
 73
    28
 74
     0
 42
0.0000000001
 43
0.0000000001
 40
0.0
 40
0.0
 40
0.0
 40
0.0
 40
0.125
 40
0.125
 40
0.125
 40
0.125
 40
0.25
 40
0.25
 40
0.25
 40
0.25
 40
0.375
 40
0.375
 40
0.375
 40
0.375
 40
0.5
 40
0.5
 40
0.5
 40
0.5
 40
0.625
 40
0.625
 40
0.625
 40
0.625
 40
0.75
 40
0.75
 40
0.75
 40
0.75
 40
1.0
 40
1.0
 40
1.0
 40
1.0
 10
-7.3507
 20
-11.7347
 30
0.0
 10
-7.4588
 20
-11.6501
 30
0.0
 10
-7.5535
 20
-11.5918
 30
0.0
 10
-7.6341
 20
-11.5607
 30
0.0
 10
-7.6341
 20
-11.5607
 30
0.0
 10
-7.7152
 20
-11.5301
 30
0.0
 10
-7.8104
 20
-11.5142
 30
0.0
 10
-7.9192
 20
-11.5142
 30
0.0
 10
-7.9192
 20
-11.5142
 30
0.0
 10
-8.1709
 20
-11.5142
 30
0.0
 10
-8.3784
 20
-11.5995
 30
0.0
 10
-8.543
 20
-11.77
 30
0.0
 10
-8.543
 20
-11.77
 30
0.0
 10
-8.7071
 20
-11.9405
 30
0.0
 10
-8.7894
 20
-12.1951
 30
0.0
 10
-8.7894
 20
-12.5344
 30
0.0
 10
-8.7894
 20
-12.5344
 30
0.0
 10
-8.7894
 20
-12.6672
 30
0.0
 10
-8.7765
 20
-12.7854
 30
0.0
 10
-8.7512
 20
-12.8889
 30
0.0
 10
-8.7512
 20
-12.8889
 30
0.0
 10
-8.733
 20
-12.9659
 30
0.0
 10
-8.6947
 20
-13.0606
 30
0.0
 10
-8.636
 20
-13.1729
 30
0.0
 10
-8.636
 20
-13.1729
 30
0.0
 10
-8.636
 20
-13.1729
 30
0.0
 10
-7.3507
 20
-11.7347
 30
0.0
 10
-7.3507
 20
-11.7347
 30
0.0
  0
SPLINE
  5
4E
330
1F
100
AcDbEntity
  8
VRSTVA_1
 62
   250
100
AcDbSpline
210
0.0
220
0.0
230
1.0
 70
    11
 71
     3
 72
    28
 73
    24
 74
     0
 42
0.0000000001
 43
0.0000000001
 40
0.0
 40
0.0
 40
0.0
 40
0.0
 40
0.1428571428571428
 40
0.1428571428571428
 40
0.1428571428571428
 40
0.1428571428571428
 40
0.2857142857142857
 40
0.2857142857142857
 40
0.2857142857142857
 40
0.2857142857142857
 40
0.4285714285714285
 40
0.4285714285714285
 40
0.4285714285714285
 40
0.4285714285714285
 40
0.5714285714285714
 40
0.5714285714285714
 40
0.5714285714285714
 40
0.5714285714285714
 40
0.7142857142857143
 40
0.7142857142857143
 40
0.7142857142857143
 40
0.7142857142857143
 40
1.0
 40
1.0
 40
1.0
 40
1.0
 10
-7.2095
 20
-11.9123
 30
0.0
 10
-7.2095
 20
-11.9123
 30
0.0
 10
-8.4895
 20
-13.3451
 30
0.0
 10
-8.4895
 20
-13.3451
 30
0.0
 10
-8.4895
 20
-13.3451
 30
0.0
 10
-8.4013
 20
-13.4175
 30
0.0
 10
-8.3196
 20
-13.468
 30
0.0
 10
-8.2449
 20
-13.4968
 30
0.0
 10
-8.2449
 20
-13.4968
 30
0.0
 10
-8.1474
 20
-13.535
 30
0.0
 10
-8.0415
 20
-13.5539
 30
0.0
 10
-7.928
 20
-13.5539
 30
0.0
 10
-7.928
 20
-13.5539
 30
0.0
 10
-7.6776
 20
-13.5539
 30
0.0
 10
-7.4712
 20
-13.4657
 30
0.0
 10
-7.3077
 20
-13.2887
 30
0.0
 10
-7.3077
 20
-13.2887
 30
0.0
 10
-7.1449
 20
-13.1117
 30
0.0
 10
-7.0631
 20
-12.8636
 30
0.0
 10
-7.0631
 20
-12.5444
 30
0.0
 10
-7.0631
 20
-12.5444
 30
0.0
 10
-7.0631
 20
-12.3056
 30
0.0
 10
-7.112
 20
-12.0945
 30
0.0
 10
-7.2095
 20
-11.9123
 30
0.0
  0
SPLINE
  5
4F
330
1F
100
AcDbEntity
  8
VRSTVA_1
 62
   250
100
AcDbSpline
210
0.0
220
0.0
230
1.0
 70
    11
 71
     3
 72
    40
 73
    36
 74
     0
 42
0.0000000001
 43
0.0000000001
 40
0.0
 40
0.0
 40
0.0
 40
0.0
 40
0.1
 40
0.1
 40
0.1
 40
0.1
 40
0.2
 40
0.2
 40
0.2
 40
0.2
 40
0.3
 40
0.3
 40
0.3
 40
0.3
 40
0.4
 40
0.4
 40
0.4
 40
0.4
 40
0.5
 40
0.5
 40
0.5
 40
0.5
 40
0.6
 40
0.6
 40
0.6
 40
0.6
 40
0.7
 40
0.7
 40
0.7
 40
0.7
 40
0.8
 40
0.8
 40
0.8
 40
0.8
 40
1.0
 40
1.0
 40
1.0
 40
1.0
 10
-5.2393
 20
-13.7967
 30
0.0
 10
-5.2393
 20
-13.7967
 30
0.0
 10
-5.5492
 20
-13.7967
 30
0.0
 10
-5.5492
 20
-13.7967
 30
0.0
 10
-5.5492
 20
-13.7967
 30
0.0
 10
-5.5492
 20
-13.7967
 30
0.0
 10
-5.5492
 20
-11.8211
 30
0.0
 10
-5.5492
 20
-11.8211
 30
0.0
 10
-5.5492
 20
-11.8211
 30
0.0
 10
-5.6238
 20
-11.8923
 30
0.0
 10
-5.7214
 20
-11.9634
 30
0.0
 10
-5.8425
 20
-12.0346
 30
0.0
 10
-5.8425
 20
-12.0346
 30
0.0
 10
-5.9643
 20
-12.1057
 30
0.0
 10
-6.073
 20
-12.1592
 30
0.0
 10
-6.1695
 20
-12.1945
 30
0.0
 10
-6.1695
 20
-12.1945
 30
0.0
 10
-6.1695
 20
-12.1945
 30
0.0
 10
-6.1695
 20
-11.8952
 30
0.0
 10
-6.1695
 20
-11.8952
 30
0.0
 10
-6.1695
 20
-11.8952
 30
0.0
 10
-5.996
 20
-11.8135
 30
0.0
 10
-5.8443
 20
-11.7147
 30
0.0
 10
-5.7144
 20
-11.5989
 30
0.0
 10
-5.7144
 20
-11.5989
 30
0.0
 10
-5.585
 20
-11.4825
 30
0.0
 10
-5.4927
 20
-11.3702
 30
0.0
 10
-5.4386
 20
-11.2608
 30
0.0
 10
-5.4386
 20
-11.2608
 30
0.0
 10
-5.4386
 20
-11.2608
 30
0.0
 10
-5.2393
 20
-11.2608
 30
0.0
 10
-5.2393
 20
-11.2608
 30
0.0
 10
-5.2393
 20
-11.2608
 30
0.0
 10
-5.2393
 20
-11.2608
 30
0.0
 10
-5.2393
 20
-13.7967
 30
0.0
 10
-5.2393
 20
-13.7967
 30
0.0
  0
SPLINE
  5
50
330
1F
100
AcDbEntity
  8
VRSTVA_1
 62
   250
100
AcDbSpline
210
0.0
220
0.0
230
1.0
 70
    11
 71
     3
 72
    48
 73
    44
 74
     0
 42
0.0000000001
 43
0.0000000001
 40
0.0
 40
0.0
 40
0.0
 40
0.0
 40
0.0833333333333333
 40
0.0833333333333333
 40
0.0833333333333333
 40
0.0833333333333333
 40
0.1666666666666667
 40
0.1666666666666667
 40
0.1666666666666667
 40
0.1666666666666667
 40
0.25
 40
0.25
 40
0.25
 40
0.25
 40
0.3333333333333333
 40
0.3333333333333333
 40
0.3333333333333333
 40
0.3333333333333333
 40
0.4166666666666667
 40
0.4166666666666667
 40
0.4166666666666667
 40
0.4166666666666667
 40
0.5
 40
0.5
 40
0.5
 40
0.5
 40
0.5833333333333334
 40
0.5833333333333334
 40
0.5833333333333334
 40
0.5833333333333334
 40
0.6666666666666666
 40
0.6666666666666666
 40
0.6666666666666666
 40
0.6666666666666666
 40
0.75
 40
0.75
 40
0.75
 40
0.75
 40
0.8333333333333334
 40
0.8333333333333334
 40
0.8333333333333334
 40
0.8333333333333334
 40
1.0
 40
1.0
 40
1.0
 40
1.0
 10
-4.4244
 20
-11.6024
 30
0.0
 10
-4.4244
 20
-11.6024
 30
0.0
 10
-4.4244
 20
-11.3043
 30
0.0
 10
-4.4244
 20
-11.3043
 30
0.0
 10
-4.4244
 20
-11.3043
 30
0.0
 10
-4.4244
 20
-11.3043
 30
0.0
 10
-2.7898
 20
-11.3043
 30
0.0
 10
-2.7898
 20
-11.3043
 30
0.0
 10
-2.7898
 20
-11.3043
 30
0.0
 10
-2.7898
 20
-11.3043
 30
0.0
 10
-2.7898
 20
-11.5454
 30
0.0
 10
-2.7898
 20
-11.5454
 30
0.0
 10
-2.7898
 20
-11.5454
 30
0.0
 10
-2.9504
 20
-11.7165
 30
0.0
 10
-3.1097
 20
-11.944
 30
0.0
 10
-3.2679
 20
-12.2274
 30
0.0
 10
-3.2679
 20
-12.2274
 30
0.0
 10
-3.4254
 20
-12.5108
 30
0.0
 10
-3.5477
 20
-12.8031
 30
0.0
 10
-3.6336
 20
-13.1023
 30
0.0
 10
-3.6336
 20
-13.1023
 30
0.0
 10
-3.6959
 20
-13.314
 30
0.0
 10
-3.7353
 20
-13.545
 30
0.0
 10
-3.7524
 20
-13.7967
 30
0.0
 10
-3.7524
 20
-13.7967
 30
0.0
 10
-3.7524
 20
-13.7967
 30
0.0
 10
-4.071
 20
-13.7967
 30
0.0
 10
-4.071
 20
-13.7967
 30
0.0
 10
-4.071
 20
-13.7967
 30
0.0
 10
-4.0675
 20
-13.598
 30
0.0
 10
-4.0287
 20
-13.3581
 30
0.0
 10
-3.954
 20
-13.0764
 30
0.0
 10
-3.954
 20
-13.0764
 30
0.0
 10
-3.8793
 20
-12.7954
 30
0.0
 10
-3.7723
 20
-12.5238
 30
0.0
 10
-3.633
 20
-12.2627
 30
0.0
 10
-3.633
 20
-12.2627
 30
0.0
 10
-3.4931
 20
-12.0017
 30
0.0
 10
-3.3449
 20
-11.7812
 30
0.0
 10
-3.1873
 20
-11.6024
 30
0.0
 10
-3.1873
 20
-11.6024
 30
0.0
 10
-3.1873
 20
-11.6024
 30
0.0
 10
-4.4244
 20
-11.6024
 30
0.0
 10
-4.4244
 20
-11.6024
 30
0.0
  0
SPLINE
  5
51
330
1F
100
AcDbEntity
  8
VRSTVA_1
 62
   250
100
AcDbSpline
210
0.0
220
0.0
230
1.0
 70
    24
 71
     3
 72
     8
 73
     4
 74
     0
 42
0.0000000001
 43
0.0000000001
 40
0.0
 40
0.0
 40
0.0
 40
0.0
 40
1.0
 40
1.0
 40
1.0
 40
1.0
 10
9.2312
 20
-15.0106
 30
0.0
 10
9.2312
 20
-15.0106
 30
0.0
 10
9.2312
 20
-10.6572
 30
0.0
 10
9.2312
 20
-10.6572
 30
0.0
  0
SPLINE
  5
52
330
1F
100
AcDbEntity
  8
VRSTVA_1
 62
   250
100
AcDbSpline
210
0.0
220
0.0
230
1.0
 70
    24
 71
     3
 72
     8
 73
     4
 74
     0
 42
0.0000000001
 43
0.0000000001
 40
0.0
 40
0.0
 40
0.0
 40
0.0
 40
1.0
 40
1.0
 40
1.0
 40
1.0
 10
1.0916
 20
-14.9705
 30
0.0
 10
1.0916
 20
-14.9705
 30
0.0
 10
1.0916
 20
-10.7534
 30
0.0
 10
1.0916
 20
-10.7534
 30
0.0
  0
SPLINE
  5
53
330
1F
100
AcDbEntity
  8
VRSTVA_1
 62
   250
100
AcDbSpline
210
0.0
220
0.0
230
1.0
 70
    24
 71
     3
 72
     8
 73
     4
 74
     0
 42
0.0000000001
 43
0.0000000001
 40
0.0
 40
0.0
 40
0.0
 40
0.0
 40
1.0
 40
1.0
 40
1.0
 40
1.0
 10
-10.2374
 20
-14.2883
 30
0.0
 10
-10.2374
 20
-14.2883
 30
0.0
 10
13.2321
 20
-14.2883
 30
0.0
 10
13.2321
 20
-14.2883
 30
0.0
  0
SPLINE
  5
54
330
1F
100
AcDbEntity
  8
VRSTVA_1
 62
   250
100
AcDbSpline
210
0.0
220
0.0
230
1.0
 70
    24
 71
     3
 72
     8
 73
     4
 74
     0
 42
0.0000000001
 43
0.0000000001
 40
0.0
 40
0.0
 40
0.0
 40
0.0
 40
1.0
 40
1.0
 40
1.0
 40
1.0
 10
-15.8761
 20
2.5012
 30
0.0
 10
-15.8761
 20
2.5012
 30
0.0
 10
-15.8761
 20
24.3476
 30
0.0
 10
-15.8761
 20
24.3476
 30
0.0
  0
SPLINE
  5
55
330
1F
100
AcDbEntity
  8
VRSTVA_1
 62
   250
100
AcDbSpline
210
0.0
220
0.0
230
1.0
 70
    11
 71
     3
 72
    20
 73
    16
 74
     0
 42
0.0000000001
 43
0.0000000001
 40
0.0
 40
0.0
 40
0.0
 40
0.0
 40
0.2
 40
0.2
 40
0.2
 40
0.2
 40
0.4
 40
0.4
 40
0.4
 40
0.4
 40
0.6
 40
0.6
 40
0.6
 40
0.6
 40
1.0
 40
1.0
 40
1.0
 40
1.0
 10
-1.9536
 20
-13.8378
 30
0.0
 10
-1.9536
 20
-13.8378
 30
0.0
 10
1.0464
 20
-14.2611
 30
0.0
 10
1.0464
 20
-14.2611
 30
0.0
 10
1.0464
 20
-14.2611
 30
0.0
 10
1.0464
 20
-14.2611
 30
0.0
 10
1.0464
 20
-14.3552
 30
0.0
 10
1.0464
 20
-14.3552
 30
0.0
 10
1.0464
 20
-14.3552
 30
0.0
 10
1.0464
 20
-14.3552
 30
0.0
 10
-1.9536
 20
-14.8067
 30
0.0
 10
-1.9536
 20
-14.8067
 30
0.0
 10
-1.9536
 20
-14.8067
 30
0.0
 10
-1.9536
 20
-14.8067
 30
0.0
 10
-1.9536
 20
-13.8378
 30
0.0
 10
-1.9536
 20
-13.8378
 30
0.0
  0
SPLINE
  5
56
330
1F
100
AcDbEntity
  8
VRSTVA_1
 62
   250
100
AcDbSpline
210
0.0
220
0.0
230
1.0
 70
    11
 71
     3
 72
    20
 73
    16
 74
     0
 42
0.0000000001
 43
0.0000000001
 40
0.0
 40
0.0
 40
0.0
 40
0.0
 40
0.2
 40
0.2
 40
0.2
 40
0.2
 40
0.4
 40
0.4
 40
0.4
 40
0.4
 40
0.6
 40
0.6
 40
0.6
 40
0.6
 40
1.0
 40
1.0
 40
1.0
 40
1.0
 10
12.302
 20
-14.7452
 30
0.0
 10
12.302
 20
-14.7452
 30
0.0
 10
9.302
 20
-14.3218
 30
0.0
 10
9.302
 20
-14.3218
 30
0.0
 10
9.302
 20
-14.3218
 30
0.0
 10
9.302
 20
-14.3218
 30
0.0
 10
9.302
 20
-14.2277
 30
0.0
 10
9.302
 20
-14.2277
 30
0.0
 10
9.302
 20
-14.2277
 30
0.0
 10
9.302
 20
-14.2277
 30
0.0
 10
12.302
 20
-13.7762
 30
0.0
 10
12.302
 20
-13.7762
 30
0.0
 10
12.302
 20
-13.7762
 30
0.0
 10
12.302
 20
-13.7762
 30
0.0
 10
12.302
 20
-14.7452
 30
0.0
 10
12.302
 20
-14.7452
 30
0.0
  0
SPLINE
  5
57
330
1F
100
AcDbEntity
  8
VRSTVA_1
 62
   250
100
AcDbSpline
210
0.0
220
0.0
230
1.0
 70
    24
 71
     3
 72
     8
 73
     4
 74
     0
 42
0.0000000001
 43
0.0000000001
 40
0.0
 40
0.0
 40
0.0
 40
0.0
 40
1.0
 40
1.0
 40
1.0
 40
1.0
 10
-11.1746
 20
22.7483
 30
0.0
 10
-11.1746
 20
22.7483
 30
0.0
 10
-11.1486
 20
4.2881
 30
0.0
 10
-11.1486
 20
4.2881
 30
0.0
  0
SPLINE
  5
58
330
1F
100
AcDbEntity
  8
VRSTVA_1
 62
   250
100
AcDbSpline
210
0.0
220
0.0
230
1.0
 70
    24
 71
     3
 72
     8
 73
     4
 74
     0
 42
0.0000000001
 43
0.0000000001
 40
0.0
 40
0.0
 40
0.0
 40
0.0
 40
1.0
 40
1.0
 40
1.0
 40
1.0
 10
-9.7476
 20
22.6975
 30
0.0
 10
-9.7476
 20
22.6975
 30
0.0
 10
-9.7447
 20
20.6778
 30
0.0
 10
-9.7447
 20
20.6778
 30
0.0
  0
SPLINE
  5
59
330
1F
100
AcDbEntity
  8
VRSTVA_1
 62
   250
100
AcDbSpline
210
0.0
220
0.0
230
1.0
 70
    24
 71
     3
 72
     8
 73
     4
 74
     0
 42
0.0000000001
 43
0.0000000001
 40
0.0
 40
0.0
 40
0.0
 40
0.0
 40
1.0
 40
1.0
 40
1.0
 40
1.0
 10
-9.7428
 20
19.339
 30
0.0
 10
-9.7428
 20
19.339
 30
0.0
 10
-9.736
 20
14.4629
 30
0.0
 10
-9.736
 20
14.4629
 30
0.0
  0
SPLINE
  5
5A
330
1F
100
AcDbEntity
  8
VRSTVA_1
 62
   250
100
AcDbSpline
210
0.0
220
0.0
230
1.0
 70
    24
 71
     3
 72
     8
 73
     4
 74
     0
 42
0.0000000001
 43
0.0000000001
 40
0.0
 40
0.0
 40
0.0
 40
0.0
 40
1.0
 40
1.0
 40
1.0
 40
1.0
 10
-9.7332
 20
12.5695
 30
0.0
 10
-9.7332
 20
12.5695
 30
0.0
 10
-9.7264
 20
7.6933
 30
0.0
 10
-9.7264
 20
7.6933
 30
0.0
  0
SPLINE
  5
5B
330
1F
100
AcDbEntity
  8
VRSTVA_1
 62
   250
100
AcDbSpline
210
0.0
220
0.0
230
1.0
 70
    24
 71
     3
 72
     8
 73
     4
 74
     0
 42
0.0000000001
 43
0.0000000001
 40
0.0
 40
0.0
 40
0.0
 40
0.0
 40
1.0
 40
1.0
 40
1.0
 40
1.0
 10
-9.7245
 20
6.3546
 30
0.0
 10
-9.7245
 20
6.3546
 30
0.0
 10
-9.7216
 20
4.3347
 30
0.0
 10
-9.7216
 20
4.3347
 30
0.0
  0
SPLINE
  5
5C
330
1F
100
AcDbEntity
  8
VRSTVA_1
 62
   250
100
AcDbSpline
210
0.0
220
0.0
230
1.0
 70
    24
 71
     3
 72
     8
 73
     4
 74
     0
 42
0.0000000001
 43
0.0000000001
 40
0.0
 40
0.0
 40
0.0
 40
0.0
 40
1.0
 40
1.0
 40
1.0
 40
1.0
 10
-4.0398
 20
22.7375
 30
0.0
 10
-4.0398
 20
22.7375
 30
0.0
 10
-4.0395
 20
22.5015
 30
0.0
 10
-4.0395
 20
22.5015
 30
0.0
  0
SPLINE
  5
5D
330
1F
100
AcDbEntity
  8
VRSTVA_1
 62
   250
100
AcDbSpline
210
0.0
220
0.0
230
1.0
 70
    24
 71
     3
 72
     8
 73
     4
 74
     0
 42
0.0000000001
 43
0.0000000001
 40
0.0
 40
0.0
 40
0.0
 40
0.0
 40
1.0
 40
1.0
 40
1.0
 40
1.0
 10
-4.0359
 20
20.0343
 30
0.0
 10
-4.0359
 20
20.0343
 30
0.0
 10
-4.0357
 20
19.8675
 30
0.0
 10
-4.0357
 20
19.8675
 30
0.0
  0
SPLINE
  5
5E
330
1F
100
AcDbEntity
  8
VRSTVA_1
 62
   250
100
AcDbSpline
210
0.0
220
0.0
230
1.0
 70
    24
 71
     3
 72
     8
 73
     4
 74
     0
 42
0.0000000001
 43
0.0000000001
 40
0.0
 40
0.0
 40
0.0
 40
0.0
 40
1.0
 40
1.0
 40
1.0
 40
1.0
 10
-4.0136
 20
4.2788
 30
0.0
 10
-4.0136
 20
4.2788
 30
0.0
 10
-4.0139
 20
4.5148
 30
0.0
 10
-4.0139
 20
4.5148
 30
0.0
  0
SPLINE
  5
5F
330
1F
100
AcDbEntity
  8
VRSTVA_1
 62
   250
100
AcDbSpline
210
0.0
220
0.0
230
1.0
 70
    24
 71
     3
 72
     8
 73
     4
 74
     0
 42
0.0000000001
 43
0.0000000001
 40
0.0
 40
0.0
 40
0.0
 40
0.0
 40
1.0
 40
1.0
 40
1.0
 40
1.0
 10
-4.0175
 20
6.982
 30
0.0
 10
-4.0175
 20
6.982
 30
0.0
 10
-4.0177
 20
7.1488
 30
0.0
 10
-4.0177
 20
7.1488
 30
0.0
  0
SPLINE
  5
60
330
1F
100
AcDbEntity
  8
VRSTVA_1
 62
   250
100
AcDbSpline
210
0.0
220
0.0
230
1.0
 70
    24
 71
     3
 72
     8
 73
     4
 74
     0
 42
0.0000000001
 43
0.0000000001
 40
0.0
 40
0.0
 40
0.0
 40
0.0
 40
1.0
 40
1.0
 40
1.0
 40
1.0
 10
-3.064
 20
5.4601
 30
0.0
 10
-3.064
 20
5.4601
 30
0.0
 10
-3.0868
 20
21.5535
 30
0.0
 10
-3.0868
 20
21.5535
 30
0.0
  0
SPLINE
  5
61
330
1F
100
AcDbEntity
  8
VRSTVA_1
 62
   250
100
AcDbSpline
210
0.0
220
0.0
230
1.0
 70
    24
 71
     3
 72
     8
 73
     4
 74
     0
 42
0.0000000001
 43
0.0000000001
 40
0.0
 40
0.0
 40
0.0
 40
0.0
 40
1.0
 40
1.0
 40
1.0
 40
1.0
 10
-2.1317
 20
18.9489
 30
0.0
 10
-2.1317
 20
18.9489
 30
0.0
 10
-2.1163
 20
8.062
 30
0.0
 10
-2.1163
 20
8.062
 30
0.0
  0
SPLINE
  5
62
330
1F
100
AcDbEntity
  8
VRSTVA_1
 62
   250
100
AcDbSpline
210
0.0
220
0.0
230
1.0
 70
    24
 71
     3
 72
     8
 73
     4
 74
     0
 42
0.0000000001
 43
0.0000000001
 40
0.0
 40
0.0
 40
0.0
 40
0.0
 40
1.0
 40
1.0
 40
1.0
 40
1.0
 10
9.9774
 20
2.8383
 30
0.0
 10
9.9774
 20
2.8383
 30
0.0
 10
10.6571
 20
6.0364
 30
0.0
 10
10.6571
 20
6.0364
 30
0.0
  0
SPLINE
  5
63
330
1F
100
AcDbEntity
  8
VRSTVA_1
 62
   250
100
AcDbSpline
210
0.0
220
0.0
230
1.0
 70
    24
 71
     3
 72
     8
 73
     4
 74
     0
 42
0.0000000001
 43
0.0000000001
 40
0.0
 40
0.0
 40
0.0
 40
0.0
 40
1.0
 40
1.0
 40
1.0
 40
1.0
 10
0.5832
 20
-0.4618
 30
0.0
 10
0.5832
 20
-0.4618
 30
0.0
 10
-0.133
 20
2.7374
 30
0.0
 10
-0.133
 20
2.7374
 30
0.0
  0
SPLINE
  5
64
330
1F
100
AcDbEntity
  8
VRSTVA_1
 62
   250
100
AcDbSpline
210
0.0
220
0.0
230
1.0
 70
    24
 71
     3
 72
     8
 73
     4
 74
     0
 42
0.0000000001
 43
0.0000000001
 40
0.0
 40
0.0
 40
0.0
 40
0.0
 40
1.0
 40
1.0
 40
1.0
 40
1.0
 10
0.4548
 20
2.8517
 30
0.0
 10
0.4548
 20
2.8517
 30
0.0
 10
-0.234
 20
6.0517
 30
0.0
 10
-0.234
 20
6.0517
 30
0.0
  0
SPLINE
  5
65
330
1F
100
AcDbEntity
  8
VRSTVA_1
 62
   250
100
AcDbSpline
210
0.0
220
0.0
230
1.0
 70
    24
 71
     3
 72
     8
 73
     4
 74
     0
 42
0.0000000001
 43
0.0000000001
 40
0.0
 40
0.0
 40
0.0
 40
0.0
 40
1.0
 40
1.0
 40
1.0
 40
1.0
 10
0.9398
 20
-3.7756
 30
0.0
 10
0.9398
 20
-3.7756
 30
0.0
 10
0.3453
 20
-0.4615
 30
0.0
 10
0.3453
 20
-0.4615
 30
0.0
  0
SPLINE
  5
66
330
1F
100
AcDbEntity
  8
VRSTVA_1
 62
   250
100
AcDbSpline
210
0.0
220
0.0
230
1.0
 70
    24
 71
     3
 72
     8
 73
     4
 74
     0
 42
0.0000000001
 43
0.0000000001
 40
0.0
 40
0.0
 40
0.0
 40
0.0
 40
1.0
 40
1.0
 40
1.0
 40
1.0
 10
1.0634
 20
-7.0891
 30
0.0
 10
1.0634
 20
-7.0891
 30
0.0
 10
0.7068
 20
-3.7753
 30
0.0
 10
0.7068
 20
-3.7753
 30
0.0
  0
SPLINE
  5
67
330
1F
100
AcDbEntity
  8
VRSTVA_1
 62
   250
100
AcDbSpline
210
0.0
220
0.0
230
1.0
 70
    24
 71
     3
 72
     8
 73
     4
 74
     0
 42
0.0000000001
 43
0.0000000001
 40
0.0
 40
0.0
 40
0.0
 40
0.0
 40
1.0
 40
1.0
 40
1.0
 40
1.0
 10
1.1204
 20
-10.4025
 30
0.0
 10
1.1204
 20
-10.4025
 30
0.0
 10
0.9968
 20
-7.089
 30
0.0
 10
0.9968
 20
-7.089
 30
0.0
  0
SPLINE
  5
68
330
1F
100
AcDbEntity
  8
VRSTVA_1
 62
   250
100
AcDbSpline
210
0.0
220
0.0
230
1.0
 70
    24
 71
     3
 72
     8
 73
     4
 74
     0
 42
0.0000000001
 43
0.0000000001
 40
0.0
 40
0.0
 40
0.0
 40
0.0
 40
1.0
 40
1.0
 40
1.0
 40
1.0
 10
0.4073
 20
6.1651
 30
0.0
 10
0.4073
 20
6.1651
 30
0.0
 10
0.4047
 20
8.0585
 30
0.0
 10
0.4047
 20
8.0585
 30
0.0
  0
SPLINE
  5
69
330
1F
100
AcDbEntity
  8
VRSTVA_1
 62
   250
100
AcDbSpline
210
0.0
220
0.0
230
1.0
 70
    24
 71
     3
 72
     8
 73
     4
 74
     0
 42
0.0000000001
 43
0.0000000001
 40
0.0
 40
0.0
 40
0.0
 40
0.0
 40
1.0
 40
1.0
 40
1.0
 40
1.0
 10
0.765
 20
-11.3487
 30
0.0
 10
0.765
 20
-11.3487
 30
0.0
 10
0.7661
 20
-12.0588
 30
0.0
 10
0.7661
 20
-12.0588
 30
0.0
  0
SPLINE
  5
6A
330
1F
100
AcDbEntity
  8
VRSTVA_1
 62
   250
100
AcDbSpline
210
0.0
220
0.0
230
1.0
 70
    24
 71
     3
 72
     8
 73
     4
 74
     0
 42
0.0000000001
 43
0.0000000001
 40
0.0
 40
0.0
 40
0.0
 40
0.0
 40
1.0
 40
1.0
 40
1.0
 40
1.0
 10
4.5274
 20
18.9395
 30
0.0
 10
4.5274
 20
18.9395
 30
0.0
 10
4.539
 20
10.8101
 30
0.0
 10
4.539
 20
10.8101
 30
0.0
  0
SPLINE
  5
6B
330
1F
100
AcDbEntity
  8
VRSTVA_1
 62
   250
100
AcDbSpline
210
0.0
220
0.0
230
1.0
 70
    24
 71
     3
 72
     8
 73
     4
 74
     0
 42
0.0000000001
 43
0.0000000001
 40
0.0
 40
0.0
 40
0.0
 40
0.0
 40
1.0
 40
1.0
 40
1.0
 40
1.0
 10
1.5948
 20
-10.4032
 30
0.0
 10
1.5948
 20
-10.4032
 30
0.0
 10
1.5737
 20
-11.3498
 30
0.0
 10
1.5737
 20
-11.3498
 30
0.0
  0
SPLINE
  5
6C
330
1F
100
AcDbEntity
  8
VRSTVA_1
 62
   250
100
AcDbSpline
210
0.0
220
0.0
230
1.0
 70
    24
 71
     3
 72
     8
 73
     4
 74
     0
 42
0.0000000001
 43
0.0000000001
 40
0.0
 40
0.0
 40
0.0
 40
0.0
 40
1.0
 40
1.0
 40
1.0
 40
1.0
 10
9.5111
 20
-3.7877
 30
0.0
 10
9.5111
 20
-3.7877
 30
0.0
 10
10.0962
 20
-0.4752
 30
0.0
 10
10.0962
 20
-0.4752
 30
0.0
  0
SPLINE
  5
6D
330
1F
100
AcDbEntity
  8
VRSTVA_1
 62
   250
100
AcDbSpline
210
0.0
220
0.0
230
1.0
 70
    24
 71
     3
 72
     8
 73
     4
 74
     0
 42
0.0000000001
 43
0.0000000001
 40
0.0
 40
0.0
 40
0.0
 40
0.0
 40
1.0
 40
1.0
 40
1.0
 40
1.0
 10
9.8584
 20
-0.4749
 30
0.0
 10
9.8584
 20
-0.4749
 30
0.0
 10
10.5655
 20
2.7224
 30
0.0
 10
10.5655
 20
2.7224
 30
0.0
  0
SPLINE
  5
6E
330
1F
100
AcDbEntity
  8
VRSTVA_1
 62
   250
100
AcDbSpline
210
0.0
220
0.0
230
1.0
 70
    24
 71
     3
 72
     8
 73
     4
 74
     0
 42
0.0000000001
 43
0.0000000001
 40
0.0
 40
0.0
 40
0.0
 40
0.0
 40
1.0
 40
1.0
 40
1.0
 40
1.0
 10
9.7084
 20
-12.0713
 30
0.0
 10
9.7084
 20
-12.0713
 30
0.0
 10
0.7661
 20
-12.0588
 30
0.0
 10
0.7661
 20
-12.0588
 30
0.0
  0
SPLINE
  5
6F
330
1F
100
AcDbEntity
  8
VRSTVA_1
 62
   250
100
AcDbSpline
210
0.0
220
0.0
230
1.0
 70
    24
 71
     3
 72
     8
 73
     4
 74
     0
 42
0.0000000001
 43
0.0000000001
 40
0.0
 40
0.0
 40
0.0
 40
0.0
 40
1.0
 40
1.0
 40
1.0
 40
1.0
 10
9.7073
 20
-11.3612
 30
0.0
 10
9.7073
 20
-11.3612
 30
0.0
 10
0.765
 20
-11.3487
 30
0.0
 10
0.765
 20
-11.3487
 30
0.0
  0
SPLINE
  5
70
330
1F
100
AcDbEntity
  8
VRSTVA_1
 62
   250
100
AcDbSpline
210
0.0
220
0.0
230
1.0
 70
    24
 71
     3
 72
     8
 73
     4
 74
     0
 42
0.0000000001
 43
0.0000000001
 40
0.0
 40
0.0
 40
0.0
 40
0.0
 40
1.0
 40
1.0
 40
1.0
 40
1.0
 10
9.3493
 20
-10.4141
 30
0.0
 10
9.3493
 20
-10.4141
 30
0.0
 10
1.1204
 20
-10.4025
 30
0.0
 10
1.1204
 20
-10.4025
 30
0.0
  0
SPLINE
  5
71
330
1F
100
AcDbEntity
  8
VRSTVA_1
 62
   250
100
AcDbSpline
210
0.0
220
0.0
230
1.0
 70
    24
 71
     3
 72
     8
 73
     4
 74
     0
 42
0.0000000001
 43
0.0000000001
 40
0.0
 40
0.0
 40
0.0
 40
0.0
 40
1.0
 40
1.0
 40
1.0
 40
1.0
 10
8.875
 20
-10.4135
 30
0.0
 10
8.875
 20
-10.4135
 30
0.0
 10
8.8987
 20
-11.3601
 30
0.0
 10
8.8987
 20
-11.3601
 30
0.0
  0
SPLINE
  5
72
330
1F
100
AcDbEntity
  8
VRSTVA_1
 62
   250
100
AcDbSpline
210
0.0
220
0.0
230
1.0
 70
    24
 71
     3
 72
     8
 73
     4
 74
     0
 42
0.0000000001
 43
0.0000000001
 40
0.0
 40
0.0
 40
0.0
 40
0.0
 40
1.0
 40
1.0
 40
1.0
 40
1.0
 10
9.7073
 20
-11.3612
 30
0.0
 10
9.7073
 20
-11.3612
 30
0.0
 10
9.7084
 20
-12.0713
 30
0.0
 10
9.7084
 20
-12.0713
 30
0.0
  0
SPLINE
  5
73
330
1F
100
AcDbEntity
  8
VRSTVA_1
 62
   250
100
AcDbSpline
210
0.0
220
0.0
230
1.0
 70
    24
 71
     3
 72
     8
 73
     4
 74
     0
 42
0.0000000001
 43
0.0000000001
 40
0.0
 40
0.0
 40
0.0
 40
0.0
 40
1.0
 40
1.0
 40
1.0
 40
1.0
 10
10.0156
 20
6.1516
 30
0.0
 10
10.0156
 20
6.1516
 30
0.0
 10
10.0052
 20
13.4883
 30
0.0
 10
10.0052
 20
13.4883
 30
0.0
  0
SPLINE
  5
74
330
1F
100
AcDbEntity
  8
VRSTVA_1
 62
   250
100
AcDbSpline
210
0.0
220
0.0
230
1.0
 70
    24
 71
     3
 72
     8
 73
     4
 74
     0
 42
0.0000000001
 43
0.0000000001
 40
0.0
 40
0.0
 40
0.0
 40
0.0
 40
1.0
 40
1.0
 40
1.0
 40
1.0
 10
9.3493
 20
-10.4141
 30
0.0
 10
9.3493
 20
-10.4141
 30
0.0
 10
9.4635
 20
-7.101
 30
0.0
 10
9.4635
 20
-7.101
 30
0.0
  0
SPLINE
  5
75
330
1F
100
AcDbEntity
  8
VRSTVA_1
 62
   250
100
AcDbSpline
210
0.0
220
0.0
230
1.0
 70
    24
 71
     3
 72
     8
 73
     4
 74
     0
 42
0.0000000001
 43
0.0000000001
 40
0.0
 40
0.0
 40
0.0
 40
0.0
 40
1.0
 40
1.0
 40
1.0
 40
1.0
 10
9.3969
 20
-7.1009
 30
0.0
 10
9.3969
 20
-7.1009
 30
0.0
 10
9.7442
 20
-3.7881
 30
0.0
 10
9.7442
 20
-3.7881
 30
0.0
  0
SPLINE
  5
76
330
1F
100
AcDbEntity
  8
VRSTVA_1
 62
   250
100
AcDbSpline
210
0.0
220
0.0
230
1.0
 70
    24
 71
     3
 72
     8
 73
     4
 74
     0
 42
0.0000000001
 43
0.0000000001
 40
0.0
 40
0.0
 40
0.0
 40
0.0
 40
1.0
 40
1.0
 40
1.0
 40
1.0
 10
9.4635
 20
-7.101
 30
0.0
 10
9.4635
 20
-7.101
 30
0.0
 10
0.9968
 20
-7.089
 30
0.0
 10
0.9968
 20
-7.089
 30
0.0
  0
SPLINE
  5
77
330
1F
100
AcDbEntity
  8
VRSTVA_1
 62
   250
100
AcDbSpline
210
0.0
220
0.0
230
1.0
 70
    24
 71
     3
 72
     8
 73
     4
 74
     0
 42
0.0000000001
 43
0.0000000001
 40
0.0
 40
0.0
 40
0.0
 40
0.0
 40
1.0
 40
1.0
 40
1.0
 40
1.0
 10
9.7442
 20
-3.7881
 30
0.0
 10
9.7442
 20
-3.7881
 30
0.0
 10
0.7068
 20
-3.7753
 30
0.0
 10
0.7068
 20
-3.7753
 30
0.0
  0
SPLINE
  5
78
330
1F
100
AcDbEntity
  8
VRSTVA_1
 62
   250
100
AcDbSpline
210
0.0
220
0.0
230
1.0
 70
    24
 71
     3
 72
     8
 73
     4
 74
     0
 42
0.0000000001
 43
0.0000000001
 40
0.0
 40
0.0
 40
0.0
 40
0.0
 40
1.0
 40
1.0
 40
1.0
 40
1.0
 10
10.0962
 20
-0.4752
 30
0.0
 10
10.0962
 20
-0.4752
 30
0.0
 10
0.3453
 20
-0.4615
 30
0.0
 10
0.3453
 20
-0.4615
 30
0.0
  0
SPLINE
  5
79
330
1F
100
AcDbEntity
  8
VRSTVA_1
 62
   250
100
AcDbSpline
210
0.0
220
0.0
230
1.0
 70
    24
 71
     3
 72
     8
 73
     4
 74
     0
 42
0.0000000001
 43
0.0000000001
 40
0.0
 40
0.0
 40
0.0
 40
0.0
 40
1.0
 40
1.0
 40
1.0
 40
1.0
 10
-0.0403
 20
2.8524
 30
0.0
 10
-0.0403
 20
2.8524
 30
0.0
 10
10.4725
 20
2.8376
 30
0.0
 10
10.4725
 20
2.8376
 30
0.0
  0
SPLINE
  5
7A
330
1F
100
AcDbEntity
  8
VRSTVA_1
 62
   250
100
AcDbSpline
210
0.0
220
0.0
230
1.0
 70
    24
 71
     3
 72
     8
 73
     4
 74
     0
 42
0.0000000001
 43
0.0000000001
 40
0.0
 40
0.0
 40
0.0
 40
0.0
 40
1.0
 40
1.0
 40
1.0
 40
1.0
 10
-4.0205
 20
4.2781
 30
0.0
 10
-4.0205
 20
4.2781
 30
0.0
 10
-11.1486
 20
4.2881
 30
0.0
 10
-11.1486
 20
4.2881
 30
0.0
  0
SPLINE
  5
7B
330
1F
100
AcDbEntity
  8
VRSTVA_1
 62
   250
100
AcDbSpline
210
0.0
220
0.0
230
1.0
 70
    24
 71
     3
 72
     8
 73
     4
 74
     0
 42
0.0000000001
 43
0.0000000001
 40
0.0
 40
0.0
 40
0.0
 40
0.0
 40
1.0
 40
1.0
 40
1.0
 40
1.0
 10
-4.9654
 20
4.566
 30
0.0
 10
-4.9654
 20
4.566
 30
0.0
 10
-9.7219
 20
4.5727
 30
0.0
 10
-9.7219
 20
4.5727
 30
0.0
  0
SPLINE
  5
7C
330
1F
100
AcDbEntity
  8
VRSTVA_1
 62
   250
100
AcDbSpline
210
0.0
220
0.0
230
1.0
 70
    24
 71
     3
 72
     8
 73
     4
 74
     0
 42
0.0000000001
 43
0.0000000001
 40
0.0
 40
0.0
 40
0.0
 40
0.0
 40
1.0
 40
1.0
 40
1.0
 40
1.0
 10
-0.1411
 20
6.1659
 30
0.0
 10
-0.1411
 20
6.1659
 30
0.0
 10
10.5639
 20
6.1509
 30
0.0
 10
10.5639
 20
6.1509
 30
0.0
  0
SPLINE
  5
7D
330
1F
100
AcDbEntity
  8
VRSTVA_1
 62
   250
100
AcDbSpline
210
0.0
220
0.0
230
1.0
 70
    24
 71
     3
 72
     8
 73
     4
 74
     0
 42
0.0000000001
 43
0.0000000001
 40
0.0
 40
0.0
 40
0.0
 40
0.0
 40
1.0
 40
1.0
 40
1.0
 40
1.0
 10
-9.7245
 20
6.3546
 30
0.0
 10
-9.7245
 20
6.3546
 30
0.0
 10
-4.9678
 20
6.3479
 30
0.0
 10
-4.9678
 20
6.3479
 30
0.0
  0
SPLINE
  5
7E
330
1F
100
AcDbEntity
  8
VRSTVA_1
 62
   250
100
AcDbSpline
210
0.0
220
0.0
230
1.0
 70
    24
 71
     3
 72
     8
 73
     4
 74
     0
 42
0.0000000001
 43
0.0000000001
 40
0.0
 40
0.0
 40
0.0
 40
0.0
 40
1.0
 40
1.0
 40
1.0
 40
1.0
 10
-9.7264
 20
7.6933
 30
0.0
 10
-9.7264
 20
7.6933
 30
0.0
 10
-4.9698
 20
7.6867
 30
0.0
 10
-4.9698
 20
7.6867
 30
0.0
  0
SPLINE
  5
7F
330
1F
100
AcDbEntity
  8
VRSTVA_1
 62
   250
100
AcDbSpline
210
0.0
220
0.0
230
1.0
 70
    24
 71
     3
 72
     8
 73
     4
 74
     0
 42
0.0000000001
 43
0.0000000001
 40
0.0
 40
0.0
 40
0.0
 40
0.0
 40
1.0
 40
1.0
 40
1.0
 40
1.0
 10
0.4047
 20
8.0585
 30
0.0
 10
0.4047
 20
8.0585
 30
0.0
 10
-2.1163
 20
8.062
 30
0.0
 10
-2.1163
 20
8.062
 30
0.0
  0
SPLINE
  5
80
330
1F
100
AcDbEntity
  8
VRSTVA_1
 62
   250
100
AcDbSpline
210
0.0
220
0.0
230
1.0
 70
    24
 71
     3
 72
     8
 73
     4
 74
     0
 42
0.0000000001
 43
0.0000000001
 40
0.0
 40
0.0
 40
0.0
 40
0.0
 40
1.0
 40
1.0
 40
1.0
 40
1.0
 10
-2.1167
 20
8.2987
 30
0.0
 10
-2.1167
 20
8.2987
 30
0.0
 10
-3.068
 20
8.3001
 30
0.0
 10
-3.068
 20
8.3001
 30
0.0
  0
SPLINE
  5
81
330
1F
100
AcDbEntity
  8
VRSTVA_1
 62
   250
100
AcDbSpline
210
0.0
220
0.0
230
1.0
 70
    24
 71
     3
 72
     8
 73
     4
 74
     0
 42
0.0000000001
 43
0.0000000001
 40
0.0
 40
0.0
 40
0.0
 40
0.0
 40
1.0
 40
1.0
 40
1.0
 40
1.0
 10
-9.7332
 20
12.5695
 30
0.0
 10
-9.7332
 20
12.5695
 30
0.0
 10
-4.9767
 20
12.5628
 30
0.0
 10
-4.9767
 20
12.5628
 30
0.0
  0
SPLINE
  5
82
330
1F
100
AcDbEntity
  8
VRSTVA_1
 62
   250
100
AcDbSpline
210
0.0
220
0.0
230
1.0
 70
    24
 71
     3
 72
     8
 73
     4
 74
     0
 42
0.0000000001
 43
0.0000000001
 40
0.0
 40
0.0
 40
0.0
 40
0.0
 40
1.0
 40
1.0
 40
1.0
 40
1.0
 10
-9.736
 20
14.4629
 30
0.0
 10
-9.736
 20
14.4629
 30
0.0
 10
-4.9793
 20
14.4562
 30
0.0
 10
-4.9793
 20
14.4562
 30
0.0
  0
SPLINE
  5
83
330
1F
100
AcDbEntity
  8
VRSTVA_1
 62
   250
100
AcDbSpline
210
0.0
220
0.0
230
1.0
 70
    24
 71
     3
 72
     8
 73
     4
 74
     0
 42
0.0000000001
 43
0.0000000001
 40
0.0
 40
0.0
 40
0.0
 40
0.0
 40
1.0
 40
1.0
 40
1.0
 40
1.0
 10
-2.1314
 20
18.7122
 30
0.0
 10
-2.1314
 20
18.7122
 30
0.0
 10
-3.0828
 20
18.7135
 30
0.0
 10
-3.0828
 20
18.7135
 30
0.0
  0
SPLINE
  5
84
330
1F
100
AcDbEntity
  8
VRSTVA_1
 62
   250
100
AcDbSpline
210
0.0
220
0.0
230
1.0
 70
    24
 71
     3
 72
     8
 73
     4
 74
     0
 42
0.0000000001
 43
0.0000000001
 40
0.0
 40
0.0
 40
0.0
 40
0.0
 40
1.0
 40
1.0
 40
1.0
 40
1.0
 10
4.5274
 20
18.9395
 30
0.0
 10
4.5274
 20
18.9395
 30
0.0
 10
-2.1317
 20
18.9489
 30
0.0
 10
-2.1317
 20
18.9489
 30
0.0
  0
SPLINE
  5
85
330
1F
100
AcDbEntity
  8
VRSTVA_1
 62
   250
100
AcDbSpline
210
0.0
220
0.0
230
1.0
 70
    24
 71
     3
 72
     8
 73
     4
 74
     0
 42
0.0000000001
 43
0.0000000001
 40
0.0
 40
0.0
 40
0.0
 40
0.0
 40
1.0
 40
1.0
 40
1.0
 40
1.0
 10
-9.7428
 20
19.339
 30
0.0
 10
-9.7428
 20
19.339
 30
0.0
 10
-4.9863
 20
19.3323
 30
0.0
 10
-4.9863
 20
19.3323
 30
0.0
  0
SPLINE
  5
86
330
1F
100
AcDbEntity
  8
VRSTVA_1
 62
   250
100
AcDbSpline
210
0.0
220
0.0
230
1.0
 70
    24
 71
     3
 72
     8
 73
     4
 74
     0
 42
0.0000000001
 43
0.0000000001
 40
0.0
 40
0.0
 40
0.0
 40
0.0
 40
1.0
 40
1.0
 40
1.0
 40
1.0
 10
-9.7447
 20
20.6778
 30
0.0
 10
-9.7447
 20
20.6778
 30
0.0
 10
-4.9882
 20
20.6711
 30
0.0
 10
-4.9882
 20
20.6711
 30
0.0
  0
SPLINE
  5
87
330
1F
100
AcDbEntity
  8
VRSTVA_1
 62
   250
100
AcDbSpline
210
0.0
220
0.0
230
1.0
 70
    24
 71
     3
 72
     8
 73
     4
 74
     0
 42
0.0000000001
 43
0.0000000001
 40
0.0
 40
0.0
 40
0.0
 40
0.0
 40
1.0
 40
1.0
 40
1.0
 40
1.0
 10
-4.9906
 20
22.4529
 30
0.0
 10
-4.9906
 20
22.4529
 30
0.0
 10
-9.7473
 20
22.4596
 30
0.0
 10
-9.7473
 20
22.4596
 30
0.0
  0
SPLINE
  5
88
330
1F
100
AcDbEntity
  8
VRSTVA_1
 62
   250
100
AcDbSpline
210
0.0
220
0.0
230
1.0
 70
    24
 71
     3
 72
     8
 73
     4
 74
     0
 42
0.0000000001
 43
0.0000000001
 40
0.0
 40
0.0
 40
0.0
 40
0.0
 40
1.0
 40
1.0
 40
1.0
 40
1.0
 10
-4.0467
 20
22.7382
 30
0.0
 10
-4.0467
 20
22.7382
 30
0.0
 10
-11.1746
 20
22.7483
 30
0.0
 10
-11.1746
 20
22.7483
 30
0.0
  0
SPLINE
  5
89
330
1F
100
AcDbEntity
  8
VRSTVA_1
 62
   250
100
AcDbSpline
210
0.0
220
0.0
230
1.0
 70
     8
 71
     3
 72
    12
 73
     8
 74
     0
 42
0.0000000001
 43
0.0000000001
 40
0.0
 40
0.0
 40
0.0
 40
0.0
 40
0.3333333333333333
 40
0.3333333333333333
 40
0.3333333333333333
 40
0.3333333333333333
 40
1.0
 40
1.0
 40
1.0
 40
1.0
 10
-4.9767
 20
12.5628
 30
0.0
 10
-4.4513
 20
12.562
 30
0.0
 10
-4.026
 20
12.9853
 30
0.0
 10
-4.0267
 20
13.5081
 30
0.0
 10
-4.0267
 20
13.5081
 30
0.0
 10
-4.0274
 20
14.0309
 30
0.0
 10
-4.454
 20
14.4554
 30
0.0
 10
-4.9793
 20
14.4562
 30
0.0
  0
SPLINE
  5
8A
330
1F
100
AcDbEntity
  8
VRSTVA_1
 62
   250
100
AcDbSpline
210
0.0
220
0.0
230
1.0
 70
     8
 71
     3
 72
     8
 73
     4
 74
     0
 42
0.0000000001
 43
0.0000000001
 40
0.0
 40
0.0
 40
0.0
 40
0.0
 40
1.0
 40
1.0
 40
1.0
 40
1.0
 10
-4.0139
 20
4.5148
 30
0.0
 10
-3.4885
 20
4.514
 30
0.0
 10
-3.0633
 20
4.9372
 30
0.0
 10
-3.064
 20
5.4601
 30
0.0
  0
SPLINE
  5
8B
330
1F
100
AcDbEntity
  8
VRSTVA_1
 62
   250
100
AcDbSpline
210
0.0
220
0.0
230
1.0
 70
     8
 71
     3
 72
     8
 73
     4
 74
     0
 42
0.0000000001
 43
0.0000000001
 40
0.0
 40
0.0
 40
0.0
 40
0.0
 40
1.0
 40
1.0
 40
1.0
 40
1.0
 10
-3.0868
 20
21.5535
 30
0.0
 10
-3.0875
 20
22.0764
 30
0.0
 10
-3.514
 20
22.5008
 30
0.0
 10
-4.0395
 20
22.5015
 30
0.0
  0
SPLINE
  5
8C
330
1F
100
AcDbEntity
  8
VRSTVA_1
 62
   250
100
AcDbSpline
210
0.0
220
0.0
230
1.0
 70
     8
 71
     3
 72
    12
 73
     8
 74
     0
 42
0.0000000001
 43
0.0000000001
 40
0.0
 40
0.0
 40
0.0
 40
0.0
 40
0.3333333333333333
 40
0.3333333333333333
 40
0.3333333333333333
 40
0.3333333333333333
 40
1.0
 40
1.0
 40
1.0
 40
1.0
 10
-0.0403
 20
2.8524
 30
0.0
 10
-0.0691
 20
2.8525
 30
0.0
 10
-0.0964
 20
2.8395
 30
0.0
 10
-0.1144
 20
2.8171
 30
0.0
 10
-0.1144
 20
2.8171
 30
0.0
 10
-0.1324
 20
2.7948
 30
0.0
 10
-0.1393
 20
2.7655
 30
0.0
 10
-0.133
 20
2.7374
 30
0.0
  0
SPLINE
  5
8D
330
1F
100
AcDbEntity
  8
VRSTVA_1
 62
   250
100
AcDbSpline
210
0.0
220
0.0
230
1.0
 70
     8
 71
     3
 72
    12
 73
     8
 74
     0
 42
0.0000000001
 43
0.0000000001
 40
0.0
 40
0.0
 40
0.0
 40
0.0
 40
0.3333333333333333
 40
0.3333333333333333
 40
0.3333333333333333
 40
0.3333333333333333
 40
1.0
 40
1.0
 40
1.0
 40
1.0
 10
10.5655
 20
2.7224
 30
0.0
 10
10.5717
 20
2.7504
 30
0.0
 10
10.5648
 20
2.7797
 30
0.0
 10
10.5468
 20
2.8022
 30
0.0
 10
10.5468
 20
2.8022
 30
0.0
 10
10.5286
 20
2.8246
 30
0.0
 10
10.5013
 20
2.8377
 30
0.0
 10
10.4725
 20
2.8376
 30
0.0
  0
SPLINE
  5
8E
330
1F
100
AcDbEntity
  8
VRSTVA_1
 62
   250
100
AcDbSpline
210
0.0
220
0.0
230
1.0
 70
     8
 71
     3
 72
    12
 73
     8
 74
     0
 42
0.0000000001
 43
0.0000000001
 40
0.0
 40
0.0
 40
0.0
 40
0.0
 40
0.3333333333333333
 40
0.3333333333333333
 40
0.3333333333333333
 40
0.3333333333333333
 40
1.0
 40
1.0
 40
1.0
 40
1.0
 10
-0.1411
 20
6.1659
 30
0.0
 10
-0.1698
 20
6.166
 30
0.0
 10
-0.1969
 20
6.1531
 30
0.0
 10
-0.215
 20
6.1309
 30
0.0
 10
-0.215
 20
6.1309
 30
0.0
 10
-0.2331
 20
6.1087
 30
0.0
 10
-0.24
 20
6.0796
 30
0.0
 10
-0.234
 20
6.0517
 30
0.0
  0
SPLINE
  5
8F
330
1F
100
AcDbEntity
  8
VRSTVA_1
 62
   250
100
AcDbSpline
210
0.0
220
0.0
230
1.0
 70
     8
 71
     3
 72
    12
 73
     8
 74
     0
 42
0.0000000001
 43
0.0000000001
 40
0.0
 40
0.0
 40
0.0
 40
0.0
 40
0.3333333333333333
 40
0.3333333333333333
 40
0.3333333333333333
 40
0.3333333333333333
 40
1.0
 40
1.0
 40
1.0
 40
1.0
 10
10.6571
 20
6.0364
 30
0.0
 10
10.6631
 20
6.0643
 30
0.0
 10
10.656
 20
6.0935
 30
0.0
 10
10.6379
 20
6.1157
 30
0.0
 10
10.6379
 20
6.1157
 30
0.0
 10
10.6198
 20
6.1379
 30
0.0
 10
10.5926
 20
6.1508
 30
0.0
 10
10.5639
 20
6.1509
 30
0.0
  0
SPLINE
  5
90
330
1F
100
AcDbEntity
  8
VRSTVA_1
 62
   250
100
AcDbSpline
210
0.0
220
0.0
230
1.0
 70
     8
 71
     3
 72
     8
 73
     4
 74
     0
 42
0.0000000001
 43
0.0000000001
 40
0.0
 40
0.0
 40
0.0
 40
0.0
 40
1.0
 40
1.0
 40
1.0
 40
1.0
 10
10.0052
 20
13.4883
 30
0.0
 10
10.001
 20
16.4947
 30
0.0
 10
7.5485
 20
18.9352
 30
0.0
 10
4.5274
 20
18.9395
 30
0.0
  0
SPLINE
  5
91
330
1F
100
AcDbEntity
  8
VRSTVA_1
 62
   250
100
AcDbSpline
210
0.0
220
0.0
230
1.0
 70
     8
 71
     3
 72
    32
 73
    28
 74
     0
 42
0.0000000001
 43
0.0000000001
 40
0.0
 40
0.0
 40
0.0
 40
0.0
 40
0.125
 40
0.125
 40
0.125
 40
0.125
 40
0.25
 40
0.25
 40
0.25
 40
0.25
 40
0.375
 40
0.375
 40
0.375
 40
0.375
 40
0.5
 40
0.5
 40
0.5
 40
0.5
 40
0.625
 40
0.625
 40
0.625
 40
0.625
 40
0.75
 40
0.75
 40
0.75
 40
0.75
 40
1.0
 40
1.0
 40
1.0
 40
1.0
 10
-4.036
 20
20.0348
 30
0.0
 10
-4.036
 20
20.0348
 30
0.0
 10
-4.043
 20
20.1148
 30
0.0
 10
-4.043
 20
20.1148
 30
0.0
 10
-4.043
 20
20.1148
 30
0.0
 10
-4.043
 20
20.1148
 30
0.0
 10
-4.0979
 20
20.2676
 30
0.0
 10
-4.0979
 20
20.2676
 30
0.0
 10
-4.0979
 20
20.2676
 30
0.0
 10
-4.0979
 20
20.2676
 30
0.0
 10
-4.2047
 20
20.4041
 30
0.0
 10
-4.2047
 20
20.4041
 30
0.0
 10
-4.2047
 20
20.4041
 30
0.0
 10
-4.2047
 20
20.4041
 30
0.0
 10
-4.3572
 20
20.5171
 30
0.0
 10
-4.3572
 20
20.5171
 30
0.0
 10
-4.3572
 20
20.5171
 30
0.0
 10
-4.3572
 20
20.5171
 30
0.0
 10
-4.5464
 20
20.6014
 30
0.0
 10
-4.5464
 20
20.6014
 30
0.0
 10
-4.5464
 20
20.6014
 30
0.0
 10
-4.5464
 20
20.6014
 30
0.0
 10
-4.7609
 20
20.6534
 30
0.0
 10
-4.7609
 20
20.6534
 30
0.0
 10
-4.7609
 20
20.6534
 30
0.0
 10
-4.7609
 20
20.6534
 30
0.0
 10
-4.9882
 20
20.6711
 30
0.0
 10
-4.9882
 20
20.6711
 30
0.0
  0
SPLINE
  5
92
330
1F
100
AcDbEntity
  8
VRSTVA_1
 62
   250
100
AcDbSpline
210
0.0
220
0.0
230
1.0
 70
     8
 71
     3
 72
    32
 73
    28
 74
     0
 42
0.0000000001
 43
0.0000000001
 40
0.0
 40
0.0
 40
0.0
 40
0.0
 40
0.125
 40
0.125
 40
0.125
 40
0.125
 40
0.25
 40
0.25
 40
0.25
 40
0.25
 40
0.375
 40
0.375
 40
0.375
 40
0.375
 40
0.5
 40
0.5
 40
0.5
 40
0.5
 40
0.625
 40
0.625
 40
0.625
 40
0.625
 40
0.75
 40
0.75
 40
0.75
 40
0.75
 40
1.0
 40
1.0
 40
1.0
 40
1.0
 10
-4.0175
 20
6.9815
 30
0.0
 10
-4.0175
 20
6.9815
 30
0.0
 10
-4.0243
 20
6.9014
 30
0.0
 10
-4.0243
 20
6.9014
 30
0.0
 10
-4.0243
 20
6.9014
 30
0.0
 10
-4.0243
 20
6.9014
 30
0.0
 10
-4.0788
 20
6.7488
 30
0.0
 10
-4.0788
 20
6.7488
 30
0.0
 10
-4.0788
 20
6.7488
 30
0.0
 10
-4.0788
 20
6.7488
 30
0.0
 10
-4.1851
 20
6.6127
 30
0.0
 10
-4.1851
 20
6.6127
 30
0.0
 10
-4.1851
 20
6.6127
 30
0.0
 10
-4.1851
 20
6.6127
 30
0.0
 10
-4.3374
 20
6.5001
 30
0.0
 10
-4.3374
 20
6.5001
 30
0.0
 10
-4.3374
 20
6.5001
 30
0.0
 10
-4.3374
 20
6.5001
 30
0.0
 10
-4.5263
 20
6.4163
 30
0.0
 10
-4.5263
 20
6.4163
 30
0.0
 10
-4.5263
 20
6.4163
 30
0.0
 10
-4.5263
 20
6.4163
 30
0.0
 10
-4.7407
 20
6.3649
 30
0.0
 10
-4.7407
 20
6.3649
 30
0.0
 10
-4.7407
 20
6.3649
 30
0.0
 10
-4.7407
 20
6.3649
 30
0.0
 10
-4.9678
 20
6.3479
 30
0.0
 10
-4.9678
 20
6.3479
 30
0.0
  0
SPLINE
  5
93
330
1F
100
AcDbEntity
  8
VRSTVA_1
 62
   250
100
AcDbSpline
210
0.0
220
0.0
230
1.0
 70
     8
 71
     3
 72
    32
 73
    28
 74
     0
 42
0.0000000001
 43
0.0000000001
 40
0.0
 40
0.0
 40
0.0
 40
0.0
 40
0.125
 40
0.125
 40
0.125
 40
0.125
 40
0.25
 40
0.25
 40
0.25
 40
0.25
 40
0.375
 40
0.375
 40
0.375
 40
0.375
 40
0.5
 40
0.5
 40
0.5
 40
0.5
 40
0.625
 40
0.625
 40
0.625
 40
0.625
 40
0.75
 40
0.75
 40
0.75
 40
0.75
 40
1.0
 40
1.0
 40
1.0
 40
1.0
 10
-4.0139
 20
4.5148
 30
0.0
 10
-4.0139
 20
4.5148
 30
0.0
 10
-4.0375
 20
4.5172
 30
0.0
 10
-4.0375
 20
4.5172
 30
0.0
 10
-4.0375
 20
4.5172
 30
0.0
 10
-4.0375
 20
4.5172
 30
0.0
 10
-4.1085
 20
4.5242
 30
0.0
 10
-4.1085
 20
4.5242
 30
0.0
 10
-4.1085
 20
4.5242
 30
0.0
 10
-4.1085
 20
4.5242
 30
0.0
 10
-4.2226
 20
4.5345
 30
0.0
 10
-4.2226
 20
4.5345
 30
0.0
 10
-4.2226
 20
4.5345
 30
0.0
 10
-4.2226
 20
4.5345
 30
0.0
 10
-4.3709
 20
4.5456
 30
0.0
 10
-4.3709
 20
4.5456
 30
0.0
 10
-4.3709
 20
4.5456
 30
0.0
 10
-4.3709
 20
4.5456
 30
0.0
 10
-4.5514
 20
4.556
 30
0.0
 10
-4.5514
 20
4.556
 30
0.0
 10
-4.5514
 20
4.556
 30
0.0
 10
-4.5514
 20
4.556
 30
0.0
 10
-4.7555
 20
4.5633
 30
0.0
 10
-4.7555
 20
4.5633
 30
0.0
 10
-4.7555
 20
4.5633
 30
0.0
 10
-4.7555
 20
4.5633
 30
0.0
 10
-4.9654
 20
4.566
 30
0.0
 10
-4.9654
 20
4.566
 30
0.0
  0
SPLINE
  5
94
330
1F
100
AcDbEntity
  8
VRSTVA_1
 62
   250
100
AcDbSpline
210
0.0
220
0.0
230
1.0
 70
     8
 71
     3
 72
    32
 73
    28
 74
     0
 42
0.0000000001
 43
0.0000000001
 40
0.0
 40
0.0
 40
0.0
 40
0.0
 40
0.125
 40
0.125
 40
0.125
 40
0.125
 40
0.25
 40
0.25
 40
0.25
 40
0.25
 40
0.375
 40
0.375
 40
0.375
 40
0.375
 40
0.5
 40
0.5
 40
0.5
 40
0.5
 40
0.625
 40
0.625
 40
0.625
 40
0.625
 40
0.75
 40
0.75
 40
0.75
 40
0.75
 40
1.0
 40
1.0
 40
1.0
 40
1.0
 10
-4.9698
 20
7.6867
 30
0.0
 10
-4.9698
 20
7.6867
 30
0.0
 10
-4.7425
 20
7.6649
 30
0.0
 10
-4.7425
 20
7.6649
 30
0.0
 10
-4.7425
 20
7.6649
 30
0.0
 10
-4.7425
 20
7.6649
 30
0.0
 10
-4.528
 20
7.6021
 30
0.0
 10
-4.528
 20
7.6021
 30
0.0
 10
-4.528
 20
7.6021
 30
0.0
 10
-4.528
 20
7.6021
 30
0.0
 10
-4.3388
 20
7.5023
 30
0.0
 10
-4.3388
 20
7.5023
 30
0.0
 10
-4.3388
 20
7.5023
 30
0.0
 10
-4.3388
 20
7.5023
 30
0.0
 10
-4.1863
 20
7.3729
 30
0.0
 10
-4.1863
 20
7.3729
 30
0.0
 10
-4.1863
 20
7.3729
 30
0.0
 10
-4.1863
 20
7.3729
 30
0.0
 10
-4.0794
 20
7.2229
 30
0.0
 10
-4.0794
 20
7.2229
 30
0.0
 10
-4.0794
 20
7.2229
 30
0.0
 10
-4.0794
 20
7.2229
 30
0.0
 10
-4.0245
 20
7.0625
 30
0.0
 10
-4.0245
 20
7.0625
 30
0.0
 10
-4.0245
 20
7.0625
 30
0.0
 10
-4.0245
 20
7.0625
 30
0.0
 10
-4.0175
 20
6.9815
 30
0.0
 10
-4.0175
 20
6.9815
 30
0.0
  0
SPLINE
  5
95
330
1F
100
AcDbEntity
  8
VRSTVA_1
 62
   250
100
AcDbSpline
210
0.0
220
0.0
230
1.0
 70
     8
 71
     3
 72
    32
 73
    28
 74
     0
 42
0.0000000001
 43
0.0000000001
 40
0.0
 40
0.0
 40
0.0
 40
0.0
 40
0.125
 40
0.125
 40
0.125
 40
0.125
 40
0.25
 40
0.25
 40
0.25
 40
0.25
 40
0.375
 40
0.375
 40
0.375
 40
0.375
 40
0.5
 40
0.5
 40
0.5
 40
0.5
 40
0.625
 40
0.625
 40
0.625
 40
0.625
 40
0.75
 40
0.75
 40
0.75
 40
0.75
 40
1.0
 40
1.0
 40
1.0
 40
1.0
 10
-4.9906
 20
22.4529
 30
0.0
 10
-4.9906
 20
22.4529
 30
0.0
 10
-4.7806
 20
22.4551
 30
0.0
 10
-4.7806
 20
22.4551
 30
0.0
 10
-4.7806
 20
22.4551
 30
0.0
 10
-4.7806
 20
22.4551
 30
0.0
 10
-4.5766
 20
22.4618
 30
0.0
 10
-4.5766
 20
22.4618
 30
0.0
 10
-4.5766
 20
22.4618
 30
0.0
 10
-4.5766
 20
22.4618
 30
0.0
 10
-4.3962
 20
22.4716
 30
0.0
 10
-4.3962
 20
22.4716
 30
0.0
 10
-4.3962
 20
22.4716
 30
0.0
 10
-4.3962
 20
22.4716
 30
0.0
 10
-4.248
 20
22.4823
 30
0.0
 10
-4.248
 20
22.4823
 30
0.0
 10
-4.248
 20
22.4823
 30
0.0
 10
-4.248
 20
22.4823
 30
0.0
 10
-4.1337
 20
22.4923
 30
0.0
 10
-4.1337
 20
22.4923
 30
0.0
 10
-4.1337
 20
22.4923
 30
0.0
 10
-4.1337
 20
22.4923
 30
0.0
 10
-4.0628
 20
22.4992
 30
0.0
 10
-4.0628
 20
22.4992
 30
0.0
 10
-4.0628
 20
22.4992
 30
0.0
 10
-4.0628
 20
22.4992
 30
0.0
 10
-4.0395
 20
22.5015
 30
0.0
 10
-4.0395
 20
22.5015
 30
0.0
  0
SPLINE
  5
96
330
1F
100
AcDbEntity
  8
VRSTVA_1
 62
   250
100
AcDbSpline
210
0.0
220
0.0
230
1.0
 70
    24
 71
     3
 72
     8
 73
     4
 74
     0
 42
0.0000000001
 43
0.0000000001
 40
0.0
 40
0.0
 40
0.0
 40
0.0
 40
1.0
 40
1.0
 40
1.0
 40
1.0
 10
-4.0753
 20
4.2842
 30
0.0
 10
-4.0753
 20
4.2842
 30
0.0
 10
-4.0205
 20
4.2787
 30
0.0
 10
-4.0205
 20
4.2787
 30
0.0
  0
SPLINE
  5
97
330
1F
100
AcDbEntity
  8
VRSTVA_1
 62
   250
100
AcDbSpline
210
0.0
220
0.0
230
1.0
 70
     8
 71
     3
 72
    32
 73
    28
 74
     0
 42
0.0000000001
 43
0.0000000001
 40
0.0
 40
0.0
 40
0.0
 40
0.0
 40
0.125
 40
0.125
 40
0.125
 40
0.125
 40
0.25
 40
0.25
 40
0.25
 40
0.25
 40
0.375
 40
0.375
 40
0.375
 40
0.375
 40
0.5
 40
0.5
 40
0.5
 40
0.5
 40
0.625
 40
0.625
 40
0.625
 40
0.625
 40
0.75
 40
0.75
 40
0.75
 40
0.75
 40
1.0
 40
1.0
 40
1.0
 40
1.0
 10
-4.9863
 20
19.3323
 30
0.0
 10
-4.9863
 20
19.3323
 30
0.0
 10
-4.7591
 20
19.3534
 30
0.0
 10
-4.7591
 20
19.3534
 30
0.0
 10
-4.7591
 20
19.3534
 30
0.0
 10
-4.7591
 20
19.3534
 30
0.0
 10
-4.5447
 20
19.4156
 30
0.0
 10
-4.5447
 20
19.4156
 30
0.0
 10
-4.5447
 20
19.4156
 30
0.0
 10
-4.5447
 20
19.4156
 30
0.0
 10
-4.3558
 20
19.5148
 30
0.0
 10
-4.3558
 20
19.5148
 30
0.0
 10
-4.3558
 20
19.5148
 30
0.0
 10
-4.3558
 20
19.5148
 30
0.0
 10
-4.2036
 20
19.6438
 30
0.0
 10
-4.2036
 20
19.6438
 30
0.0
 10
-4.2036
 20
19.6438
 30
0.0
 10
-4.2036
 20
19.6438
 30
0.0
 10
-4.0973
 20
19.7935
 30
0.0
 10
-4.0973
 20
19.7935
 30
0.0
 10
-4.0973
 20
19.7935
 30
0.0
 10
-4.0973
 20
19.7935
 30
0.0
 10
-4.0427
 20
19.9538
 30
0.0
 10
-4.0427
 20
19.9538
 30
0.0
 10
-4.0427
 20
19.9538
 30
0.0
 10
-4.0427
 20
19.9538
 30
0.0
 10
-4.036
 20
20.0348
 30
0.0
 10
-4.036
 20
20.0348
 30
0.0
  0
SPLINE
  5
98
330
1F
100
AcDbEntity
  8
VRSTVA_1
 62
   250
100
AcDbSpline
210
0.0
220
0.0
230
1.0
 70
     8
 71
     3
 72
    76
 73
    72
 74
     0
 42
0.0000000001
 43
0.0000000001
 40
0.0
 40
0.0
 40
0.0
 40
0.0
 40
0.0526315789473684
 40
0.0526315789473684
 40
0.0526315789473684
 40
0.0526315789473684
 40
0.1052631578947368
 40
0.1052631578947368
 40
0.1052631578947368
 40
0.1052631578947368
 40
0.1578947368421053
 40
0.1578947368421053
 40
0.1578947368421053
 40
0.1578947368421053
 40
0.2105263157894737
 40
0.2105263157894737
 40
0.2105263157894737
 40
0.2105263157894737
 40
0.2631578947368421
 40
0.2631578947368421
 40
0.2631578947368421
 40
0.2631578947368421
 40
0.3157894736842105
 40
0.3157894736842105
 40
0.3157894736842105
 40
0.3157894736842105
 40
0.3684210526315789
 40
0.3684210526315789
 40
0.3684210526315789
 40
0.3684210526315789
 40
0.4210526315789473
 40
0.4210526315789473
 40
0.4210526315789473
 40
0.4210526315789473
 40
0.4736842105263158
 40
0.4736842105263158
 40
0.4736842105263158
 40
0.4736842105263158
 40
0.5263157894736842
 40
0.5263157894736842
 40
0.5263157894736842
 40
0.5263157894736842
 40
0.5789473684210527
 40
0.5789473684210527
 40
0.5789473684210527
 40
0.5789473684210527
 40
0.631578947368421
 40
0.631578947368421
 40
0.631578947368421
 40
0.631578947368421
 40
0.6842105263157895
 40
0.6842105263157895
 40
0.6842105263157895
 40
0.6842105263157895
 40
0.7368421052631579
 40
0.7368421052631579
 40
0.7368421052631579
 40
0.7368421052631579
 40
0.7894736842105263
 40
0.7894736842105263
 40
0.7894736842105263
 40
0.7894736842105263
 40
0.8421052631578947
 40
0.8421052631578947
 40
0.8421052631578947
 40
0.8421052631578947
 40
0.8947368421052632
 40
0.8947368421052632
 40
0.8947368421052632
 40
0.8947368421052632
 40
1.0
 40
1.0
 40
1.0
 40
1.0
 10
4.539
 20
10.8101
 30
0.0
 10
4.539
 20
10.8101
 30
0.0
 10
4.3012
 20
10.7425
 30
0.0
 10
4.3012
 20
10.7425
 30
0.0
 10
4.3012
 20
10.7425
 30
0.0
 10
4.3012
 20
10.7425
 30
0.0
 10
4.07
 20
10.6593
 30
0.0
 10
4.07
 20
10.6593
 30
0.0
 10
4.07
 20
10.6593
 30
0.0
 10
4.07
 20
10.6593
 30
0.0
 10
3.8463
 20
10.5638
 30
0.0
 10
3.8463
 20
10.5638
 30
0.0
 10
3.8463
 20
10.5638
 30
0.0
 10
3.8463
 20
10.5638
 30
0.0
 10
3.6305
 20
10.4591
 30
0.0
 10
3.6305
 20
10.4591
 30
0.0
 10
3.6305
 20
10.4591
 30
0.0
 10
3.6305
 20
10.4591
 30
0.0
 10
3.42
 20
10.3461
 30
0.0
 10
3.42
 20
10.3461
 30
0.0
 10
3.42
 20
10.3461
 30
0.0
 10
3.42
 20
10.3461
 30
0.0
 10
3.2082
 20
10.2228
 30
0.0
 10
3.2082
 20
10.2228
 30
0.0
 10
3.2082
 20
10.2228
 30
0.0
 10
3.2082
 20
10.2228
 30
0.0
 10
2.9896
 20
10.0866
 30
0.0
 10
2.9896
 20
10.0866
 30
0.0
 10
2.9896
 20
10.0866
 30
0.0
 10
2.9896
 20
10.0866
 30
0.0
 10
2.7598
 20
9.9347
 30
0.0
 10
2.7598
 20
9.9347
 30
0.0
 10
2.7598
 20
9.9347
 30
0.0
 10
2.7598
 20
9.9347
 30
0.0
 10
2.5154
 20
9.7645
 30
0.0
 10
2.5154
 20
9.7645
 30
0.0
 10
2.5154
 20
9.7645
 30
0.0
 10
2.5154
 20
9.7645
 30
0.0
 10
2.2531
 20
9.5733
 30
0.0
 10
2.2531
 20
9.5733
 30
0.0
 10
2.2531
 20
9.5733
 30
0.0
 10
2.2531
 20
9.5733
 30
0.0
 10
1.9721
 20
9.36
 30
0.0
 10
1.9721
 20
9.36
 30
0.0
 10
1.9721
 20
9.36
 30
0.0
 10
1.9721
 20
9.36
 30
0.0
 10
1.6748
 20
9.1261
 30
0.0
 10
1.6748
 20
9.1261
 30
0.0
 10
1.6748
 20
9.1261
 30
0.0
 10
1.6748
 20
9.1261
 30
0.0
 10
1.3675
 20
8.8769
 30
0.0
 10
1.3675
 20
8.8769
 30
0.0
 10
1.3675
 20
8.8769
 30
0.0
 10
1.3675
 20
8.8769
 30
0.0
 10
1.0654
 20
8.6257
 30
0.0
 10
1.0654
 20
8.6257
 30
0.0
 10
1.0654
 20
8.6257
 30
0.0
 10
1.0654
 20
8.6257
 30
0.0
 10
0.794
 20
8.3954
 30
0.0
 10
0.794
 20
8.3954
 30
0.0
 10
0.794
 20
8.3954
 30
0.0
 10
0.794
 20
8.3954
 30
0.0
 10
0.5821
 20
8.2128
 30
0.0
 10
0.5821
 20
8.2128
 30
0.0
 10
0.5821
 20
8.2128
 30
0.0
 10
0.5821
 20
8.2128
 30
0.0
 10
0.4484
 20
8.0968
 30
0.0
 10
0.4484
 20
8.0968
 30
0.0
 10
0.4484
 20
8.0968
 30
0.0
 10
0.4484
 20
8.0968
 30
0.0
 10
0.4047
 20
8.0585
 30
0.0
 10
0.4047
 20
8.0585
 30
0.0
  0
SPLINE
  5
99
330
1F
100
AcDbEntity
  8
VRSTVA_1
 62
   250
100
AcDbSpline
210
0.0
220
0.0
230
1.0
 70
     8
 71
     3
 72
    48
 73
    44
 74
     0
 42
0.0000000001
 43
0.0000000001
 40
0.0
 40
0.0
 40
0.0
 40
0.0
 40
0.0833333333333333
 40
0.0833333333333333
 40
0.0833333333333333
 40
0.0833333333333333
 40
0.1666666666666667
 40
0.1666666666666667
 40
0.1666666666666667
 40
0.1666666666666667
 40
0.25
 40
0.25
 40
0.25
 40
0.25
 40
0.3333333333333333
 40
0.3333333333333333
 40
0.3333333333333333
 40
0.3333333333333333
 40
0.4166666666666667
 40
0.4166666666666667
 40
0.4166666666666667
 40
0.4166666666666667
 40
0.5
 40
0.5
 40
0.5
 40
0.5
 40
0.5833333333333334
 40
0.5833333333333334
 40
0.5833333333333334
 40
0.5833333333333334
 40
0.6666666666666666
 40
0.6666666666666666
 40
0.6666666666666666
 40
0.6666666666666666
 40
0.75
 40
0.75
 40
0.75
 40
0.75
 40
0.8333333333333334
 40
0.8333333333333334
 40
0.8333333333333334
 40
0.8333333333333334
 40
1.0
 40
1.0
 40
1.0
 40
1.0
 10
10.0052
 20
13.4883
 30
0.0
 10
10.0052
 20
13.4883
 30
0.0
 10
9.9492
 20
13.2158
 30
0.0
 10
9.9492
 20
13.2158
 30
0.0
 10
9.9492
 20
13.2158
 30
0.0
 10
9.9492
 20
13.2158
 30
0.0
 10
9.7812
 20
12.9442
 30
0.0
 10
9.7812
 20
12.9442
 30
0.0
 10
9.7812
 20
12.9442
 30
0.0
 10
9.7812
 20
12.9442
 30
0.0
 10
9.503
 20
12.6743
 30
0.0
 10
9.503
 20
12.6743
 30
0.0
 10
9.503
 20
12.6743
 30
0.0
 10
9.503
 20
12.6743
 30
0.0
 10
9.1186
 20
12.4072
 30
0.0
 10
9.1186
 20
12.4072
 30
0.0
 10
9.1186
 20
12.4072
 30
0.0
 10
9.1186
 20
12.4072
 30
0.0
 10
8.6351
 20
12.1451
 30
0.0
 10
8.6351
 20
12.1451
 30
0.0
 10
8.6351
 20
12.1451
 30
0.0
 10
8.6351
 20
12.1451
 30
0.0
 10
8.0646
 20
11.8903
 30
0.0
 10
8.0646
 20
11.8903
 30
0.0
 10
8.0646
 20
11.8903
 30
0.0
 10
8.0646
 20
11.8903
 30
0.0
 10
7.4275
 20
11.6472
 30
0.0
 10
7.4275
 20
11.6472
 30
0.0
 10
7.4275
 20
11.6472
 30
0.0
 10
7.4275
 20
11.6472
 30
0.0
 10
6.7438
 20
11.418
 30
0.0
 10
6.7438
 20
11.418
 30
0.0
 10
6.7438
 20
11.418
 30
0.0
 10
6.7438
 20
11.418
 30
0.0
 10
6.0212
 20
11.2008
 30
0.0
 10
6.0212
 20
11.2008
 30
0.0
 10
6.0212
 20
11.2008
 30
0.0
 10
6.0212
 20
11.2008
 30
0.0
 10
5.2772
 20
10.997
 30
0.0
 10
5.2772
 20
10.997
 30
0.0
 10
5.2772
 20
10.997
 30
0.0
 10
5.2772
 20
10.997
 30
0.0
 10
4.539
 20
10.8101
 30
0.0
 10
4.539
 20
10.8101
 30
0.0
  0
SPLINE
  5
9A
330
1F
100
AcDbEntity
  8
VRSTVA_1
 62
   250
100
AcDbSpline
210
0.0
220
0.0
230
1.0
 70
    24
 71
     3
 72
     8
 73
     4
 74
     0
 42
0.0000000001
 43
0.0000000001
 40
0.0
 40
0.0
 40
0.0
 40
0.0
 40
1.0
 40
1.0
 40
1.0
 40
1.0
 10
-11.8187
 20
6.3858
 30
0.0
 10
-11.8187
 20
6.3858
 30
0.0
 10
-16.6715
 20
6.3858
 30
0.0
 10
-16.6715
 20
6.3858
 30
0.0
  0
SPLINE
  5
9B
330
1F
100
AcDbEntity
  8
VRSTVA_1
 62
   250
100
AcDbSpline
210
0.0
220
0.0
230
1.0
 70
    11
 71
     3
 72
    20
 73
    16
 74
     0
 42
0.0000000001
 43
0.0000000001
 40
0.0
 40
0.0
 40
0.0
 40
0.0
 40
0.2
 40
0.2
 40
0.2
 40
0.2
 40
0.4
 40
0.4
 40
0.4
 40
0.4
 40
0.6
 40
0.6
 40
0.6
 40
0.6
 40
1.0
 40
1.0
 40
1.0
 40
1.0
 10
-15.4128
 20
23.6689
 30
0.0
 10
-15.4128
 20
23.6689
 30
0.0
 10
-15.8361
 20
20.6689
 30
0.0
 10
-15.8361
 20
20.6689
 30
0.0
 10
-15.8361
 20
20.6689
 30
0.0
 10
-15.8361
 20
20.6689
 30
0.0
 10
-15.9302
 20
20.6689
 30
0.0
 10
-15.9302
 20
20.6689
 30
0.0
 10
-15.9302
 20
20.6689
 30
0.0
 10
-15.9302
 20
20.6689
 30
0.0
 10
-16.3817
 20
23.6689
 30
0.0
 10
-16.3817
 20
23.6689
 30
0.0
 10
-16.3817
 20
23.6689
 30
0.0
 10
-16.3817
 20
23.6689
 30
0.0
 10
-15.4128
 20
23.6689
 30
0.0
 10
-15.4128
 20
23.6689
 30
0.0
  0
SPLINE
  5
9C
330
1F
100
AcDbEntity
  8
VRSTVA_1
 62
   250
100
AcDbSpline
210
0.0
220
0.0
230
1.0
 70
    11
 71
     3
 72
    20
 73
    16
 74
     0
 42
0.0000000001
 43
0.0000000001
 40
0.0
 40
0.0
 40
0.0
 40
0.0
 40
0.2
 40
0.2
 40
0.2
 40
0.2
 40
0.4
 40
0.4
 40
0.4
 40
0.4
 40
0.6
 40
0.6
 40
0.6
 40
0.6
 40
1.0
 40
1.0
 40
1.0
 40
1.0
 10
-16.3425
 20
3.3644
 30
0.0
 10
-16.3425
 20
3.3644
 30
0.0
 10
-15.919
 20
6.3644
 30
0.0
 10
-15.919
 20
6.3644
 30
0.0
 10
-15.919
 20
6.3644
 30
0.0
 10
-15.919
 20
6.3644
 30
0.0
 10
-15.825
 20
6.3644
 30
0.0
 10
-15.825
 20
6.3644
 30
0.0
 10
-15.825
 20
6.3644
 30
0.0
 10
-15.825
 20
6.3644
 30
0.0
 10
-15.3734
 20
3.3644
 30
0.0
 10
-15.3734
 20
3.3644
 30
0.0
 10
-15.3734
 20
3.3644
 30
0.0
 10
-15.3734
 20
3.3644
 30
0.0
 10
-16.3425
 20
3.3644
 30
0.0
 10
-16.3425
 20
3.3644
 30
0.0
  0
SPLINE
  5
9D
330
1F
100
AcDbEntity
  8
VRSTVA_1
 62
   250
100
AcDbSpline
210
0.0
220
0.0
230
1.0
 70
    11
 71
     3
 72
   120
 73
   116
 74
     0
 42
0.0000000001
 43
0.0000000001
 40
0.0
 40
0.0
 40
0.0
 40
0.0
 40
0.0333333333333333
 40
0.0333333333333333
 40
0.0333333333333333
 40
0.0333333333333333
 40
0.0666666666666667
 40
0.0666666666666667
 40
0.0666666666666667
 40
0.0666666666666667
 40
0.1
 40
0.1
 40
0.1
 40
0.1
 40
0.1333333333333333
 40
0.1333333333333333
 40
0.1333333333333333
 40
0.1333333333333333
 40
0.1666666666666667
 40
0.1666666666666667
 40
0.1666666666666667
 40
0.1666666666666667
 40
0.2
 40
0.2
 40
0.2
 40
0.2
 40
0.2333333333333333
 40
0.2333333333333333
 40
0.2333333333333333
 40
0.2333333333333333
 40
0.2666666666666667
 40
0.2666666666666667
 40
0.2666666666666667
 40
0.2666666666666667
 40
0.3
 40
0.3
 40
0.3
 40
0.3
 40
0.3333333333333333
 40
0.3333333333333333
 40
0.3333333333333333
 40
0.3333333333333333
 40
0.3666666666666666
 40
0.3666666666666666
 40
0.3666666666666666
 40
0.3666666666666666
 40
0.4
 40
0.4
 40
0.4
 40
0.4
 40
0.4333333333333333
 40
0.4333333333333333
 40
0.4333333333333333
 40
0.4333333333333333
 40
0.4666666666666667
 40
0.4666666666666667
 40
0.4666666666666667
 40
0.4666666666666667
 40
0.5
 40
0.5
 40
0.5
 40
0.5
 40
0.5333333333333333
 40
0.5333333333333333
 40
0.5333333333333333
 40
0.5333333333333333
 40
0.5666666666666667
 40
0.5666666666666667
 40
0.5666666666666667
 40
0.5666666666666667
 40
0.6
 40
0.6
 40
0.6
 40
0.6
 40
0.6333333333333333
 40
0.6333333333333333
 40
0.6333333333333333
 40
0.6333333333333333
 40
0.6666666666666666
 40
0.6666666666666666
 40
0.6666666666666666
 40
0.6666666666666666
 40
0.7
 40
0.7
 40
0.7
 40
0.7
 40
0.7333333333333333
 40
0.7333333333333333
 40
0.7333333333333333
 40
0.7333333333333333
 40
0.7666666666666667
 40
0.7666666666666667
 40
0.7666666666666667
 40
0.7666666666666667
 40
0.8
 40
0.8
 40
0.8
 40
0.8
 40
0.8333333333333334
 40
0.8333333333333334
 40
0.8333333333333334
 40
0.8333333333333334
 40
0.8666666666666667
 40
0.8666666666666667
 40
0.8666666666666667
 40
0.8666666666666667
 40
0.9
 40
0.9
 40
0.9
 40
0.9
 40
0.9333333333333333
 40
0.9333333333333333
 40
0.9333333333333333
 40
0.9333333333333333
 40
1.0
 40
1.0
 40
1.0
 40
1.0
 10
-17.4451
 20
11.947
 30
0.0
 10
-17.4451
 20
11.947
 30
0.0
 10
-17.7409
 20
11.947
 30
0.0
 10
-17.7409
 20
11.947
 30
0.0
 10
-17.7409
 20
11.947
 30
0.0
 10
-17.7409
 20
11.947
 30
0.0
 10
-17.7426
 20
13.0165
 30
0.0
 10
-17.7426
 20
13.0165
 30
0.0
 10
-17.7426
 20
13.0165
 30
0.0
 10
-17.7426
 20
13.0165
 30
0.0
 10
-16.806
 20
13.0165
 30
0.0
 10
-16.806
 20
13.0165
 30
0.0
 10
-16.806
 20
13.0165
 30
0.0
 10
-16.6749
 20
12.8525
 30
0.0
 10
-16.5767
 20
12.6831
 30
0.0
 10
-16.5103
 20
12.5085
 30
0.0
 10
-16.5103
 20
12.5085
 30
0.0
 10
-16.4444
 20
12.3339
 30
0.0
 10
-16.4115
 20
12.1546
 30
0.0
 10
-16.4115
 20
11.9711
 30
0.0
 10
-16.4115
 20
11.9711
 30
0.0
 10
-16.4115
 20
11.723
 30
0.0
 10
-16.4644
 20
11.4972
 30
0.0
 10
-16.5708
 20
11.295
 30
0.0
 10
-16.5708
 20
11.295
 30
0.0
 10
-16.6766
 20
11.0921
 30
0.0
 10
-16.8307
 20
10.9393
 30
0.0
 10
-17.0312
 20
10.8358
 30
0.0
 10
-17.0312
 20
10.8358
 30
0.0
 10
-17.2323
 20
10.7323
 30
0.0
 10
-17.4569
 20
10.6806
 30
0.0
 10
-17.705
 20
10.6806
 30
0.0
 10
-17.705
 20
10.6806
 30
0.0
 10
-17.9508
 20
10.6806
 30
0.0
 10
-18.1801
 20
10.7323
 30
0.0
 10
-18.3929
 20
10.8352
 30
0.0
 10
-18.3929
 20
10.8352
 30
0.0
 10
-18.6063
 20
10.9375
 30
0.0
 10
-18.7645
 20
11.0857
 30
0.0
 10
-18.868
 20
11.2785
 30
0.0
 10
-18.868
 20
11.2785
 30
0.0
 10
-18.9709
 20
11.4714
 30
0.0
 10
-19.0226
 20
11.6936
 30
0.0
 10
-19.0226
 20
11.9453
 30
0.0
 10
-19.0226
 20
11.9453
 30
0.0
 10
-19.0226
 20
12.1275
 30
0.0
 10
-18.9932
 20
12.2927
 30
0.0
 10
-18.9338
 20
12.4403
 30
0.0
 10
-18.9338
 20
12.4403
 30
0.0
 10
-18.875
 20
12.5879
 30
0.0
 10
-18.7927
 20
12.7037
 30
0.0
 10
-18.6869
 20
12.7872
 30
0.0
 10
-18.6869
 20
12.7872
 30
0.0
 10
-18.581
 20
12.8713
 30
0.0
 10
-18.4435
 20
12.9348
 30
0.0
 10
-18.2736
 20
12.9789
 30
0.0
 10
-18.2736
 20
12.9789
 30
0.0
 10
-18.2736
 20
12.9789
 30
0.0
 10
-18.1906
 20
12.6773
 30
0.0
 10
-18.1906
 20
12.6773
 30
0.0
 10
-18.1906
 20
12.6773
 30
0.0
 10
-18.3194
 20
12.6391
 30
0.0
 10
-18.4205
 20
12.592
 30
0.0
 10
-18.494
 20
12.5362
 30
0.0
 10
-18.494
 20
12.5362
 30
0.0
 10
-18.5675
 20
12.4797
 30
0.0
 10
-18.6263
 20
12.3992
 30
0.0
 10
-18.6704
 20
12.2945
 30
0.0
 10
-18.6704
 20
12.2945
 30
0.0
 10
-18.7145
 20
12.1904
 30
0.0
 10
-18.7369
 20
12.074
 30
0.0
 10
-18.7369
 20
11.947
 30
0.0
 10
-18.7369
 20
11.947
 30
0.0
 10
-18.7369
 20
11.7942
 30
0.0
 10
-18.7133
 20
11.6619
 30
0.0
 10
-18.6669
 20
11.5508
 30
0.0
 10
-18.6669
 20
11.5508
 30
0.0
 10
-18.6205
 20
11.439
 30
0.0
 10
-18.5593
 20
11.3496
 30
0.0
 10
-18.4835
 20
11.2809
 30
0.0
 10
-18.4835
 20
11.2809
 30
0.0
 10
-18.4076
 20
11.2127
 30
0.0
 10
-18.3247
 20
11.1597
 30
0.0
 10
-18.2336
 20
11.1215
 30
0.0
 10
-18.2336
 20
11.1215
 30
0.0
 10
-18.0778
 20
11.0574
 30
0.0
 10
-17.9084
 20
11.0251
 30
0.0
 10
-17.7256
 20
11.0251
 30
0.0
 10
-17.7256
 20
11.0251
 30
0.0
 10
-17.5004
 20
11.0251
 30
0.0
 10
-17.3122
 20
11.0639
 30
0.0
 10
-17.1605
 20
11.1415
 30
0.0
 10
-17.1605
 20
11.1415
 30
0.0
 10
-17.0088
 20
11.2191
 30
0.0
 10
-16.8966
 20
11.332
 30
0.0
 10
-16.8231
 20
11.4802
 30
0.0
 10
-16.8231
 20
11.4802
 30
0.0
 10
-16.7496
 20
11.6283
 30
0.0
 10
-16.7125
 20
11.7853
 30
0.0
 10
-16.7125
 20
11.9517
 30
0.0
 10
-16.7125
 20
11.9517
 30
0.0
 10
-16.7125
 20
12.097
 30
0.0
 10
-16.7407
 20
12.2381
 30
0.0
 10
-16.7966
 20
12.3757
 30
0.0
 10
-16.7966
 20
12.3757
 30
0.0
 10
-16.8519
 20
12.5138
 30
0.0
 10
-16.9113
 20
12.6179
 30
0.0
 10
-16.9748
 20
12.689
 30
0.0
 10
-16.9748
 20
12.689
 30
0.0
 10
-16.9748
 20
12.689
 30
0.0
 10
-17.4451
 20
12.689
 30
0.0
 10
-17.4451
 20
12.689
 30
0.0
 10
-17.4451
 20
12.689
 30
0.0
 10
-17.4451
 20
12.689
 30
0.0
 10
-17.4451
 20
11.947
 30
0.0
 10
-17.4451
 20
11.947
 30
0.0
  0
SPLINE
  5
9E
330
1F
100
AcDbEntity
  8
VRSTVA_1
 62
   250
100
AcDbSpline
210
0.0
220
0.0
230
1.0
 70
    11
 71
     3
 72
    40
 73
    36
 74
     0
 42
0.0000000001
 43
0.0000000001
 40
0.0
 40
0.0
 40
0.0
 40
0.0
 40
0.1
 40
0.1
 40
0.1
 40
0.1
 40
0.2
 40
0.2
 40
0.2
 40
0.2
 40
0.3
 40
0.3
 40
0.3
 40
0.3
 40
0.4
 40
0.4
 40
0.4
 40
0.4
 40
0.5
 40
0.5
 40
0.5
 40
0.5
 40
0.6
 40
0.6
 40
0.6
 40
0.6
 40
0.7
 40
0.7
 40
0.7
 40
0.7
 40
0.8
 40
0.8
 40
0.8
 40
0.8
 40
1.0
 40
1.0
 40
1.0
 40
1.0
 10
-16.4544
 20
15.5312
 30
0.0
 10
-16.4544
 20
15.5312
 30
0.0
 10
-16.4544
 20
15.2214
 30
0.0
 10
-16.4544
 20
15.2214
 30
0.0
 10
-16.4544
 20
15.2214
 30
0.0
 10
-16.4544
 20
15.2214
 30
0.0
 10
-18.43
 20
15.2214
 30
0.0
 10
-18.43
 20
15.2214
 30
0.0
 10
-18.43
 20
15.2214
 30
0.0
 10
-18.3588
 20
15.1467
 30
0.0
 10
-18.2877
 20
15.0491
 30
0.0
 10
-18.2165
 20
14.928
 30
0.0
 10
-18.2165
 20
14.928
 30
0.0
 10
-18.1454
 20
14.8063
 30
0.0
 10
-18.0919
 20
14.6975
 30
0.0
 10
-18.0566
 20
14.6011
 30
0.0
 10
-18.0566
 20
14.6011
 30
0.0
 10
-18.0566
 20
14.6011
 30
0.0
 10
-18.3559
 20
14.6011
 30
0.0
 10
-18.3559
 20
14.6011
 30
0.0
 10
-18.3559
 20
14.6011
 30
0.0
 10
-18.4376
 20
14.7745
 30
0.0
 10
-18.5364
 20
14.9262
 30
0.0
 10
-18.6522
 20
15.0562
 30
0.0
 10
-18.6522
 20
15.0562
 30
0.0
 10
-18.7686
 20
15.1855
 30
0.0
 10
-18.8809
 20
15.2778
 30
0.0
 10
-18.9903
 20
15.3319
 30
0.0
 10
-18.9903
 20
15.3319
 30
0.0
 10
-18.9903
 20
15.3319
 30
0.0
 10
-18.9903
 20
15.5312
 30
0.0
 10
-18.9903
 20
15.5312
 30
0.0
 10
-18.9903
 20
15.5312
 30
0.0
 10
-18.9903
 20
15.5312
 30
0.0
 10
-16.4544
 20
15.5312
 30
0.0
 10
-16.4544
 20
15.5312
 30
0.0
  0
SPLINE
  5
9F
330
1F
100
AcDbEntity
  8
VRSTVA_1
 62
   250
100
AcDbSpline
210
0.0
220
0.0
230
1.0
 70
    11
 71
     3
 72
    28
 73
    24
 74
     0
 42
0.0000000001
 43
0.0000000001
 40
0.0
 40
0.0
 40
0.0
 40
0.0
 40
0.1428571428571428
 40
0.1428571428571428
 40
0.1428571428571428
 40
0.1428571428571428
 40
0.2857142857142857
 40
0.2857142857142857
 40
0.2857142857142857
 40
0.2857142857142857
 40
0.4285714285714285
 40
0.4285714285714285
 40
0.4285714285714285
 40
0.4285714285714285
 40
0.5714285714285714
 40
0.5714285714285714
 40
0.5714285714285714
 40
0.5714285714285714
 40
0.7142857142857143
 40
0.7142857142857143
 40
0.7142857142857143
 40
0.7142857142857143
 40
1.0
 40
1.0
 40
1.0
 40
1.0
 10
-18.0854
 20
16.4273
 30
0.0
 10
-18.0854
 20
16.4273
 30
0.0
 10
-18.5664
 20
16.3409
 30
0.0
 10
-18.5664
 20
16.3409
 30
0.0
 10
-18.5664
 20
16.3409
 30
0.0
 10
-18.5664
 20
16.3409
 30
0.0
 10
-18.9797
 20
16.3409
 30
0.0
 10
-18.9797
 20
16.3409
 30
0.0
 10
-18.9797
 20
16.3409
 30
0.0
 10
-18.9797
 20
16.3409
 30
0.0
 10
-18.9797
 20
16.6942
 30
0.0
 10
-18.9797
 20
16.6942
 30
0.0
 10
-18.9797
 20
16.6942
 30
0.0
 10
-18.9797
 20
16.6942
 30
0.0
 10
-18.5664
 20
16.6942
 30
0.0
 10
-18.5664
 20
16.6942
 30
0.0
 10
-18.5664
 20
16.6942
 30
0.0
 10
-18.5664
 20
16.6942
 30
0.0
 10
-18.0854
 20
16.6166
 30
0.0
 10
-18.0854
 20
16.6166
 30
0.0
 10
-18.0854
 20
16.6166
 30
0.0
 10
-18.0854
 20
16.6166
 30
0.0
 10
-18.0854
 20
16.4273
 30
0.0
 10
-18.0854
 20
16.4273
 30
0.0
  0
SPLINE
  5
A0
330
1F
100
AcDbEntity
  8
VRSTVA_1
 62
   250
100
AcDbSpline
210
0.0
220
0.0
230
1.0
 70
    11
 71
     3
 72
    28
 73
    24
 74
     0
 42
0.0000000001
 43
0.0000000001
 40
0.0
 40
0.0
 40
0.0
 40
0.0
 40
0.1428571428571428
 40
0.1428571428571428
 40
0.1428571428571428
 40
0.1428571428571428
 40
0.2857142857142857
 40
0.2857142857142857
 40
0.2857142857142857
 40
0.2857142857142857
 40
0.4285714285714285
 40
0.4285714285714285
 40
0.4285714285714285
 40
0.4285714285714285
 40
0.5714285714285714
 40
0.5714285714285714
 40
0.5714285714285714
 40
0.5714285714285714
 40
0.7142857142857143
 40
0.7142857142857143
 40
0.7142857142857143
 40
0.7142857142857143
 40
1.0
 40
1.0
 40
1.0
 40
1.0
 10
-18.0854
 20
16.9976
 30
0.0
 10
-18.0854
 20
16.9976
 30
0.0
 10
-18.5664
 20
16.9129
 30
0.0
 10
-18.5664
 20
16.9129
 30
0.0
 10
-18.5664
 20
16.9129
 30
0.0
 10
-18.5664
 20
16.9129
 30
0.0
 10
-18.9797
 20
16.9129
 30
0.0
 10
-18.9797
 20
16.9129
 30
0.0
 10
-18.9797
 20
16.9129
 30
0.0
 10
-18.9797
 20
16.9129
 30
0.0
 10
-18.9797
 20
17.2663
 30
0.0
 10
-18.9797
 20
17.2663
 30
0.0
 10
-18.9797
 20
17.2663
 30
0.0
 10
-18.9797
 20
17.2663
 30
0.0
 10
-18.5664
 20
17.2663
 30
0.0
 10
-18.5664
 20
17.2663
 30
0.0
 10
-18.5664
 20
17.2663
 30
0.0
 10
-18.5664
 20
17.2663
 30
0.0
 10
-18.0854
 20
17.1834
 30
0.0
 10
-18.0854
 20
17.1834
 30
0.0
 10
-18.0854
 20
17.1834
 30
0.0
 10
-18.0854
 20
17.1834
 30
0.0
 10
-18.0854
 20
16.9976
 30
0.0
 10
-18.0854
 20
16.9976
 30
0.0
  0
SPLINE
  5
A1
330
1F
100
AcDbEntity
  8
VRSTVA_1
 62
   250
100
AcDbSpline
210
0.0
220
0.0
230
1.0
 70
    11
 71
     3
 72
    84
 73
    80
 74
     0
 42
0.0000000001
 43
0.0000000001
 40
0.0
 40
0.0
 40
0.0
 40
0.0
 40
0.0476190476190476
 40
0.0476190476190476
 40
0.0476190476190476
 40
0.0476190476190476
 40
0.0952380952380952
 40
0.0952380952380952
 40
0.0952380952380952
 40
0.0952380952380952
 40
0.1428571428571428
 40
0.1428571428571428
 40
0.1428571428571428
 40
0.1428571428571428
 40
0.1904761904761905
 40
0.1904761904761905
 40
0.1904761904761905
 40
0.1904761904761905
 40
0.2380952380952381
 40
0.2380952380952381
 40
0.2380952380952381
 40
0.2380952380952381
 40
0.2857142857142857
 40
0.2857142857142857
 40
0.2857142857142857
 40
0.2857142857142857
 40
0.3333333333333333
 40
0.3333333333333333
 40
0.3333333333333333
 40
0.3333333333333333
 40
0.3809523809523809
 40
0.3809523809523809
 40
0.3809523809523809
 40
0.3809523809523809
 40
0.4285714285714285
 40
0.4285714285714285
 40
0.4285714285714285
 40
0.4285714285714285
 40
0.4761904761904762
 40
0.4761904761904762
 40
0.4761904761904762
 40
0.4761904761904762
 40
0.5238095238095238
 40
0.5238095238095238
 40
0.5238095238095238
 40
0.5238095238095238
 40
0.5714285714285714
 40
0.5714285714285714
 40
0.5714285714285714
 40
0.5714285714285714
 40
0.6190476190476191
 40
0.6190476190476191
 40
0.6190476190476191
 40
0.6190476190476191
 40
0.6666666666666666
 40
0.6666666666666666
 40
0.6666666666666666
 40
0.6666666666666666
 40
0.7142857142857143
 40
0.7142857142857143
 40
0.7142857142857143
 40
0.7142857142857143
 40
0.7619047619047619
 40
0.7619047619047619
 40
0.7619047619047619
 40
0.7619047619047619
 40
0.8095238095238095
 40
0.8095238095238095
 40
0.8095238095238095
 40
0.8095238095238095
 40
0.8571428571428571
 40
0.8571428571428571
 40
0.8571428571428571
 40
0.8571428571428571
 40
0.9047619047619048
 40
0.9047619047619048
 40
0.9047619047619048
 40
0.9047619047619048
 40
1.0
 40
1.0
 40
1.0
 40
1.0
 10
4.2336
 20
-20.5319
 30
0.0
 10
4.2336
 20
-20.5319
 30
0.0
 10
4.5229
 20
-20.2079
 30
0.0
 10
4.5229
 20
-20.2079
 30
0.0
 10
4.5229
 20
-20.2079
 30
0.0
 10
4.5229
 20
-20.2079
 30
0.0
 10
4.6934
 20
-20.3525
 30
0.0
 10
4.6934
 20
-20.3525
 30
0.0
 10
4.6934
 20
-20.3525
 30
0.0
 10
4.6934
 20
-20.3525
 30
0.0
 10
4.3906
 20
-20.6936
 30
0.0
 10
4.3906
 20
-20.6936
 30
0.0
 10
4.3906
 20
-20.6936
 30
0.0
 10
4.4894
 20
-20.8405
 30
0.0
 10
4.5558
 20
-20.9693
 30
0.0
 10
4.5905
 20
-21.0793
 30
0.0
 10
4.5905
 20
-21.0793
 30
0.0
 10
4.6364
 20
-21.2239
 30
0.0
 10
4.6593
 20
-21.3862
 30
0.0
 10
4.6593
 20
-21.5649
 30
0.0
 10
4.6593
 20
-21.5649
 30
0.0
 10
4.6593
 20
-21.8236
 30
0.0
 10
4.607
 20
-22.0541
 30
0.0
 10
4.5023
 20
-22.2558
 30
0.0
 10
4.5023
 20
-22.2558
 30
0.0
 10
4.3976
 20
-22.458
 30
0.0
 10
4.2513
 20
-22.6109
 30
0.0
 10
4.0625
 20
-22.7144
 30
0.0
 10
4.0625
 20
-22.7144
 30
0.0
 10
3.8732
 20
-22.8173
 30
0.0
 10
3.6727
 20
-22.869
 30
0.0
 10
3.4605
 20
-22.869
 30
0.0
 10
3.4605
 20
-22.869
 30
0.0
 10
3.3017
 20
-22.869
 30
0.0
 10
3.1582
 20
-22.8467
 30
0.0
 10
3.0295
 20
-22.802
 30
0.0
 10
3.0295
 20
-22.802
 30
0.0
 10
2.9307
 20
-22.7673
 30
0.0
 10
2.8154
 20
-22.7014
 30
0.0
 10
2.6832
 20
-22.6039
 30
0.0
 10
2.6832
 20
-22.6039
 30
0.0
 10
2.6832
 20
-22.6039
 30
0.0
 10
2.3939
 20
-22.9278
 30
0.0
 10
2.3939
 20
-22.9278
 30
0.0
 10
2.3939
 20
-22.9278
 30
0.0
 10
2.3939
 20
-22.9278
 30
0.0
 10
2.2234
 20
-22.7832
 30
0.0
 10
2.2234
 20
-22.7832
 30
0.0
 10
2.2234
 20
-22.7832
 30
0.0
 10
2.2234
 20
-22.7832
 30
0.0
 10
2.5268
 20
-22.4439
 30
0.0
 10
2.5268
 20
-22.4439
 30
0.0
 10
2.5268
 20
-22.4439
 30
0.0
 10
2.4139
 20
-22.2728
 30
0.0
 10
2.3386
 20
-22.1264
 30
0.0
 10
2.301
 20
-22.0053
 30
0.0
 10
2.301
 20
-22.0053
 30
0.0
 10
2.2634
 20
-21.8842
 30
0.0
 10
2.244
 20
-21.7384
 30
0.0
 10
2.244
 20
-21.5685
 30
0.0
 10
2.244
 20
-21.5685
 30
0.0
 10
2.244
 20
-21.3092
 30
0.0
 10
2.2957
 20
-21.0781
 30
0.0
 10
2.3992
 20
-20.8752
 30
0.0
 10
2.3992
 20
-20.8752
 30
0.0
 10
2.5027
 20
-20.6724
 30
0.0
 10
2.6473
 20
-20.5189
 30
0.0
 10
2.8343
 20
-20.4143
 30
0.0
 10
2.8343
 20
-20.4143
 30
0.0
 10
3.0206
 20
-20.3102
 30
0.0
 10
3.2282
 20
-20.2579
 30
0.0
 10
3.4569
 20
-20.2579
 30
0.0
 10
3.4569
 20
-20.2579
 30
0.0
 10
3.611
 20
-20.2579
 30
0.0
 10
3.7456
 20
-20.2779
 30
0.0
 10
3.8609
 20
-20.319
 30
0.0
 10
3.8609
 20
-20.319
 30
0.0
 10
3.9761
 20
-20.3596
 30
0.0
 10
4.1007
 20
-20.4308
 30
0.0
 10
4.2336
 20
-20.5319
 30
0.0
  0
SPLINE
  5
A2
330
1F
100
AcDbEntity
  8
VRSTVA_1
 62
   250
100
AcDbSpline
210
0.0
220
0.0
230
1.0
 70
    11
 71
     3
 72
    32
 73
    28
 74
     0
 42
0.0000000001
 43
0.0000000001
 40
0.0
 40
0.0
 40
0.0
 40
0.0
 40
0.125
 40
0.125
 40
0.125
 40
0.125
 40
0.25
 40
0.25
 40
0.25
 40
0.25
 40
0.375
 40
0.375
 40
0.375
 40
0.375
 40
0.5
 40
0.5
 40
0.5
 40
0.5
 40
0.625
 40
0.625
 40
0.625
 40
0.625
 40
0.75
 40
0.75
 40
0.75
 40
0.75
 40
1.0
 40
1.0
 40
1.0
 40
1.0
 10
4.0272
 20
-20.7641
 30
0.0
 10
3.9191
 20
-20.6795
 30
0.0
 10
3.8244
 20
-20.6212
 30
0.0
 10
3.7438
 20
-20.5901
 30
0.0
 10
3.7438
 20
-20.5901
 30
0.0
 10
3.6627
 20
-20.5595
 30
0.0
 10
3.5675
 20
-20.5436
 30
0.0
 10
3.4587
 20
-20.5436
 30
0.0
 10
3.4587
 20
-20.5436
 30
0.0
 10
3.207
 20
-20.5436
 30
0.0
 10
2.9995
 20
-20.6289
 30
0.0
 10
2.8349
 20
-20.7994
 30
0.0
 10
2.8349
 20
-20.7994
 30
0.0
 10
2.6708
 20
-20.9699
 30
0.0
 10
2.5885
 20
-21.2245
 30
0.0
 10
2.5885
 20
-21.5638
 30
0.0
 10
2.5885
 20
-21.5638
 30
0.0
 10
2.5885
 20
-21.6966
 30
0.0
 10
2.6014
 20
-21.8148
 30
0.0
 10
2.6267
 20
-21.9183
 30
0.0
 10
2.6267
 20
-21.9183
 30
0.0
 10
2.6449
 20
-21.9953
 30
0.0
 10
2.6832
 20
-22.09
 30
0.0
 10
2.7419
 20
-22.2023
 30
0.0
 10
2.7419
 20
-22.2023
 30
0.0
 10
2.7419
 20
-22.2023
 30
0.0
 10
4.0272
 20
-20.7641
 30
0.0
 10
4.0272
 20
-20.7641
 30
0.0
  0
SPLINE
  5
A3
330
1F
100
AcDbEntity
  8
VRSTVA_1
 62
   250
100
AcDbSpline
210
0.0
220
0.0
230
1.0
 70
    11
 71
     3
 72
    28
 73
    24
 74
     0
 42
0.0000000001
 43
0.0000000001
 40
0.0
 40
0.0
 40
0.0
 40
0.0
 40
0.1428571428571428
 40
0.1428571428571428
 40
0.1428571428571428
 40
0.1428571428571428
 40
0.2857142857142857
 40
0.2857142857142857
 40
0.2857142857142857
 40
0.2857142857142857
 40
0.4285714285714285
 40
0.4285714285714285
 40
0.4285714285714285
 40
0.4285714285714285
 40
0.5714285714285714
 40
0.5714285714285714
 40
0.5714285714285714
 40
0.5714285714285714
 40
0.7142857142857143
 40
0.7142857142857143
 40
0.7142857142857143
 40
0.7142857142857143
 40
1.0
 40
1.0
 40
1.0
 40
1.0
 10
4.1684
 20
-20.9417
 30
0.0
 10
4.1684
 20
-20.9417
 30
0.0
 10
2.8884
 20
-22.3745
 30
0.0
 10
2.8884
 20
-22.3745
 30
0.0
 10
2.8884
 20
-22.3745
 30
0.0
 10
2.9766
 20
-22.4469
 30
0.0
 10
3.0583
 20
-22.4974
 30
0.0
 10
3.133
 20
-22.5262
 30
0.0
 10
3.133
 20
-22.5262
 30
0.0
 10
3.2305
 20
-22.5644
 30
0.0
 10
3.3364
 20
-22.5833
 30
0.0
 10
3.4499
 20
-22.5833
 30
0.0
 10
3.4499
 20
-22.5833
 30
0.0
 10
3.7003
 20
-22.5833
 30
0.0
 10
3.9067
 20
-22.4951
 30
0.0
 10
4.0702
 20
-22.3181
 30
0.0
 10
4.0702
 20
-22.3181
 30
0.0
 10
4.233
 20
-22.1411
 30
0.0
 10
4.3148
 20
-21.893
 30
0.0
 10
4.3148
 20
-21.5738
 30
0.0
 10
4.3148
 20
-21.5738
 30
0.0
 10
4.3148
 20
-21.335
 30
0.0
 10
4.2659
 20
-21.1239
 30
0.0
 10
4.1684
 20
-20.9417
 30
0.0
  0
SPLINE
  5
A4
330
1F
100
AcDbEntity
  8
VRSTVA_1
 62
   250
100
AcDbSpline
210
0.0
220
0.0
230
1.0
 70
    11
 71
     3
 72
    92
 73
    88
 74
     0
 42
0.0000000001
 43
0.0000000001
 40
0.0
 40
0.0
 40
0.0
 40
0.0
 40
0.0434782608695652
 40
0.0434782608695652
 40
0.0434782608695652
 40
0.0434782608695652
 40
0.0869565217391304
 40
0.0869565217391304
 40
0.0869565217391304
 40
0.0869565217391304
 40
0.1304347826086956
 40
0.1304347826086956
 40
0.1304347826086956
 40
0.1304347826086956
 40
0.1739130434782609
 40
0.1739130434782609
 40
0.1739130434782609
 40
0.1739130434782609
 40
0.2173913043478261
 40
0.2173913043478261
 40
0.2173913043478261
 40
0.2173913043478261
 40
0.2608695652173913
 40
0.2608695652173913
 40
0.2608695652173913
 40
0.2608695652173913
 40
0.3043478260869565
 40
0.3043478260869565
 40
0.3043478260869565
 40
0.3043478260869565
 40
0.3478260869565217
 40
0.3478260869565217
 40
0.3478260869565217
 40
0.3478260869565217
 40
0.391304347826087
 40
0.391304347826087
 40
0.391304347826087
 40
0.391304347826087
 40
0.4347826086956522
 40
0.4347826086956522
 40
0.4347826086956522
 40
0.4347826086956522
 40
0.4782608695652174
 40
0.4782608695652174
 40
0.4782608695652174
 40
0.4782608695652174
 40
0.5217391304347826
 40
0.5217391304347826
 40
0.5217391304347826
 40
0.5217391304347826
 40
0.5652173913043478
 40
0.5652173913043478
 40
0.5652173913043478
 40
0.5652173913043478
 40
0.6086956521739131
 40
0.6086956521739131
 40
0.6086956521739131
 40
0.6086956521739131
 40
0.6521739130434783
 40
0.6521739130434783
 40
0.6521739130434783
 40
0.6521739130434783
 40
0.6956521739130435
 40
0.6956521739130435
 40
0.6956521739130435
 40
0.6956521739130435
 40
0.7391304347826086
 40
0.7391304347826086
 40
0.7391304347826086
 40
0.7391304347826086
 40
0.782608695652174
 40
0.782608695652174
 40
0.782608695652174
 40
0.782608695652174
 40
0.8260869565217391
 40
0.8260869565217391
 40
0.8260869565217391
 40
0.8260869565217391
 40
0.8695652173913043
 40
0.8695652173913043
 40
0.8695652173913043
 40
0.8695652173913043
 40
0.9130434782608695
 40
0.9130434782608695
 40
0.9130434782608695
 40
0.9130434782608695
 40
1.0
 40
1.0
 40
1.0
 40
1.0
 10
6.6007
 20
-22.528
 30
0.0
 10
6.6007
 20
-22.528
 30
0.0
 10
6.6007
 20
-22.8261
 30
0.0
 10
6.6007
 20
-22.8261
 30
0.0
 10
6.6007
 20
-22.8261
 30
0.0
 10
6.6007
 20
-22.8261
 30
0.0
 10
4.9315
 20
-22.8261
 30
0.0
 10
4.9315
 20
-22.8261
 30
0.0
 10
4.9315
 20
-22.8261
 30
0.0
 10
4.9292
 20
-22.7514
 30
0.0
 10
4.9409
 20
-22.6797
 30
0.0
 10
4.9674
 20
-22.6109
 30
0.0
 10
4.9674
 20
-22.6109
 30
0.0
 10
5.0097
 20
-22.4969
 30
0.0
 10
5.0779
 20
-22.3851
 30
0.0
 10
5.1714
 20
-22.2746
 30
0.0
 10
5.1714
 20
-22.2746
 30
0.0
 10
5.2655
 20
-22.1647
 30
0.0
 10
5.4007
 20
-22.037
 30
0.0
 10
5.5771
 20
-21.8924
 30
0.0
 10
5.5771
 20
-21.8924
 30
0.0
 10
5.8517
 20
-21.6672
 30
0.0
 10
6.0375
 20
-21.4891
 30
0.0
 10
6.1339
 20
-21.3574
 30
0.0
 10
6.1339
 20
-21.3574
 30
0.0
 10
6.2303
 20
-21.2263
 30
0.0
 10
6.2785
 20
-21.1016
 30
0.0
 10
6.2785
 20
-20.9846
 30
0.0
 10
6.2785
 20
-20.9846
 30
0.0
 10
6.2785
 20
-20.8617
 30
0.0
 10
6.2344
 20
-20.7582
 30
0.0
 10
6.1468
 20
-20.6736
 30
0.0
 10
6.1468
 20
-20.6736
 30
0.0
 10
6.0586
 20
-20.5895
 30
0.0
 10
5.944
 20
-20.5472
 30
0.0
 10
5.8029
 20
-20.5472
 30
0.0
 10
5.8029
 20
-20.5472
 30
0.0
 10
5.6535
 20
-20.5472
 30
0.0
 10
5.5342
 20
-20.5918
 30
0.0
 10
5.4448
 20
-20.6818
 30
0.0
 10
5.4448
 20
-20.6818
 30
0.0
 10
5.3549
 20
-20.7712
 30
0.0
 10
5.3096
 20
-20.8952
 30
0.0
 10
5.3084
 20
-21.0534
 30
0.0
 10
5.3084
 20
-21.0534
 30
0.0
 10
5.3084
 20
-21.0534
 30
0.0
 10
4.9897
 20
-21.0211
 30
0.0
 10
4.9897
 20
-21.0211
 30
0.0
 10
4.9897
 20
-21.0211
 30
0.0
 10
5.0115
 20
-20.7829
 30
0.0
 10
5.0938
 20
-20.6018
 30
0.0
 10
5.2361
 20
-20.4772
 30
0.0
 10
5.2361
 20
-20.4772
 30
0.0
 10
5.3784
 20
-20.3525
 30
0.0
 10
5.57
 20
-20.2902
 30
0.0
 10
5.8099
 20
-20.2902
 30
0.0
 10
5.8099
 20
-20.2902
 30
0.0
 10
6.0522
 20
-20.2902
 30
0.0
 10
6.2438
 20
-20.3578
 30
0.0
 10
6.385
 20
-20.4919
 30
0.0
 10
6.385
 20
-20.4919
 30
0.0
 10
6.5267
 20
-20.6265
 30
0.0
 10
6.5972
 20
-20.7929
 30
0.0
 10
6.5972
 20
-20.9917
 30
0.0
 10
6.5972
 20
-20.9917
 30
0.0
 10
6.5972
 20
-21.0928
 30
0.0
 10
6.5766
 20
-21.1922
 30
0.0
 10
6.5349
 20
-21.2898
 30
0.0
 10
6.5349
 20
-21.2898
 30
0.0
 10
6.4937
 20
-21.3874
 30
0.0
 10
6.4249
 20
-21.4903
 30
0.0
 10
6.3291
 20
-21.5978
 30
0.0
 10
6.3291
 20
-21.5978
 30
0.0
 10
6.2333
 20
-21.706
 30
0.0
 10
6.0739
 20
-21.8542
 30
0.0
 10
5.8511
 20
-22.0423
 30
0.0
 10
5.8511
 20
-22.0423
 30
0.0
 10
5.6653
 20
-22.1987
 30
0.0
 10
5.5459
 20
-22.3046
 30
0.0
 10
5.493
 20
-22.3604
 30
0.0
 10
5.493
 20
-22.3604
 30
0.0
 10
5.4401
 20
-22.4157
 30
0.0
 10
5.3966
 20
-22.4716
 30
0.0
 10
5.3619
 20
-22.528
 30
0.0
 10
5.3619
 20
-22.528
 30
0.0
 10
5.3619
 20
-22.528
 30
0.0
 10
6.6007
 20
-22.528
 30
0.0
 10
6.6007
 20
-22.528
 30
0.0
  0
SPLINE
  5
A5
330
1F
100
AcDbEntity
  8
VRSTVA_1
 62
   250
100
AcDbSpline
210
0.0
220
0.0
230
1.0
 70
    11
 71
     3
 72
   124
 73
   120
 74
     0
 42
0.0000000001
 43
0.0000000001
 40
0.0
 40
0.0
 40
0.0
 40
0.0
 40
0.032258064516129
 40
0.032258064516129
 40
0.032258064516129
 40
0.032258064516129
 40
0.0645161290322581
 40
0.0645161290322581
 40
0.0645161290322581
 40
0.0645161290322581
 40
0.0967741935483871
 40
0.0967741935483871
 40
0.0967741935483871
 40
0.0967741935483871
 40
0.1290322580645161
 40
0.1290322580645161
 40
0.1290322580645161
 40
0.1290322580645161
 40
0.1612903225806452
 40
0.1612903225806452
 40
0.1612903225806452
 40
0.1612903225806452
 40
0.1935483870967742
 40
0.1935483870967742
 40
0.1935483870967742
 40
0.1935483870967742
 40
0.2258064516129032
 40
0.2258064516129032
 40
0.2258064516129032
 40
0.2258064516129032
 40
0.2580645161290323
 40
0.2580645161290323
 40
0.2580645161290323
 40
0.2580645161290323
 40
0.2903225806451613
 40
0.2903225806451613
 40
0.2903225806451613
 40
0.2903225806451613
 40
0.3225806451612903
 40
0.3225806451612903
 40
0.3225806451612903
 40
0.3225806451612903
 40
0.3548387096774194
 40
0.3548387096774194
 40
0.3548387096774194
 40
0.3548387096774194
 40
0.3870967741935484
 40
0.3870967741935484
 40
0.3870967741935484
 40
0.3870967741935484
 40
0.4193548387096774
 40
0.4193548387096774
 40
0.4193548387096774
 40
0.4193548387096774
 40
0.4516129032258064
 40
0.4516129032258064
 40
0.4516129032258064
 40
0.4516129032258064
 40
0.4838709677419355
 40
0.4838709677419355
 40
0.4838709677419355
 40
0.4838709677419355
 40
0.5161290322580645
 40
0.5161290322580645
 40
0.5161290322580645
 40
0.5161290322580645
 40
0.5483870967741935
 40
0.5483870967741935
 40
0.5483870967741935
 40
0.5483870967741935
 40
0.5806451612903226
 40
0.5806451612903226
 40
0.5806451612903226
 40
0.5806451612903226
 40
0.6129032258064516
 40
0.6129032258064516
 40
0.6129032258064516
 40
0.6129032258064516
 40
0.6451612903225806
 40
0.6451612903225806
 40
0.6451612903225806
 40
0.6451612903225806
 40
0.6774193548387096
 40
0.6774193548387096
 40
0.6774193548387096
 40
0.6774193548387096
 40
0.7096774193548387
 40
0.7096774193548387
 40
0.7096774193548387
 40
0.7096774193548387
 40
0.7419354838709677
 40
0.7419354838709677
 40
0.7419354838709677
 40
0.7419354838709677
 40
0.7741935483870968
 40
0.7741935483870968
 40
0.7741935483870968
 40
0.7741935483870968
 40
0.8064516129032258
 40
0.8064516129032258
 40
0.8064516129032258
 40
0.8064516129032258
 40
0.8387096774193549
 40
0.8387096774193549
 40
0.8387096774193549
 40
0.8387096774193549
 40
0.8709677419354839
 40
0.8709677419354839
 40
0.8709677419354839
 40
0.8709677419354839
 40
0.9032258064516129
 40
0.9032258064516129
 40
0.9032258064516129
 40
0.9032258064516129
 40
0.9354838709677419
 40
0.9354838709677419
 40
0.9354838709677419
 40
0.9354838709677419
 40
1.0
 40
1.0
 40
1.0
 40
1.0
 10
6.9347
 20
-22.1594
 30
0.0
 10
6.9347
 20
-22.1594
 30
0.0
 10
7.2446
 20
-22.1182
 30
0.0
 10
7.2446
 20
-22.1182
 30
0.0
 10
7.2446
 20
-22.1182
 30
0.0
 10
7.2804
 20
-22.294
 30
0.0
 10
7.341
 20
-22.4204
 30
0.0
 10
7.4262
 20
-22.498
 30
0.0
 10
7.4262
 20
-22.498
 30
0.0
 10
7.5121
 20
-22.5756
 30
0.0
 10
7.6161
 20
-22.6144
 30
0.0
 10
7.739
 20
-22.6144
 30
0.0
 10
7.739
 20
-22.6144
 30
0.0
 10
7.8848
 20
-22.6144
 30
0.0
 10
8.0083
 20
-22.5639
 30
0.0
 10
8.1089
 20
-22.4627
 30
0.0
 10
8.1089
 20
-22.4627
 30
0.0
 10
8.2088
 20
-22.3616
 30
0.0
 10
8.2594
 20
-22.2364
 30
0.0
 10
8.2594
 20
-22.087
 30
0.0
 10
8.2594
 20
-22.087
 30
0.0
 10
8.2594
 20
-21.9447
 30
0.0
 10
8.2129
 20
-21.8272
 30
0.0
 10
8.12
 20
-21.7348
 30
0.0
 10
8.12
 20
-21.7348
 30
0.0
 10
8.0265
 20
-21.6425
 30
0.0
 10
7.9084
 20
-21.5961
 30
0.0
 10
7.7649
 20
-21.5961
 30
0.0
 10
7.7649
 20
-21.5961
 30
0.0
 10
7.7061
 20
-21.5961
 30
0.0
 10
7.6332
 20
-21.6078
 30
0.0
 10
7.5462
 20
-21.6308
 30
0.0
 10
7.5462
 20
-21.6308
 30
0.0
 10
7.5462
 20
-21.6308
 30
0.0
 10
7.5809
 20
-21.3586
 30
0.0
 10
7.5809
 20
-21.3586
 30
0.0
 10
7.5809
 20
-21.3586
 30
0.0
 10
7.6015
 20
-21.3609
 30
0.0
 10
7.6179
 20
-21.3621
 30
0.0
 10
7.6308
 20
-21.3621
 30
0.0
 10
7.6308
 20
-21.3621
 30
0.0
 10
7.7625
 20
-21.3621
 30
0.0
 10
7.8813
 20
-21.3274
 30
0.0
 10
7.9872
 20
-21.2586
 30
0.0
 10
7.9872
 20
-21.2586
 30
0.0
 10
8.093
 20
-21.1898
 30
0.0
 10
8.1459
 20
-21.0834
 30
0.0
 10
8.1459
 20
-20.9399
 30
0.0
 10
8.1459
 20
-20.9399
 30
0.0
 10
8.1459
 20
-20.8264
 30
0.0
 10
8.1071
 20
-20.7318
 30
0.0
 10
8.0301
 20
-20.6577
 30
0.0
 10
8.0301
 20
-20.6577
 30
0.0
 10
7.953
 20
-20.583
 30
0.0
 10
7.8537
 20
-20.5454
 30
0.0
 10
7.732
 20
-20.5454
 30
0.0
 10
7.732
 20
-20.5454
 30
0.0
 10
7.6114
 20
-20.5454
 30
0.0
 10
7.5109
 20
-20.5836
 30
0.0
 10
7.4309
 20
-20.6589
 30
0.0
 10
7.4309
 20
-20.6589
 30
0.0
 10
7.3504
 20
-20.7347
 30
0.0
 10
7.2986
 20
-20.8488
 30
0.0
 10
7.2757
 20
-21.0005
 30
0.0
 10
7.2757
 20
-21.0005
 30
0.0
 10
7.2757
 20
-21.0005
 30
0.0
 10
6.9659
 20
-20.9452
 30
0.0
 10
6.9659
 20
-20.9452
 30
0.0
 10
6.9659
 20
-20.9452
 30
0.0
 10
7.0035
 20
-20.7371
 30
0.0
 10
7.0899
 20
-20.576
 30
0.0
 10
7.224
 20
-20.4619
 30
0.0
 10
7.224
 20
-20.4619
 30
0.0
 10
7.3586
 20
-20.3478
 30
0.0
 10
7.5256
 20
-20.2902
 30
0.0
 10
7.7255
 20
-20.2902
 30
0.0
 10
7.7255
 20
-20.2902
 30
0.0
 10
7.8631
 20
-20.2902
 30
0.0
 10
7.9901
 20
-20.3202
 30
0.0
 10
8.1059
 20
-20.379
 30
0.0
 10
8.1059
 20
-20.379
 30
0.0
 10
8.2217
 20
-20.4384
 30
0.0
 10
8.3105
 20
-20.5189
 30
0.0
 10
8.3723
 20
-20.6212
 30
0.0
 10
8.3723
 20
-20.6212
 30
0.0
 10
8.4334
 20
-20.7235
 30
0.0
 10
8.4646
 20
-20.8317
 30
0.0
 10
8.4646
 20
-20.947
 30
0.0
 10
8.4646
 20
-20.947
 30
0.0
 10
8.4646
 20
-21.0557
 30
0.0
 10
8.4352
 20
-21.1551
 30
0.0
 10
8.3764
 20
-21.2451
 30
0.0
 10
8.3764
 20
-21.2451
 30
0.0
 10
8.3176
 20
-21.3344
 30
0.0
 10
8.2312
 20
-21.4056
 30
0.0
 10
8.1165
 20
-21.4585
 30
0.0
 10
8.1165
 20
-21.4585
 30
0.0
 10
8.2659
 20
-21.4926
 30
0.0
 10
8.3817
 20
-21.5643
 30
0.0
 10
8.4646
 20
-21.6731
 30
0.0
 10
8.4646
 20
-21.6731
 30
0.0
 10
8.5469
 20
-21.7813
 30
0.0
 10
8.5881
 20
-21.9171
 30
0.0
 10
8.5881
 20
-22.08
 30
0.0
 10
8.5881
 20
-22.08
 30
0.0
 10
8.5881
 20
-22.3005
 30
0.0
 10
8.5081
 20
-22.4874
 30
0.0
 10
8.347
 20
-22.6409
 30
0.0
 10
8.347
 20
-22.6409
 30
0.0
 10
8.1865
 20
-22.7944
 30
0.0
 10
7.983
 20
-22.8708
 30
0.0
 10
7.7373
 20
-22.8708
 30
0.0
 10
7.7373
 20
-22.8708
 30
0.0
 10
7.5156
 20
-22.8708
 30
0.0
 10
7.3316
 20
-22.8049
 30
0.0
 10
7.1852
 20
-22.6726
 30
0.0
 10
7.1852
 20
-22.6726
 30
0.0
 10
7.0388
 20
-22.5409
 30
0.0
 10
6.9553
 20
-22.3698
 30
0.0
 10
6.9347
 20
-22.1594
 30
0.0
  0
SPLINE
  5
A6
330
1F
100
AcDbEntity
  8
VRSTVA_1
 62
   250
100
AcDbSpline
210
0.0
220
0.0
230
1.0
 70
    24
 71
     3
 72
     8
 73
     4
 74
     0
 42
0.0000000001
 43
0.0000000001
 40
0.0
 40
0.0
 40
0.0
 40
0.0
 40
1.0
 40
1.0
 40
1.0
 40
1.0
 10
-0.5925
 20
-24.3194
 30
0.0
 10
-0.5925
 20
-24.3194
 30
0.0
 10
-0.5925
 20
-14.9944
 30
0.0
 10
-0.5925
 20
-14.9944
 30
0.0
  0
SPLINE
  5
A7
330
1F
100
AcDbEntity
  8
VRSTVA_1
 62
   250
100
AcDbSpline
210
0.0
220
0.0
230
1.0
 70
    24
 71
     3
 72
     8
 73
     4
 74
     0
 42
0.0000000001
 43
0.0000000001
 40
0.0
 40
0.0
 40
0.0
 40
0.0
 40
1.0
 40
1.0
 40
1.0
 40
1.0
 10
-4.5007
 20
-23.6375
 30
0.0
 10
-4.5007
 20
-23.6375
 30
0.0
 10
15.0293
 20
-23.6375
 30
0.0
 10
15.0293
 20
-23.6375
 30
0.0
  0
SPLINE
  5
A8
330
1F
100
AcDbEntity
  8
VRSTVA_1
 62
   250
100
AcDbSpline
210
0.0
220
0.0
230
1.0
 70
    11
 71
     3
 72
    20
 73
    16
 74
     0
 42
0.0000000001
 43
0.0000000001
 40
0.0
 40
0.0
 40
0.0
 40
0.0
 40
0.2
 40
0.2
 40
0.2
 40
0.2
 40
0.4
 40
0.4
 40
0.4
 40
0.4
 40
0.6
 40
0.6
 40
0.6
 40
0.6
 40
1.0
 40
1.0
 40
1.0
 40
1.0
 10
-3.6008
 20
-23.1936
 30
0.0
 10
-3.6008
 20
-23.1936
 30
0.0
 10
-0.6008
 20
-23.6169
 30
0.0
 10
-0.6008
 20
-23.6169
 30
0.0
 10
-0.6008
 20
-23.6169
 30
0.0
 10
-0.6008
 20
-23.6169
 30
0.0
 10
-0.6008
 20
-23.711
 30
0.0
 10
-0.6008
 20
-23.711
 30
0.0
 10
-0.6008
 20
-23.711
 30
0.0
 10
-0.6008
 20
-23.711
 30
0.0
 10
-3.6008
 20
-24.1625
 30
0.0
 10
-3.6008
 20
-24.1625
 30
0.0
 10
-3.6008
 20
-24.1625
 30
0.0
 10
-3.6008
 20
-24.1625
 30
0.0
 10
-3.6008
 20
-23.1936
 30
0.0
 10
-3.6008
 20
-23.1936
 30
0.0
  0
SPLINE
  5
A9
330
1F
100
AcDbEntity
  8
VRSTVA_1
 62
   250
100
AcDbSpline
210
0.0
220
0.0
230
1.0
 70
    11
 71
     3
 72
    20
 73
    16
 74
     0
 42
0.0000000001
 43
0.0000000001
 40
0.0
 40
0.0
 40
0.0
 40
0.0
 40
0.2
 40
0.2
 40
0.2
 40
0.2
 40
0.4
 40
0.4
 40
0.4
 40
0.4
 40
0.6
 40
0.6
 40
0.6
 40
0.6
 40
1.0
 40
1.0
 40
1.0
 40
1.0
 10
14.1017
 20
-24.0916
 30
0.0
 10
14.1017
 20
-24.0916
 30
0.0
 10
11.1017
 20
-23.6682
 30
0.0
 10
11.1017
 20
-23.6682
 30
0.0
 10
11.1017
 20
-23.6682
 30
0.0
 10
11.1017
 20
-23.6682
 30
0.0
 10
11.1017
 20
-23.5742
 30
0.0
 10
11.1017
 20
-23.5742
 30
0.0
 10
11.1017
 20
-23.5742
 30
0.0
 10
11.1017
 20
-23.5742
 30
0.0
 10
14.1017
 20
-23.1226
 30
0.0
 10
14.1017
 20
-23.1226
 30
0.0
 10
14.1017
 20
-23.1226
 30
0.0
 10
14.1017
 20
-23.1226
 30
0.0
 10
14.1017
 20
-24.0916
 30
0.0
 10
14.1017
 20
-24.0916
 30
0.0
  0
SPLINE
  5
AA
330
1F
100
AcDbEntity
  8
VRSTVA_1
 62
   250
100
AcDbSpline
210
0.0
220
0.0
230
1.0
 70
    24
 71
     3
 72
     8
 73
     4
 74
     0
 42
0.0000000001
 43
0.0000000001
 40
0.0
 40
0.0
 40
0.0
 40
0.0
 40
1.0
 40
1.0
 40
1.0
 40
1.0
 10
-0.5919
 20
-12.6606
 30
0.0
 10
-0.5919
 20
-12.6606
 30
0.0
 10
-0.5919
 20
5.1922
 30
0.0
 10
-0.5919
 20
5.1922
 30
0.0
  0
SPLINE
  5
AB
330
1F
100
AcDbEntity
  8
VRSTVA_1
 62
   250
100
AcDbSpline
210
0.0
220
0.0
230
1.0
 70
    24
 71
     3
 72
     8
 73
     4
 74
     0
 42
0.0000000001
 43
0.0000000001
 40
0.0
 40
0.0
 40
0.0
 40
0.0
 40
1.0
 40
1.0
 40
1.0
 40
1.0
 10
11.0299
 20
-24.3479
 30
0.0
 10
11.0299
 20
-24.3479
 30
0.0
 10
11.0299
 20
-15.023
 30
0.0
 10
11.0299
 20
-15.023
 30
0.0
  0
SPLINE
  5
AC
330
1F
100
AcDbEntity
  8
VRSTVA_1
 62
   250
100
AcDbSpline
210
0.0
220
0.0
230
1.0
 70
    24
 71
     3
 72
     8
 73
     4
 74
     0
 42
0.0000000001
 43
0.0000000001
 40
0.0
 40
0.0
 40
0.0
 40
0.0
 40
1.0
 40
1.0
 40
1.0
 40
1.0
 10
11.0306
 20
-12.6892
 30
0.0
 10
11.0306
 20
-12.6892
 30
0.0
 10
11.0306
 20
5.1636
 30
0.0
 10
11.0306
 20
5.1636
 30
0.0
  0
SPLINE
  5
AD
330
1F
100
AcDbEntity
  8
VRSTVA_1
  6
NEW_LINE2
 62
   250
100
AcDbSpline
210
0.0
220
0.0
230
1.0
 70
    24
 71
     3
 72
     8
 73
     4
 74
     0
 42
0.0000000001
 43
0.0000000001
 40
0.0
 40
0.0
 40
0.0
 40
0.0
 40
1.0
 40
1.0
 40
1.0
 40
1.0
 10
5.1865
 20
-13.0051
 30
0.0
 10
5.1865
 20
-13.0051
 30
0.0
 10
5.1865
 20
15.6804
 30
0.0
 10
5.1865
 20
15.6804
 30
0.0
  0
ENDSEC
  0
SECTION
  2
OBJECTS
  0
DICTIONARY
  5
C
330
0
100
AcDbDictionary
  3
ACAD_GROUP
350
D
  3
ACAD_LAYOUT
350
1A
  3
ACAD_MATERIAL
350
3B
  3
ACAD_MLEADERSTYLE
350
D1
  3
ACAD_MLINESTYLE
350
17
  3
ACAD_PLOTSETTINGS
350
19
  3
ACAD_VISUALSTYLE
350
2A
  3
ACDBHEADERROUNDTRIPXREC
350
AF
  3
ACDBVARIABLEDICTIONARY
350
CF
  0
DICTIONARY
  5
D
102
{ACAD_REACTORS
330
C
102
}
330
C
100
AcDbDictionary
  0
DICTIONARY
  5
1A
102
{ACAD_REACTORS
330
C
102
}
330
C
100
AcDbDictionary
  0
DICTIONARY
  5
3B
102
{ACAD_REACTORS
330
C
102
}
330
C
100
AcDbDictionary
  3
BYBLOCK
350
3D
  3
BYLAYER
350
3C
  3
GLOBAL
350
3E
  0
DICTIONARY
  5
D1
102
{ACAD_REACTORS
330
C
102
}
330
C
100
AcDbDictionary
  0
DICTIONARY
  5
17
102
{ACAD_REACTORS
330
C
102
}
330
C
100
AcDbDictionary
  3
STANDARD
350
18
  0
DICTIONARY
  5
19
102
{ACAD_REACTORS
330
C
102
}
330
C
100
AcDbDictionary
  0
DICTIONARY
  5
2A
102
{ACAD_REACTORS
330
C
102
}
330
C
100
AcDbDictionary
  3
2DWIREFRAME
350
2F
  3
3D_HIDDEN
350
31
  3
3DWIREFRAME
350
30
  3
BASIC
350
32
  3
BRIGHTEN
350
36
  3
COLORCHANGE
350
3A
  3
CONCEPTUAL
350
34
  3
DIM
350
35
  3
FACEPATTERN
350
39
  3
FLAT
350
2B
  3
FLATWITHEDGES
350
2C
  3
GOURAUD
350
2D
  3
GOURAUDWITHEDGES
350
2E
  3
LINEPATTERN
350
38
  3
REALISTIC
350
33
  3
THICKEN
350
37
  0
DICTIONARY
  5
AF
102
{ACAD_REACTORS
330
C
102
}
330
C
100
AcDbDictionary
  3
CEPSNTYPE
350
B8
  3
DIMSTYLEDATA
350
CE
  3
FINGERPRINTGUID
350
B9
  3
HYPERLINKBASE
350
B2
  3
INSUNITS
350
B7
  3
LAYOUTDICT
350
B4
  3
LWETCUNION
350
B6
  3
PLOTSETDICT
350
B5
  3
PSVPSCALE
350
BB
  3
PUCSBASE
350
BE
  3
PUCSORGBACK
350
C4
  3
PUCSORGBOTTOM
350
C0
  3
PUCSORGFRONT
350
C3
  3
PUCSORGLEFT
350
C1
  3
PUCSORGRIGHT
350
C2
  3
PUCSORGTOP
350
BF
  3
PUCSORTHOREF
350
BC
  3
PUCSORTHOVIEW
350
BD
  3
STYLESHEET
350
B3
  3
TSTACKALIGN
350
B0
  3
TSTACKSIZE
350
B1
  3
UCSBASE
350
C7
  3
UCSORGBACK
350
CD
  3
UCSORGBOTTOM
350
C9
  3
UCSORGFRONT
350
CC
  3
UCSORGLEFT
350
CA
  3
UCSORGRIGHT
350
CB
  3
UCSORGTOP
350
C8
  3
UCSORTHOREF
350
C5
  3
UCSORTHOVIEW
350
C6
  3
VERSIONGUID
350
BA
  0
DICTIONARY
  5
CF
102
{ACAD_REACTORS
330
C
102
}
330
C
100
AcDbDictionary
  3
DIMASSOC
350
D2
  3
HIDETEXT
350
D3
  0
MATERIAL
  5
3D
102
{ACAD_REACTORS
330
3B
102
}
102
{ACAD_XDICTIONARY
360
D6
102
}
330
3B
100
AcDbMaterial
  1
ByBlock
  0
MATERIAL
  5
3C
102
{ACAD_REACTORS
330
3B
102
}
102
{ACAD_XDICTIONARY
360
D4
102
}
330
3B
100
AcDbMaterial
  1
ByLayer
  0
MATERIAL
  5
3E
102
{ACAD_REACTORS
330
3B
102
}
102
{ACAD_XDICTIONARY
360
D8
102
}
330
3B
100
AcDbMaterial
  1
Global
  0
MLINESTYLE
  5
18
102
{ACAD_REACTORS
330
17
102
}
330
17
100
AcDbMlineStyle
  2
Standard
 70
     0
  3

 62
   256
 51
90.0
 52
90.0
 71
     2
 49
0.5
 62
   256
  6
BYLAYER
 49
-0.5
 62
   256
  6
BYLAYER
  0
ACAD_PROXY_OBJECT
  5
2F
102
{ACAD_REACTORS
330
2A
102
}
330
2A
100
AcDbProxyObject
 90
      499
 91
      501
 93
      436
310
42CC9915DA5C99599C985B595049028333333333333E3BF0000000000000FB0107901411070040501600405405064090741402480A0340
1001
ACAD
1000
AcDbSavedByObjectVersion
1070
     0
  0
ACAD_PROXY_OBJECT
  5
31
102
{ACAD_REACTORS
330
2A
102
}
330
2A
100
AcDbProxyObject
 90
      499
 91
      501
 93
      500
310
424CD108121A5919195B90640502408333333333333E3BF0000000000000FB01079024090700405020000000000001110200405405064090740C02480A0340
1001
ACAD
1000
AcDbSavedByObjectVersion
1070
     0
  0
ACAD_PROXY_OBJECT
  5
30
102
{ACAD_REACTORS
330
2A
102
}
330
2A
100
AcDbProxyObject
 90
      499
 91
      501
 93
      436
310
42CCD915DA5C99599C985B595059028333333333333E3BF0000000000000FB0107901411070040501600405405064090741402480A0340
1001
ACAD
1000
AcDbSavedByObjectVersion
1070
     0
  0
ACAD_PROXY_OBJECT
  5
32
102
{ACAD_REACTORS
330
2A
102
}
330
2A
100
AcDbProxyObject
 90
      499
 91
      501
 93
      388
310
4150985CDA58D07406404333333333333E3BF0000000000000FB0107A41107004050150841D405064090741402480A0350
1001
ACAD
1000
AcDbSavedByObjectVersion
1070
     0
  0
ACAD_PROXY_OBJECT
  5
36
102
{ACAD_REACTORS
330
2A
102
}
330
2A
100
AcDbProxyObject
 90
      499
 91
      501
 93
      428
310
42109C9A59DA1D195B90C409028333333333333E3BF0000000000000FB010790141107004050150841D405064090741402480A029950
1001
ACAD
1000
AcDbSavedByObjectVersion
1070
     0
  0
ACAD_PROXY_OBJECT
  5
3A
102
{ACAD_REACTORS
330
2A
102
}
330
2A
100
AcDbProxyObject
 90
      499
 91
      501
 93
      452
310
42D0DBDB1BDC90DA185B99D95104090240C333333333333E3BF0000000000000FB0108901411070040501508421405064090741402480A0350
1001
ACAD
1000
AcDbSavedByObjectVersion
1070
     0
  0
ACAD_PROXY_OBJECT
  5
34
102
{ACAD_REACTORS
330
2A
102
}
330
2A
100
AcDbProxyObject
 90
      499
 91
      501
 93
      500
310
4290DBDB98D95C1D1D585B10940D028333333333333E3BF0000000000000FB0107902409070040501000000000000111010841D405064090740C02480A0340
1001
ACAD
1000
AcDbSavedByObjectVersion
1070
     0
  0
ACAD_PROXY_OBJECT
  5
35
102
{ACAD_REACTORS
330
2A
102
}
330
2A
100
AcDbProxyObject
 90
      499
 91
      501
 93
      412
310
40D11A5B50B409028333333333333E3BF0000000000000FB010790141107004050150841D405064090741402480A02677FFFFFD0
1001
ACAD
1000
AcDbSavedByObjectVersion
1070
     0
  0
ACAD_PROXY_OBJECT
  5
39
102
{ACAD_REACTORS
330
2A
102
}
330
2A
100
AcDbProxyObject
 90
      499
 91
      501
 93
      444
310
42D19858D95C185D1D195C9B90F409028333333333333E3BF0000000000000FB010790141107004050150841D405064090741402480A0350
1001
ACAD
1000
AcDbSavedByObjectVersion
1070
     0
  0
ACAD_PROXY_OBJECT
  5
2B
102
{ACAD_REACTORS
330
2A
102
}
330
2A
100
AcDbProxyObject
 90
      499
 91
      501
 93
      388
310
41119B185D240901404333333333333E3BF0000000000000F9010740A41107004050150841D405064090741402480A1B50
1001
ACAD
1000
AcDbSavedByObjectVersion
1070
     0
  0
ACAD_PROXY_OBJECT
  5
2C
102
{ACAD_REACTORS
330
2A
102
}
330
2A
100
AcDbProxyObject
 90
      499
 91
      501
 93
      476
310
43519B185D15DA5D1A115919D95CD0140901404333333333333E3BF0000000000000F9010740901411070040501600405405064090741402480A1B50
1001
ACAD
1000
AcDbSavedByObjectVersion
1070
     0
  0
ACAD_PROXY_OBJECT
  5
2D
102
{ACAD_REACTORS
330
2A
102
}
330
2A
100
AcDbProxyObject
 90
      499
 91
      501
 93
      412
310
41D1DBDD5C985D5910240902404333333333333E3BF0000000000000F9010740A411070040501641D405064090741402480A1B50
1001
ACAD
1000
AcDbSavedByObjectVersion
1070
     0
  0
ACAD_PROXY_OBJECT
  5
2E
102
{ACAD_REACTORS
330
2A
102
}
330
2A
100
AcDbProxyObject
 90
      499
 91
      501
 93
      500
310
4411DBDD5C985D5915DA5D1A115919D95CD0340902404333333333333E3BF0000000000000F9010740901411070040501600405405064090741402480A1B50
1001
ACAD
1000
AcDbSavedByObjectVersion
1070
     0
  0
ACAD_PROXY_OBJECT
  5
38
102
{ACAD_REACTORS
330
2A
102
}
330
2A
100
AcDbProxyObject
 90
      499
 91
      501
 93
      444
310
42D31A5B995C185D1D195C9B90E409028333333333333E3BF0000000000000FB010790141107004050750841D405064090741402483A0350
1001
ACAD
1000
AcDbSavedByObjectVersion
1070
     0
  0
ACAD_PROXY_OBJECT
  5
33
102
{ACAD_REACTORS
330
2A
102
}
330
2A
100
AcDbProxyObject
 90
      499
 91
      501
 93
      420
310
425499585B1A5CDD1A58D08409028333333333333E3BF0000000000000FB01079019070040501508421405064090741402480A1B40
1001
ACAD
1000
AcDbSavedByObjectVersion
1070
     0
  0
ACAD_PROXY_OBJECT
  5
37
102
{ACAD_REACTORS
330
2A
102
}
330
2A
100
AcDbProxyObject
 90
      499
 91
      501
 93
      412
310
41D51A1A58DAD95B90D409028333333333333E3BF0000000000000FB010790141107004050150C41D405064090741402480A0350
1001
ACAD
1000
AcDbSavedByObjectVersion
1070
     0
  0
XRECORD
  5
B8
102
{ACAD_REACTORS
330
AF
102
}
330
AF
100
AcDbXrecord
 90
        0
  0
XRECORD
  5
CE
102
{ACAD_REACTORS
330
AF
102
}
330
AF
100
AcDbXrecord
1000
DSTYLE
1002
{
1070
   340
340
11
1002
}
  0
XRECORD
  5
B9
102
{ACAD_REACTORS
330
AF
102
}
330
AF
100
AcDbXrecord
  1
{1C721BC9-7D18-4A2B-9F2B-EE65DD200D11}
  0
XRECORD
  5
B2
102
{ACAD_REACTORS
330
AF
102
}
330
AF
100
AcDbXrecord
  1

  0
XRECORD
  5
B7
102
{ACAD_REACTORS
330
AF
102
}
330
AF
100
AcDbXrecord
 90
        4
  0
XRECORD
  5
B4
102
{ACAD_REACTORS
330
AF
102
}
330
AF
100
AcDbXrecord
340
1A
  0
XRECORD
  5
B6
102
{ACAD_REACTORS
330
AF
102
}
330
AF
100
AcDbXrecord
 90
    10781
  0
XRECORD
  5
B5
102
{ACAD_REACTORS
330
AF
102
}
330
AF
100
AcDbXrecord
340
19
  0
XRECORD
  5
BB
102
{ACAD_REACTORS
330
AF
102
}
330
AF
100
AcDbXrecord
 40
0.0
  0
XRECORD
  5
BE
102
{ACAD_REACTORS
330
AF
102
}
330
AF
100
AcDbXrecord
340
0
  0
XRECORD
  5
C4
102
{ACAD_REACTORS
330
AF
102
}
330
AF
100
AcDbXrecord
 10
0.0
 20
0.0
 30
0.0
  0
XRECORD
  5
C0
102
{ACAD_REACTORS
330
AF
102
}
330
AF
100
AcDbXrecord
 10
0.0
 20
0.0
 30
0.0
  0
XRECORD
  5
C3
102
{ACAD_REACTORS
330
AF
102
}
330
AF
100
AcDbXrecord
 10
0.0
 20
0.0
 30
0.0
  0
XRECORD
  5
C1
102
{ACAD_REACTORS
330
AF
102
}
330
AF
100
AcDbXrecord
 10
0.0
 20
0.0
 30
0.0
  0
XRECORD
  5
C2
102
{ACAD_REACTORS
330
AF
102
}
330
AF
100
AcDbXrecord
 10
0.0
 20
0.0
 30
0.0
  0
XRECORD
  5
BF
102
{ACAD_REACTORS
330
AF
102
}
330
AF
100
AcDbXrecord
 10
0.0
 20
0.0
 30
0.0
  0
XRECORD
  5
BC
102
{ACAD_REACTORS
330
AF
102
}
330
AF
100
AcDbXrecord
340
0
  0
XRECORD
  5
BD
102
{ACAD_REACTORS
330
AF
102
}
330
AF
100
AcDbXrecord
 70
     0
  0
XRECORD
  5
B3
102
{ACAD_REACTORS
330
AF
102
}
330
AF
100
AcDbXrecord
  1

  0
XRECORD
  5
B0
102
{ACAD_REACTORS
330
AF
102
}
330
AF
100
AcDbXrecord
 90
        1
  0
XRECORD
  5
B1
102
{ACAD_REACTORS
330
AF
102
}
330
AF
100
AcDbXrecord
 90
       70
  0
XRECORD
  5
C7
102
{ACAD_REACTORS
330
AF
102
}
330
AF
100
AcDbXrecord
340
0
  0
XRECORD
  5
CD
102
{ACAD_REACTORS
330
AF
102
}
330
AF
100
AcDbXrecord
 10
0.0
 20
0.0
 30
0.0
  0
XRECORD
  5
C9
102
{ACAD_REACTORS
330
AF
102
}
330
AF
100
AcDbXrecord
 10
0.0
 20
0.0
 30
0.0
  0
XRECORD
  5
CC
102
{ACAD_REACTORS
330
AF
102
}
330
AF
100
AcDbXrecord
 10
0.0
 20
0.0
 30
0.0
  0
XRECORD
  5
CA
102
{ACAD_REACTORS
330
AF
102
}
330
AF
100
AcDbXrecord
 10
0.0
 20
0.0
 30
0.0
  0
XRECORD
  5
CB
102
{ACAD_REACTORS
330
AF
102
}
330
AF
100
AcDbXrecord
 10
0.0
 20
0.0
 30
0.0
  0
XRECORD
  5
C8
102
{ACAD_REACTORS
330
AF
102
}
330
AF
100
AcDbXrecord
 10
0.0
 20
0.0
 30
0.0
  0
XRECORD
  5
C5
102
{ACAD_REACTORS
330
AF
102
}
330
AF
100
AcDbXrecord
340
0
  0
XRECORD
  5
C6
102
{ACAD_REACTORS
330
AF
102
}
330
AF
100
AcDbXrecord
 70
     0
  0
XRECORD
  5
BA
102
{ACAD_REACTORS
330
AF
102
}
330
AF
100
AcDbXrecord
  1
{FAEB1C32-E019-11D5-929B-00C0DF256EC4}
  0
DICTIONARYVAR
  5
D2
102
{ACAD_REACTORS
330
CF
102
}
330
CF
100
DictionaryVariables
280
     0
  1
2
  0
DICTIONARYVAR
  5
D3
102
{ACAD_REACTORS
330
CF
102
}
330
CF
100
DictionaryVariables
280
     0
  1
1
  0
DICTIONARY
  5
D6
330
3D
100
AcDbDictionary
280
     1
  3
ACAD_XREC_ROUNDTRIP
360
D7
  0
DICTIONARY
  5
D4
330
3C
100
AcDbDictionary
280
     1
  3
ACAD_XREC_ROUNDTRIP
360
D5
  0
DICTIONARY
  5
D8
330
3E
100
AcDbDictionary
280
     1
  3
ACAD_XREC_ROUNDTRIP
360
D9
  0
XRECORD
  5
D7
102
{ACAD_REACTORS
330
D6
102
}
330
D6
100
AcDbXrecord
102
MATERIAL
148
0.0
149
0.0
149
0.0
 93
        0
 94
      127
282
     0
 72
     1
 77
     1
171
     1
175
     1
179
     1
273
     0
  0
XRECORD
  5
D5
102
{ACAD_REACTORS
330
D4
102
}
330
D4
100
AcDbXrecord
102
MATERIAL
148
0.0
149
0.0
149
0.0
 93
        0
 94
      127
282
     0
 72
     1
 77
     1
171
     1
175
     1
179
     1
273
     0
  0
XRECORD
  5
D9
102
{ACAD_REACTORS
330
D8
102
}
330
D8
100
AcDbXrecord
102
MATERIAL
148
0.0
149
0.0
149
0.0
 93
        0
 94
      127
282
     0
 72
     1
 77
     1
171
     1
175
     1
179
     1
273
     0
  0
ENDSEC
  0
EOF
