  0
SECTION
  2
HEADER
  9
$ACADVER
  1
AC1015
  9
$ACADMAINTVER
 70
     6
  9
$DWGCODEPAGE
  3
ANSI_1250
  9
$INSBASE
 10
0.0
 20
0.0
 30
0.0
  9
$EXTMIN
 10
-39.4719
 20
-27.7143
 30
0.0
  9
$EXTMAX
 10
39.5588
 20
27.5734
 30
0.0
  9
$LIMMIN
 10
0.0
 20
0.0
  9
$LIMMAX
 10
12.0
 20
9.0
  9
$ORTHOMODE
 70
     0
  9
$REGENMODE
 70
     1
  9
$FILLMODE
 70
     1
  9
$QTEXTMODE
 70
     0
  9
$MIRRTEXT
 70
     1
  9
$LTSCALE
 40
1.0
  9
$ATTMODE
 70
     1
  9
$TEXTSIZE
 40
0.2
  9
$TRACEWID
 40
0.05
  9
$TEXTSTYLE
  7
Standard
  9
$CLAYER
  8
0
  9
$CELTYPE
  6
ByLayer
  9
$CECOLOR
 62
   256
  9
$CELTSCALE
 40
1.0
  9
$DISPSILH
 70
     0
  9
$DIMSCALE
 40
1.0
  9
$DIMASZ
 40
0.18
  9
$DIMEXO
 40
0.0625
  9
$DIMDLI
 40
0.38
  9
$DIMRND
 40
0.0
  9
$DIMDLE
 40
0.0
  9
$DIMEXE
 40
0.18
  9
$DIMTP
 40
0.0
  9
$DIMTM
 40
0.0
  9
$DIMTXT
 40
0.18
  9
$DIMCEN
 40
0.09
  9
$DIMTSZ
 40
0.0
  9
$DIMTOL
 70
     0
  9
$DIMLIM
 70
     0
  9
$DIMTIH
 70
     1
  9
$DIMTOH
 70
     1
  9
$DIMSE1
 70
     0
  9
$DIMSE2
 70
     0
  9
$DIMTAD
 70
     0
  9
$DIMZIN
 70
     0
  9
$DIMBLK
  1

  9
$DIMASO
 70
     1
  9
$DIMSHO
 70
     1
  9
$DIMPOST
  1

  9
$DIMAPOST
  1

  9
$DIMALT
 70
     0
  9
$DIMALTD
 70
     2
  9
$DIMALTF
 40
25.4
  9
$DIMLFAC
 40
1.0
  9
$DIMTOFL
 70
     0
  9
$DIMTVP
 40
0.0
  9
$DIMTIX
 70
     0
  9
$DIMSOXD
 70
     0
  9
$DIMSAH
 70
     0
  9
$DIMBLK1
  1

  9
$DIMBLK2
  1

  9
$DIMSTYLE
  2
Standard
  9
$DIMCLRD
 70
     0
  9
$DIMCLRE
 70
     0
  9
$DIMCLRT
 70
     0
  9
$DIMTFAC
 40
1.0
  9
$DIMGAP
 40
0.09
  9
$DIMJUST
 70
     0
  9
$DIMSD1
 70
     0
  9
$DIMSD2
 70
     0
  9
$DIMTOLJ
 70
     1
  9
$DIMTZIN
 70
     0
  9
$DIMALTZ
 70
     0
  9
$DIMALTTZ
 70
     0
  9
$DIMUPT
 70
     0
  9
$DIMDEC
 70
     4
  9
$DIMTDEC
 70
     4
  9
$DIMALTU
 70
     2
  9
$DIMALTTD
 70
     2
  9
$DIMTXSTY
  7
Standard
  9
$DIMAUNIT
 70
     0
  9
$DIMADEC
 70
     0
  9
$DIMALTRND
 40
0.0
  9
$DIMAZIN
 70
     0
  9
$DIMDSEP
 70
    46
  9
$DIMATFIT
 70
     3
  9
$DIMFRAC
 70
     0
  9
$DIMLDRBLK
  1

  9
$DIMLUNIT
 70
     2
  9
$DIMLWD
 70
    -2
  9
$DIMLWE
 70
    -2
  9
$DIMTMOVE
 70
     0
  9
$LUNITS
 70
     2
  9
$LUPREC
 70
     4
  9
$SKETCHINC
 40
0.1
  9
$FILLETRAD
 40
0.5
  9
$AUNITS
 70
     0
  9
$AUPREC
 70
     0
  9
$MENU
  1
.
  9
$ELEVATION
 40
0.0
  9
$PELEVATION
 40
0.0
  9
$THICKNESS
 40
0.0
  9
$LIMCHECK
 70
     0
  9
$CHAMFERA
 40
0.5
  9
$CHAMFERB
 40
0.5
  9
$CHAMFERC
 40
1.0
  9
$CHAMFERD
 40
0.0
  9
$SKPOLY
 70
     0
  9
$TDCREATE
 40
2458095.397466377
  9
$TDUCREATE
 40
2458095.355799711
  9
$TDUPDATE
 40
2458095.397466389
  9
$TDUUPDATE
 40
2458095.355799722
  9
$TDINDWG
 40
0.0000000116
  9
$TDUSRTIMER
 40
0.0000000116
  9
$USRTIMER
 70
     1
  9
$ANGBASE
 50
0.0
  9
$ANGDIR
 70
     0
  9
$PDMODE
 70
     0
  9
$PDSIZE
 40
0.0
  9
$PLINEWID
 40
0.0
  9
$SPLFRAME
 70
     0
  9
$SPLINETYPE
 70
     6
  9
$SPLINESEGS
 70
     8
  9
$HANDSEED
  5
E4
  9
$SURFTAB1
 70
     6
  9
$SURFTAB2
 70
     6
  9
$SURFTYPE
 70
     6
  9
$SURFU
 70
     6
  9
$SURFV
 70
     6
  9
$UCSBASE
  2

  9
$UCSNAME
  2

  9
$UCSORG
 10
0.0
 20
0.0
 30
0.0
  9
$UCSXDIR
 10
1.0
 20
0.0
 30
0.0
  9
$UCSYDIR
 10
0.0
 20
1.0
 30
0.0
  9
$UCSORTHOREF
  2

  9
$UCSORTHOVIEW
 70
     0
  9
$UCSORGTOP
 10
0.0
 20
0.0
 30
0.0
  9
$UCSORGBOTTOM
 10
0.0
 20
0.0
 30
0.0
  9
$UCSORGLEFT
 10
0.0
 20
0.0
 30
0.0
  9
$UCSORGRIGHT
 10
0.0
 20
0.0
 30
0.0
  9
$UCSORGFRONT
 10
0.0
 20
0.0
 30
0.0
  9
$UCSORGBACK
 10
0.0
 20
0.0
 30
0.0
  9
$PUCSBASE
  2

  9
$PUCSNAME
  2

  9
$PUCSORG
 10
0.0
 20
0.0
 30
0.0
  9
$PUCSXDIR
 10
1.0
 20
0.0
 30
0.0
  9
$PUCSYDIR
 10
0.0
 20
1.0
 30
0.0
  9
$PUCSORTHOREF
  2

  9
$PUCSORTHOVIEW
 70
     0
  9
$PUCSORGTOP
 10
0.0
 20
0.0
 30
0.0
  9
$PUCSORGBOTTOM
 10
0.0
 20
0.0
 30
0.0
  9
$PUCSORGLEFT
 10
0.0
 20
0.0
 30
0.0
  9
$PUCSORGRIGHT
 10
0.0
 20
0.0
 30
0.0
  9
$PUCSORGFRONT
 10
0.0
 20
0.0
 30
0.0
  9
$PUCSORGBACK
 10
0.0
 20
0.0
 30
0.0
  9
$USERI1
 70
     0
  9
$USERI2
 70
     0
  9
$USERI3
 70
     0
  9
$USERI4
 70
     0
  9
$USERI5
 70
     0
  9
$USERR1
 40
0.0
  9
$USERR2
 40
0.0
  9
$USERR3
 40
0.0
  9
$USERR4
 40
0.0
  9
$USERR5
 40
0.0
  9
$WORLDVIEW
 70
     1
  9
$SHADEDGE
 70
     3
  9
$SHADEDIF
 70
    70
  9
$TILEMODE
 70
     1
  9
$MAXACTVP
 70
    64
  9
$PINSBASE
 10
0.0
 20
0.0
 30
0.0
  9
$PLIMCHECK
 70
     0
  9
$PEXTMIN
 10
1.000000000000000E+20
 20
1.000000000000000E+20
 30
1.000000000000000E+20
  9
$PEXTMAX
 10
-1.000000000000000E+20
 20
-1.000000000000000E+20
 30
-1.000000000000000E+20
  9
$PLIMMIN
 10
0.0
 20
0.0
  9
$PLIMMAX
 10
12.0
 20
9.0
  9
$UNITMODE
 70
     0
  9
$VISRETAIN
 70
     1
  9
$PLINEGEN
 70
     0
  9
$PSLTSCALE
 70
     1
  9
$TREEDEPTH
 70
  3020
  9
$CMLSTYLE
  2
Standard
  9
$CMLJUST
 70
     0
  9
$CMLSCALE
 40
1.0
  9
$PROXYGRAPHICS
 70
     1
  9
$MEASUREMENT
 70
     0
  9
$CELWEIGHT
370
    -1
  9
$ENDCAPS
280
     0
  9
$JOINSTYLE
280
     0
  9
$LWDISPLAY
290
     0
  9
$INSUNITS
 70
     4
  9
$HYPERLINKBASE
  1

  9
$STYLESHEET
  1

  9
$XEDIT
290
     1
  9
$CEPSNTYPE
380
     0
  9
$PSTYLEMODE
290
     1
  9
$FINGERPRINTGUID
  2
{570EA809-4947-4B72-8575-4CB49D57EAC6}
  9
$VERSIONGUID
  2
{FAEB1C32-E019-11D5-929B-00C0DF256EC4}
  9
$EXTNAMES
290
     1
  9
$PSVPSCALE
 40
0.0
  9
$OLESTARTUP
290
     0
  0
ENDSEC
  0
SECTION
  2
CLASSES
  0
CLASS
  1
ACDBDICTIONARYWDFLT
  2
AcDbDictionaryWithDefault
  3
ObjectDBX Classes
 90
        0
280
     0
281
     0
  0
CLASS
  1
VISUALSTYLE
  2
AcDbVisualStyle
  3
ObjectDBX Classes
 90
     4095
280
     0
281
     0
  0
CLASS
  1
MATERIAL
  2
AcDbMaterial
  3
ObjectDBX Classes
 90
     1153
280
     0
281
     0
  0
CLASS
  1
DICTIONARYVAR
  2
AcDbDictionaryVar
  3
ObjectDBX Classes
 90
        0
280
     0
281
     0
  0
CLASS
  1
ACDBPLACEHOLDER
  2
AcDbPlaceHolder
  3
ObjectDBX Classes
 90
        0
280
     0
281
     0
  0
CLASS
  1
LAYOUT
  2
AcDbLayout
  3
ObjectDBX Classes
 90
        0
280
     0
281
     0
  0
ENDSEC
  0
SECTION
  2
TABLES
  0
TABLE
  2
VPORT
  5
8
330
0
100
AcDbSymbolTable
 70
     1
  0
VPORT
  5
29
330
8
100
AcDbSymbolTableRecord
100
AcDbViewportTableRecord
  2
*Active
 70
     0
 10
0.0
 20
0.0
 11
1.0
 21
1.0
 12
10.42990654205607
 22
4.5
 13
0.0
 23
0.0
 14
0.5
 24
0.5
 15
0.5
 25
0.5
 16
0.0
 26
0.0
 36
1.0
 17
0.0
 27
0.0
 37
0.0
 40
9.0
 41
1.972972972850329
 42
50.0
 43
0.0
 44
0.0
 50
0.0
 51
0.0
 71
     0
 72
   100
 73
     1
 74
     3
 75
     0
 76
     0
 77
     0
 78
     0
281
     0
 65
     1
110
0.0
120
0.0
130
0.0
111
1.0
121
0.0
131
0.0
112
0.0
122
1.0
132
0.0
 79
     0
146
0.0
  0
ENDTAB
  0
TABLE
  2
LTYPE
  5
5
330
0
100
AcDbSymbolTable
 70
     1
  0
LTYPE
  5
14
330
5
100
AcDbSymbolTableRecord
100
AcDbLinetypeTableRecord
  2
ByBlock
 70
     0
  3

 72
    65
 73
     0
 40
0.0
  0
LTYPE
  5
15
330
5
100
AcDbSymbolTableRecord
100
AcDbLinetypeTableRecord
  2
ByLayer
 70
     0
  3

 72
    65
 73
     0
 40
0.0
  0
LTYPE
  5
16
330
5
100
AcDbSymbolTableRecord
100
AcDbLinetypeTableRecord
  2
Continuous
 70
     0
  3
Solid line
 72
    65
 73
     0
 40
0.0
  0
ENDTAB
  0
TABLE
  2
LAYER
  5
2
330
0
100
AcDbSymbolTable
 70
     2
  0
LAYER
  5
10
330
2
100
AcDbSymbolTableRecord
100
AcDbLayerTableRecord
  2
0
 70
     0
 62
     7
  6
Continuous
370
    -3
390
F
  0
LAYER
  5
40
330
2
100
AcDbSymbolTableRecord
100
AcDbLayerTableRecord
  2
Ilustrace
 70
     0
 62
     7
  6
Continuous
370
    -3
390
F
  0
ENDTAB
  0
TABLE
  2
STYLE
  5
3
330
0
100
AcDbSymbolTable
 70
     1
  0
STYLE
  5
11
330
3
100
AcDbSymbolTableRecord
100
AcDbTextStyleTableRecord
  2
Standard
 70
     0
 40
0.0
 41
1.0
 50
0.0
 71
     0
 42
0.2
  3
txt
  4

  0
ENDTAB
  0
TABLE
  2
VIEW
  5
6
330
0
100
AcDbSymbolTable
 70
     0
  0
ENDTAB
  0
TABLE
  2
UCS
  5
7
330
0
100
AcDbSymbolTable
 70
     0
  0
ENDTAB
  0
TABLE
  2
APPID
  5
9
330
0
100
AcDbSymbolTable
 70
     2
  0
APPID
  5
12
330
9
100
AcDbSymbolTableRecord
100
AcDbRegAppTableRecord
  2
ACAD
 70
     0
  0
APPID
  5
3F
330
9
100
AcDbSymbolTableRecord
100
AcDbRegAppTableRecord
  2
ODA
 70
     0
  0
ENDTAB
  0
TABLE
  2
DIMSTYLE
  5
A
330
0
100
AcDbSymbolTable
 70
     1
100
AcDbDimStyleTable
  0
DIMSTYLE
105
27
330
A
100
AcDbSymbolTableRecord
100
AcDbDimStyleTableRecord
  2
Standard
 70
     0
340
11
  0
ENDTAB
  0
TABLE
  2
BLOCK_RECORD
  5
1
330
0
100
AcDbSymbolTable
 70
     1
  0
BLOCK_RECORD
  5
1F
330
1
100
AcDbSymbolTableRecord
100
AcDbBlockTableRecord
  2
*Model_Space
340
22
  0
BLOCK_RECORD
  5
1B
330
1
100
AcDbSymbolTableRecord
100
AcDbBlockTableRecord
  2
*Paper_Space
340
1E
  0
BLOCK_RECORD
  5
23
330
1
100
AcDbSymbolTableRecord
100
AcDbBlockTableRecord
  2
*Paper_Space0
340
26
  0
ENDTAB
  0
ENDSEC
  0
SECTION
  2
BLOCKS
  0
BLOCK
  5
20
330
1F
100
AcDbEntity
  8
0
100
AcDbBlockBegin
  2
*Model_Space
 70
     0
 10
0.0
 20
0.0
 30
0.0
  3
*Model_Space
  1

  0
ENDBLK
  5
21
330
1F
100
AcDbEntity
  8
0
100
AcDbBlockEnd
  0
BLOCK
  5
1C
330
1B
100
AcDbEntity
 67
     1
  8
0
100
AcDbBlockBegin
  2
*Paper_Space
 70
     0
 10
0.0
 20
0.0
 30
0.0
  3
*Paper_Space
  1

  0
ENDBLK
  5
1D
330
1B
100
AcDbEntity
 67
     1
  8
0
100
AcDbBlockEnd
  0
BLOCK
  5
24
330
23
100
AcDbEntity
  8
0
100
AcDbBlockBegin
  2
*Paper_Space0
 70
     0
 10
0.0
 20
0.0
 30
0.0
  3
*Paper_Space0
  1

  0
ENDBLK
  5
25
330
23
100
AcDbEntity
  8
0
100
AcDbBlockEnd
  0
ENDSEC
  0
SECTION
  2
ENTITIES
  0
SPLINE
  5
41
330
1F
100
AcDbEntity
  8
Ilustrace
 62
   250
370
    30
100
AcDbSpline
210
0.0
220
0.0
230
1.0
 70
    24
 71
     3
 72
     8
 73
     4
 74
     0
 42
0.0000000001
 43
0.0000000001
 40
0.0
 40
0.0
 40
0.0
 40
0.0
 40
1.0
 40
1.0
 40
1.0
 40
1.0
 10
-9.0181
 20
-19.6352
 30
0.0
 10
-9.0181
 20
-19.6352
 30
0.0
 10
-7.6229
 20
-20.0389
 30
0.0
 10
-7.6229
 20
-20.0389
 30
0.0
  0
SPLINE
  5
42
330
1F
100
AcDbEntity
  8
Ilustrace
 62
   250
370
    30
100
AcDbSpline
210
0.0
220
0.0
230
1.0
 70
    24
 71
     3
 72
     8
 73
     4
 74
     0
 42
0.0000000001
 43
0.0000000001
 40
0.0
 40
0.0
 40
0.0
 40
0.0
 40
1.0
 40
1.0
 40
1.0
 40
1.0
 10
-8.6882
 20
-19.7306
 30
0.0
 10
-8.6882
 20
-19.7306
 30
0.0
 10
-8.5775
 20
-19.7979
 30
0.0
 10
-8.5775
 20
-19.7979
 30
0.0
  0
SPLINE
  5
43
330
1F
100
AcDbEntity
  8
Ilustrace
 62
   250
370
    30
100
AcDbSpline
210
0.0
220
0.0
230
1.0
 70
    24
 71
     3
 72
     8
 73
     4
 74
     0
 42
0.0000000001
 43
0.0000000001
 40
0.0
 40
0.0
 40
0.0
 40
0.0
 40
1.0
 40
1.0
 40
1.0
 40
1.0
 10
-8.0925
 20
-19.903
 30
0.0
 10
-8.0925
 20
-19.903
 30
0.0
 10
-7.9549
 20
-19.9495
 30
0.0
 10
-7.9549
 20
-19.9495
 30
0.0
  0
SPLINE
  5
44
330
1F
100
AcDbEntity
  8
Ilustrace
 62
   250
370
    30
100
AcDbSpline
210
0.0
220
0.0
230
1.0
 70
    24
 71
     3
 72
     8
 73
     4
 74
     0
 42
0.0000000001
 43
0.0000000001
 40
0.0
 40
0.0
 40
0.0
 40
0.0
 40
1.0
 40
1.0
 40
1.0
 40
1.0
 10
26.3471
 20
1.1831
 30
0.0
 10
26.3471
 20
1.1831
 30
0.0
 10
19.0856
 20
-9.4187
 30
0.0
 10
19.0856
 20
-9.4187
 30
0.0
  0
SPLINE
  5
45
330
1F
100
AcDbEntity
  8
Ilustrace
 62
   250
370
    30
100
AcDbSpline
210
0.0
220
0.0
230
1.0
 70
    24
 71
     3
 72
     8
 73
     4
 74
     0
 42
0.0000000001
 43
0.0000000001
 40
0.0
 40
0.0
 40
0.0
 40
0.0
 40
1.0
 40
1.0
 40
1.0
 40
1.0
 10
39.4177
 20
1.1831
 30
0.0
 10
39.4177
 20
1.1831
 30
0.0
 10
26.3471
 20
1.1831
 30
0.0
 10
26.3471
 20
1.1831
 30
0.0
  0
SPLINE
  5
46
330
1F
100
AcDbEntity
  8
Ilustrace
 62
   250
370
    30
100
AcDbSpline
210
0.0
220
0.0
230
1.0
 70
    24
 71
     3
 72
     8
 73
     4
 74
     0
 42
0.0000000001
 43
0.0000000001
 40
0.0
 40
0.0
 40
0.0
 40
0.0
 40
1.0
 40
1.0
 40
1.0
 40
1.0
 10
39.4177
 20
10.4779
 30
0.0
 10
39.4177
 20
10.4779
 30
0.0
 10
39.4177
 20
1.1831
 30
0.0
 10
39.4177
 20
1.1831
 30
0.0
  0
SPLINE
  5
47
330
1F
100
AcDbEntity
  8
Ilustrace
 62
   250
370
    30
100
AcDbSpline
210
0.0
220
0.0
230
1.0
 70
    24
 71
     3
 72
     8
 73
     4
 74
     0
 42
0.0000000001
 43
0.0000000001
 40
0.0
 40
0.0
 40
0.0
 40
0.0
 40
1.0
 40
1.0
 40
1.0
 40
1.0
 10
26.3471
 20
10.4779
 30
0.0
 10
26.3471
 20
10.4779
 30
0.0
 10
39.4177
 20
10.4779
 30
0.0
 10
39.4177
 20
10.4779
 30
0.0
  0
SPLINE
  5
48
330
1F
100
AcDbEntity
  8
Ilustrace
 62
   250
370
    30
100
AcDbSpline
210
0.0
220
0.0
230
1.0
 70
    24
 71
     3
 72
     8
 73
     4
 74
     0
 42
0.0000000001
 43
0.0000000001
 40
0.0
 40
0.0
 40
0.0
 40
0.0
 40
1.0
 40
1.0
 40
1.0
 40
1.0
 10
19.0856
 20
21.0797
 30
0.0
 10
19.0856
 20
21.0797
 30
0.0
 10
26.3471
 20
10.4779
 30
0.0
 10
26.3471
 20
10.4779
 30
0.0
  0
SPLINE
  5
49
330
1F
100
AcDbEntity
  8
Ilustrace
 62
   250
370
    30
100
AcDbSpline
210
0.0
220
0.0
230
1.0
 70
    24
 71
     3
 72
     8
 73
     4
 74
     0
 42
0.0000000001
 43
0.0000000001
 40
0.0
 40
0.0
 40
0.0
 40
0.0
 40
1.0
 40
1.0
 40
1.0
 40
1.0
 10
3.1392
 20
21.0796
 30
0.0
 10
3.1392
 20
21.0796
 30
0.0
 10
19.0856
 20
21.0796
 30
0.0
 10
19.0856
 20
21.0796
 30
0.0
  0
SPLINE
  5
4A
330
1F
100
AcDbEntity
  8
Ilustrace
 62
   250
370
    30
100
AcDbSpline
210
0.0
220
0.0
230
1.0
 70
    24
 71
     3
 72
     8
 73
     4
 74
     0
 42
0.0000000001
 43
0.0000000001
 40
0.0
 40
0.0
 40
0.0
 40
0.0
 40
1.0
 40
1.0
 40
1.0
 40
1.0
 10
3.1392
 20
21.0215
 30
0.0
 10
3.1392
 20
21.0215
 30
0.0
 10
3.1392
 20
-9.3939
 30
0.0
 10
3.1392
 20
-9.3939
 30
0.0
  0
SPLINE
  5
4B
330
1F
100
AcDbEntity
  8
Ilustrace
 62
   250
370
    30
100
AcDbSpline
210
0.0
220
0.0
230
1.0
 70
    24
 71
     3
 72
     8
 73
     4
 74
     0
 42
0.0000000001
 43
0.0000000001
 40
0.0
 40
0.0
 40
0.0
 40
0.0
 40
1.0
 40
1.0
 40
1.0
 40
1.0
 10
3.0812
 20
-9.4187
 30
0.0
 10
3.0812
 20
-9.4187
 30
0.0
 10
3.0812
 20
21.0796
 30
0.0
 10
3.0812
 20
21.0796
 30
0.0
  0
SPLINE
  5
4C
330
1F
100
AcDbEntity
  8
Ilustrace
 62
   250
370
    30
100
AcDbSpline
210
0.0
220
0.0
230
1.0
 70
    24
 71
     3
 72
     8
 73
     4
 74
     0
 42
0.0000000001
 43
0.0000000001
 40
0.0
 40
0.0
 40
0.0
 40
0.0
 40
1.0
 40
1.0
 40
1.0
 40
1.0
 10
3.1392
 20
21.0796
 30
0.0
 10
3.1392
 20
21.0796
 30
0.0
 10
3.1392
 20
-9.3939
 30
0.0
 10
3.1392
 20
-9.3939
 30
0.0
  0
SPLINE
  5
4D
330
1F
100
AcDbEntity
  8
Ilustrace
 62
   250
370
    30
100
AcDbSpline
210
0.0
220
0.0
230
1.0
 70
    24
 71
     3
 72
     8
 73
     4
 74
     0
 42
0.0000000001
 43
0.0000000001
 40
0.0
 40
0.0
 40
0.0
 40
0.0
 40
1.0
 40
1.0
 40
1.0
 40
1.0
 10
-12.865
 20
-9.4187
 30
0.0
 10
-12.865
 20
-9.4187
 30
0.0
 10
3.0812
 20
-9.4187
 30
0.0
 10
3.0812
 20
-9.4187
 30
0.0
  0
SPLINE
  5
4E
330
1F
100
AcDbEntity
  8
Ilustrace
 62
   250
370
    30
100
AcDbSpline
210
0.0
220
0.0
230
1.0
 70
    24
 71
     3
 72
     8
 73
     4
 74
     0
 42
0.0000000001
 43
0.0000000001
 40
0.0
 40
0.0
 40
0.0
 40
0.0
 40
1.0
 40
1.0
 40
1.0
 40
1.0
 10
3.1103
 20
-9.3357
 30
0.0
 10
3.1103
 20
-9.3357
 30
0.0
 10
3.1103
 20
-9.3607
 30
0.0
 10
3.1103
 20
-9.3607
 30
0.0
  0
SPLINE
  5
4F
330
1F
100
AcDbEntity
  8
Ilustrace
 62
   250
370
    30
100
AcDbSpline
210
0.0
220
0.0
230
1.0
 70
    24
 71
     3
 72
     8
 73
     4
 74
     0
 42
0.0000000001
 43
0.0000000001
 40
0.0
 40
0.0
 40
0.0
 40
0.0
 40
1.0
 40
1.0
 40
1.0
 40
1.0
 10
3.1103
 20
-9.3357
 30
0.0
 10
3.1103
 20
-9.3357
 30
0.0
 10
3.1392
 20
-9.3357
 30
0.0
 10
3.1392
 20
-9.3357
 30
0.0
  0
SPLINE
  5
50
330
1F
100
AcDbEntity
  8
Ilustrace
 62
   250
370
    30
100
AcDbSpline
210
0.0
220
0.0
230
1.0
 70
    24
 71
     3
 72
     8
 73
     4
 74
     0
 42
0.0000000001
 43
0.0000000001
 40
0.0
 40
0.0
 40
0.0
 40
0.0
 40
1.0
 40
1.0
 40
1.0
 40
1.0
 10
3.0812
 20
-9.3607
 30
0.0
 10
3.0812
 20
-9.3607
 30
0.0
 10
3.1103
 20
-9.3607
 30
0.0
 10
3.1103
 20
-9.3607
 30
0.0
  0
SPLINE
  5
51
330
1F
100
AcDbEntity
  8
Ilustrace
 62
   250
370
    30
100
AcDbSpline
210
0.0
220
0.0
230
1.0
 70
    24
 71
     3
 72
     8
 73
     4
 74
     0
 42
0.0000000001
 43
0.0000000001
 40
0.0
 40
0.0
 40
0.0
 40
0.0
 40
1.0
 40
1.0
 40
1.0
 40
1.0
 10
-20.1265
 20
1.1831
 30
0.0
 10
-20.1265
 20
1.1831
 30
0.0
 10
-12.865
 20
-9.4187
 30
0.0
 10
-12.865
 20
-9.4187
 30
0.0
  0
SPLINE
  5
52
330
1F
100
AcDbEntity
  8
Ilustrace
 62
   250
370
    30
100
AcDbSpline
210
0.0
220
0.0
230
1.0
 70
    24
 71
     3
 72
     8
 73
     4
 74
     0
 42
0.0000000001
 43
0.0000000001
 40
0.0
 40
0.0
 40
0.0
 40
0.0
 40
1.0
 40
1.0
 40
1.0
 40
1.0
 10
-33.1973
 20
1.1831
 30
0.0
 10
-33.1973
 20
1.1831
 30
0.0
 10
-20.1265
 20
1.1831
 30
0.0
 10
-20.1265
 20
1.1831
 30
0.0
  0
SPLINE
  5
53
330
1F
100
AcDbEntity
  8
Ilustrace
 62
   250
370
    30
100
AcDbSpline
210
0.0
220
0.0
230
1.0
 70
    24
 71
     3
 72
     8
 73
     4
 74
     0
 42
0.0000000001
 43
0.0000000001
 40
0.0
 40
0.0
 40
0.0
 40
0.0
 40
1.0
 40
1.0
 40
1.0
 40
1.0
 10
-33.1973
 20
10.4779
 30
0.0
 10
-33.1973
 20
10.4779
 30
0.0
 10
-33.1973
 20
1.1831
 30
0.0
 10
-33.1973
 20
1.1831
 30
0.0
  0
SPLINE
  5
54
330
1F
100
AcDbEntity
  8
Ilustrace
 62
   250
370
    30
100
AcDbSpline
210
0.0
220
0.0
230
1.0
 70
    24
 71
     3
 72
     8
 73
     4
 74
     0
 42
0.0000000001
 43
0.0000000001
 40
0.0
 40
0.0
 40
0.0
 40
0.0
 40
1.0
 40
1.0
 40
1.0
 40
1.0
 10
-20.1265
 20
10.4779
 30
0.0
 10
-20.1265
 20
10.4779
 30
0.0
 10
-33.1973
 20
10.4779
 30
0.0
 10
-33.1973
 20
10.4779
 30
0.0
  0
SPLINE
  5
55
330
1F
100
AcDbEntity
  8
Ilustrace
 62
   250
370
    30
100
AcDbSpline
210
0.0
220
0.0
230
1.0
 70
    24
 71
     3
 72
     8
 73
     4
 74
     0
 42
0.0000000001
 43
0.0000000001
 40
0.0
 40
0.0
 40
0.0
 40
0.0
 40
1.0
 40
1.0
 40
1.0
 40
1.0
 10
-12.865
 20
21.0797
 30
0.0
 10
-12.865
 20
21.0797
 30
0.0
 10
-20.1265
 20
10.4779
 30
0.0
 10
-20.1265
 20
10.4779
 30
0.0
  0
SPLINE
  5
56
330
1F
100
AcDbEntity
  8
Ilustrace
 62
   250
370
    30
100
AcDbSpline
210
0.0
220
0.0
230
1.0
 70
    24
 71
     3
 72
     8
 73
     4
 74
     0
 42
0.0000000001
 43
0.0000000001
 40
0.0
 40
0.0
 40
0.0
 40
0.0
 40
1.0
 40
1.0
 40
1.0
 40
1.0
 10
3.0812
 20
21.0796
 30
0.0
 10
3.0812
 20
21.0796
 30
0.0
 10
-12.865
 20
21.0796
 30
0.0
 10
-12.865
 20
21.0796
 30
0.0
  0
SPLINE
  5
57
330
1F
100
AcDbEntity
  8
Ilustrace
 62
   250
370
    30
100
AcDbSpline
210
0.0
220
0.0
230
1.0
 70
    24
 71
     3
 72
     8
 73
     4
 74
     0
 42
0.0000000001
 43
0.0000000001
 40
0.0
 40
0.0
 40
0.0
 40
0.0
 40
1.0
 40
1.0
 40
1.0
 40
1.0
 10
3.1392
 20
21.0215
 30
0.0
 10
3.1392
 20
21.0215
 30
0.0
 10
3.0812
 20
21.0215
 30
0.0
 10
3.0812
 20
21.0215
 30
0.0
  0
SPLINE
  5
58
330
1F
100
AcDbEntity
  8
Ilustrace
 62
   250
370
    30
100
AcDbSpline
210
0.0
220
0.0
230
1.0
 70
    24
 71
     3
 72
     8
 73
     4
 74
     0
 42
0.0000000001
 43
0.0000000001
 40
0.0
 40
0.0
 40
0.0
 40
0.0
 40
1.0
 40
1.0
 40
1.0
 40
1.0
 10
-15.8606
 20
-27.5633
 30
0.0
 10
-15.8606
 20
-27.5633
 30
0.0
 10
-12.0736
 20
-26.0815
 30
0.0
 10
-12.0736
 20
-26.0815
 30
0.0
  0
SPLINE
  5
59
330
1F
100
AcDbEntity
  8
Ilustrace
 62
   250
370
    30
100
AcDbSpline
210
0.0
220
0.0
230
1.0
 70
    24
 71
     3
 72
     8
 73
     4
 74
     0
 42
0.0000000001
 43
0.0000000001
 40
0.0
 40
0.0
 40
0.0
 40
0.0
 40
1.0
 40
1.0
 40
1.0
 40
1.0
 10
-13.3035
 20
-20.6044
 30
0.0
 10
-13.3035
 20
-20.6044
 30
0.0
 10
-16.6734
 20
-18.3284
 30
0.0
 10
-16.6734
 20
-18.3284
 30
0.0
  0
SPLINE
  5
5A
330
1F
100
AcDbEntity
  8
Ilustrace
 62
   250
370
    30
100
AcDbSpline
210
0.0
220
0.0
230
1.0
 70
     8
 71
     3
 72
     8
 73
     4
 74
     0
 42
0.0000000001
 43
0.0000000001
 40
0.0
 40
0.0
 40
0.0
 40
0.0
 40
1.0
 40
1.0
 40
1.0
 40
1.0
 10
-16.018
 20
-27.5295
 30
0.0
 10
-15.976
 20
-27.5676
 30
0.0
 10
-15.9275
 20
-27.5818
 30
0.0
 10
-15.8724
 20
-27.5682
 30
0.0
  0
SPLINE
  5
5B
330
1F
100
AcDbEntity
  8
Ilustrace
 62
   250
370
    30
100
AcDbSpline
210
0.0
220
0.0
230
1.0
 70
     8
 71
     3
 72
     8
 73
     4
 74
     0
 42
0.0000000001
 43
0.0000000001
 40
0.0
 40
0.0
 40
0.0
 40
0.0
 40
1.0
 40
1.0
 40
1.0
 40
1.0
 10
-16.0208
 20
-27.5263
 30
0.0
 10
-16.0322
 20
-27.5124
 30
0.0
 10
-16.0418
 20
-27.4987
 30
0.0
 10
-16.0485
 20
-27.4818
 30
0.0
  0
SPLINE
  5
5C
330
1F
100
AcDbEntity
  8
Ilustrace
 62
   250
370
    30
100
AcDbSpline
210
0.0
220
0.0
230
1.0
 70
     8
 71
     3
 72
    20
 73
    16
 74
     0
 42
0.0000000001
 43
0.0000000001
 40
0.0
 40
0.0
 40
0.0
 40
0.0
 40
0.2
 40
0.2
 40
0.2
 40
0.2
 40
0.4
 40
0.4
 40
0.4
 40
0.4
 40
0.6
 40
0.6
 40
0.6
 40
0.6
 40
1.0
 40
1.0
 40
1.0
 40
1.0
 10
-16.0485
 20
-27.4818
 30
0.0
 10
-16.0485
 20
-27.4818
 30
0.0
 10
-16.2601
 20
-26.9408
 30
0.0
 10
-16.2601
 20
-26.9408
 30
0.0
 10
-16.2601
 20
-26.9408
 30
0.0
 10
-16.2601
 20
-26.9408
 30
0.0
 10
-16.366
 20
-26.6703
 30
0.0
 10
-16.366
 20
-26.6703
 30
0.0
 10
-16.366
 20
-26.6703
 30
0.0
 10
-16.366
 20
-26.6703
 30
0.0
 10
-16.5777
 20
-26.1293
 30
0.0
 10
-16.5777
 20
-26.1293
 30
0.0
 10
-16.5777
 20
-26.1293
 30
0.0
 10
-16.5777
 20
-26.1293
 30
0.0
 10
-16.5877
 20
-26.0799
 30
0.0
 10
-16.5877
 20
-26.0799
 30
0.0
  0
SPLINE
  5
5D
330
1F
100
AcDbEntity
  8
Ilustrace
 62
   250
370
    30
100
AcDbSpline
210
0.0
220
0.0
230
1.0
 70
     8
 71
     3
 72
     8
 73
     4
 74
     0
 42
0.0000000001
 43
0.0000000001
 40
0.0
 40
0.0
 40
0.0
 40
0.0
 40
1.0
 40
1.0
 40
1.0
 40
1.0
 10
-16.5877
 20
-26.0799
 30
0.0
 10
-16.5864
 20
-26.0235
 30
0.0
 10
-16.5586
 20
-25.9719
 30
0.0
 10
-16.5068
 20
-25.9463
 30
0.0
  0
SPLINE
  5
5E
330
1F
100
AcDbEntity
  8
Ilustrace
 62
   250
370
    30
100
AcDbSpline
210
0.0
220
0.0
230
1.0
 70
     8
 71
     3
 72
    12
 73
     8
 74
     0
 42
0.0000000001
 43
0.0000000001
 40
0.0
 40
0.0
 40
0.0
 40
0.0
 40
0.3333333333333333
 40
0.3333333333333333
 40
0.3333333333333333
 40
0.3333333333333333
 40
1.0
 40
1.0
 40
1.0
 40
1.0
 10
-16.5068
 20
-25.9463
 30
0.0
 10
-16.5068
 20
-25.9463
 30
0.0
 10
-15.9543
 20
-25.7294
 30
0.0
 10
-15.9543
 20
-25.7294
 30
0.0
 10
-15.9543
 20
-25.7294
 30
0.0
 10
-15.9543
 20
-25.7294
 30
0.0
 10
-13.2491
 20
-24.6709
 30
0.0
 10
-13.2491
 20
-24.6709
 30
0.0
  0
SPLINE
  5
5F
330
1F
100
AcDbEntity
  8
Ilustrace
 62
   250
370
    30
100
AcDbSpline
210
0.0
220
0.0
230
1.0
 70
     8
 71
     3
 72
     8
 73
     4
 74
     0
 42
0.0000000001
 43
0.0000000001
 40
0.0
 40
0.0
 40
0.0
 40
0.0
 40
1.0
 40
1.0
 40
1.0
 40
1.0
 10
-13.2491
 20
-24.6709
 30
0.0
 10
-13.2319
 20
-24.6642
 30
0.0
 10
-12.7283
 20
-24.3322
 30
0.0
 10
-12.551
 20
-24.494
 30
0.0
  0
SPLINE
  5
60
330
1F
100
AcDbEntity
  8
Ilustrace
 62
   250
370
    30
100
AcDbSpline
210
0.0
220
0.0
230
1.0
 70
     8
 71
     3
 72
    16
 73
    12
 74
     0
 42
0.0000000001
 43
0.0000000001
 40
0.0
 40
0.0
 40
0.0
 40
0.0
 40
0.25
 40
0.25
 40
0.25
 40
0.25
 40
0.5
 40
0.5
 40
0.5
 40
0.5
 40
1.0
 40
1.0
 40
1.0
 40
1.0
 10
-9.5748
 20
-21.9421
 30
0.0
 10
-9.7314
 20
-22.1801
 30
0.0
 10
-9.9033
 20
-22.4008
 30
0.0
 10
-10.1085
 20
-22.5997
 30
0.0
 10
-10.1085
 20
-22.5997
 30
0.0
 10
-10.2637
 20
-22.7499
 30
0.0
 10
-10.4312
 20
-22.8848
 30
0.0
 10
-10.6107
 20
-23.0049
 30
0.0
 10
-10.6107
 20
-23.0049
 30
0.0
 10
-11.8182
 20
-23.8109
 30
0.0
 10
-13.3281
 20
-23.8065
 30
0.0
 10
-14.7159
 20
-23.6568
 30
0.0
  0
SPLINE
  5
61
330
1F
100
AcDbEntity
  8
Ilustrace
 62
   250
370
    30
100
AcDbSpline
210
0.0
220
0.0
230
1.0
 70
     8
 71
     3
 72
     8
 73
     4
 74
     0
 42
0.0000000001
 43
0.0000000001
 40
0.0
 40
0.0
 40
0.0
 40
0.0
 40
1.0
 40
1.0
 40
1.0
 40
1.0
 10
-18.9466
 20
-22.4767
 30
0.0
 10
-18.8139
 20
-22.2761
 30
0.0
 10
-18.2437
 20
-22.4757
 30
0.0
 10
-18.2256
 20
-22.4779
 30
0.0
  0
SPLINE
  5
62
330
1F
100
AcDbEntity
  8
Ilustrace
 62
   250
370
    30
100
AcDbSpline
210
0.0
220
0.0
230
1.0
 70
     8
 71
     3
 72
    16
 73
    12
 74
     0
 42
0.0000000001
 43
0.0000000001
 40
0.0
 40
0.0
 40
0.0
 40
0.0
 40
0.25
 40
0.25
 40
0.25
 40
0.25
 40
0.5
 40
0.5
 40
0.5
 40
0.5
 40
1.0
 40
1.0
 40
1.0
 40
1.0
 10
-18.2256
 20
-22.4779
 30
0.0
 10
-18.2256
 20
-22.4779
 30
0.0
 10
-15.3442
 20
-22.8449
 30
0.0
 10
-15.3442
 20
-22.8449
 30
0.0
 10
-15.3442
 20
-22.8449
 30
0.0
 10
-15.3442
 20
-22.8449
 30
0.0
 10
-14.7678
 20
-22.9181
 30
0.0
 10
-14.7678
 20
-22.9181
 30
0.0
 10
-14.7678
 20
-22.9181
 30
0.0
 10
-14.7678
 20
-22.9181
 30
0.0
 10
-14.7183
 20
-22.9339
 30
0.0
 10
-14.7183
 20
-22.9339
 30
0.0
  0
SPLINE
  5
63
330
1F
100
AcDbEntity
  8
Ilustrace
 62
   250
370
    30
100
AcDbSpline
210
0.0
220
0.0
230
1.0
 70
     8
 71
     3
 72
     8
 73
     4
 74
     0
 42
0.0000000001
 43
0.0000000001
 40
0.0
 40
0.0
 40
0.0
 40
0.0
 40
1.0
 40
1.0
 40
1.0
 40
1.0
 10
-14.7145
 20
-22.936
 30
0.0
 10
-14.5142
 20
-23.0686
 30
0.0
 10
-14.7134
 20
-23.6387
 30
0.0
 10
-14.7159
 20
-23.6568
 30
0.0
  0
SPLINE
  5
64
330
1F
100
AcDbEntity
  8
Ilustrace
 62
   250
370
    30
100
AcDbSpline
210
0.0
220
0.0
230
1.0
 70
     8
 71
     3
 72
    16
 73
    12
 74
     0
 42
0.0000000001
 43
0.0000000001
 40
0.0
 40
0.0
 40
0.0
 40
0.0
 40
0.25
 40
0.25
 40
0.25
 40
0.25
 40
0.5
 40
0.5
 40
0.5
 40
0.5
 40
1.0
 40
1.0
 40
1.0
 40
1.0
 10
-14.7159
 20
-23.6568
 30
0.0
 10
-14.7159
 20
-23.6568
 30
0.0
 10
-14.7526
 20
-23.945
 30
0.0
 10
-14.7526
 20
-23.945
 30
0.0
 10
-14.7526
 20
-23.945
 30
0.0
 10
-14.7526
 20
-23.945
 30
0.0
 10
-14.826
 20
-24.5213
 30
0.0
 10
-14.826
 20
-24.5213
 30
0.0
 10
-14.826
 20
-24.5213
 30
0.0
 10
-14.826
 20
-24.5213
 30
0.0
 10
-14.8417
 20
-24.571
 30
0.0
 10
-14.8417
 20
-24.571
 30
0.0
  0
SPLINE
  5
65
330
1F
100
AcDbEntity
  8
Ilustrace
 62
   250
370
    30
100
AcDbSpline
210
0.0
220
0.0
230
1.0
 70
     8
 71
     3
 72
    12
 73
     8
 74
     0
 42
0.0000000001
 43
0.0000000001
 40
0.0
 40
0.0
 40
0.0
 40
0.0
 40
0.3333333333333333
 40
0.3333333333333333
 40
0.3333333333333333
 40
0.3333333333333333
 40
1.0
 40
1.0
 40
1.0
 40
1.0
 10
-14.7526
 20
-23.9448
 30
0.0
 10
-13.1816
 20
-24.1143
 30
0.0
 10
-11.4585
 20
-24.0808
 30
0.0
 10
-10.1678
 20
-23.0393
 30
0.0
 10
-10.1678
 20
-23.0393
 30
0.0
 10
-9.894
 20
-22.8184
 30
0.0
 10
-9.6518
 20
-22.5598
 30
0.0
 10
-9.4462
 20
-22.2745
 30
0.0
  0
SPLINE
  5
66
330
1F
100
AcDbEntity
  8
Ilustrace
 62
   250
370
    30
100
AcDbSpline
210
0.0
220
0.0
230
1.0
 70
     8
 71
     3
 72
    16
 73
    12
 74
     0
 42
0.0000000001
 43
0.0000000001
 40
0.0
 40
0.0
 40
0.0
 40
0.0
 40
0.25
 40
0.25
 40
0.25
 40
0.25
 40
0.5
 40
0.5
 40
0.5
 40
0.5
 40
1.0
 40
1.0
 40
1.0
 40
1.0
 10
-9.4462
 20
-22.2745
 30
0.0
 10
-9.4462
 20
-22.2745
 30
0.0
 10
-9.2472
 20
-21.9724
 30
0.0
 10
-9.2472
 20
-21.9724
 30
0.0
 10
-9.2472
 20
-21.9724
 30
0.0
 10
-9.2472
 20
-21.9724
 30
0.0
 10
-9.0693
 20
-21.6473
 30
0.0
 10
-9.0693
 20
-21.6473
 30
0.0
 10
-9.0693
 20
-21.6473
 30
0.0
 10
-9.0693
 20
-21.6473
 30
0.0
 10
-9.0545
 20
-21.6146
 30
0.0
 10
-9.0545
 20
-21.6146
 30
0.0
  0
SPLINE
  5
67
330
1F
100
AcDbEntity
  8
Ilustrace
 62
   250
370
    30
100
AcDbSpline
210
0.0
220
0.0
230
1.0
 70
     8
 71
     3
 72
    12
 73
     8
 74
     0
 42
0.0000000001
 43
0.0000000001
 40
0.0
 40
0.0
 40
0.0
 40
0.0
 40
0.3333333333333333
 40
0.3333333333333333
 40
0.3333333333333333
 40
0.3333333333333333
 40
1.0
 40
1.0
 40
1.0
 40
1.0
 10
-9.0545
 20
-21.6146
 30
0.0
 10
-8.8964
 20
-21.461
 30
0.0
 10
-8.7345
 20
-21.3292
 30
0.0
 10
-8.5949
 20
-21.1558
 30
0.0
 10
-8.5949
 20
-21.1558
 30
0.0
 10
-8.306
 20
-20.7967
 30
0.0
 10
-8.1006
 20
-20.3781
 30
0.0
 10
-7.9528
 20
-19.9434
 30
0.0
  0
SPLINE
  5
68
330
1F
100
AcDbEntity
  8
Ilustrace
 62
   250
370
    30
100
AcDbSpline
210
0.0
220
0.0
230
1.0
 70
     8
 71
     3
 72
    48
 73
    44
 74
     0
 42
0.0000000001
 43
0.0000000001
 40
0.0
 40
0.0
 40
0.0
 40
0.0
 40
0.0833333333333333
 40
0.0833333333333333
 40
0.0833333333333333
 40
0.0833333333333333
 40
0.1666666666666667
 40
0.1666666666666667
 40
0.1666666666666667
 40
0.1666666666666667
 40
0.25
 40
0.25
 40
0.25
 40
0.25
 40
0.3333333333333333
 40
0.3333333333333333
 40
0.3333333333333333
 40
0.3333333333333333
 40
0.4166666666666667
 40
0.4166666666666667
 40
0.4166666666666667
 40
0.4166666666666667
 40
0.5
 40
0.5
 40
0.5
 40
0.5
 40
0.5833333333333334
 40
0.5833333333333334
 40
0.5833333333333334
 40
0.5833333333333334
 40
0.6666666666666666
 40
0.6666666666666666
 40
0.6666666666666666
 40
0.6666666666666666
 40
0.75
 40
0.75
 40
0.75
 40
0.75
 40
0.8333333333333334
 40
0.8333333333333334
 40
0.8333333333333334
 40
0.8333333333333334
 40
1.0
 40
1.0
 40
1.0
 40
1.0
 10
11.5135
 20
-9.4034
 30
0.0
 10
11.6286
 20
-10.2007
 30
0.0
 10
11.6436
 20
-11.0033
 30
0.0
 10
11.521
 20
-11.8013
 30
0.0
 10
11.521
 20
-11.8013
 30
0.0
 10
11.4183
 20
-12.4688
 30
0.0
 10
11.2253
 20
-13.1258
 30
0.0
 10
10.9259
 20
-13.7323
 30
0.0
 10
10.9259
 20
-13.7323
 30
0.0
 10
10.7518
 20
-14.0849
 30
0.0
 10
10.5421
 20
-14.4204
 30
0.0
 10
10.2946
 20
-14.7262
 30
0.0
 10
10.2946
 20
-14.7262
 30
0.0
 10
8.9281
 20
-16.4121
 30
0.0
 10
6.6501
 20
-16.842
 30
0.0
 10
4.6003
 20
-16.9831
 30
0.0
 10
4.6003
 20
-16.9831
 30
0.0
 10
4.1758
 20
-17.0125
 30
0.0
 10
3.7506
 20
-17.029
 30
0.0
 10
3.3252
 20
-17.0389
 30
0.0
 10
3.3252
 20
-17.0389
 30
0.0
 10
2.8935
 20
-17.049
 30
0.0
 10
2.4618
 20
-17.0513
 30
0.0
 10
2.0299
 20
-17.0511
 30
0.0
 10
2.0299
 20
-17.0511
 30
0.0
 10
1.455
 20
-17.0509
 30
0.0
 10
0.8801
 20
-17.0449
 30
0.0
 10
0.3051
 20
-17.0427
 30
0.0
 10
0.3051
 20
-17.0427
 30
0.0
 10
-0.3895
 20
-17.04
 30
0.0
 10
-1.0847
 20
-17.0428
 30
0.0
 10
-1.7788
 20
-17.0716
 30
0.0
 10
-1.7788
 20
-17.0716
 30
0.0
 10
-2.17
 20
-17.088
 30
0.0
 10
-2.5611
 20
-17.112
 30
0.0
 10
-2.9508
 20
-17.1504
 30
0.0
 10
-2.9508
 20
-17.1504
 30
0.0
 10
-4.4222
 20
-17.2953
 30
0.0
 10
-6.1442
 20
-17.628
 30
0.0
 10
-7.0766
 20
-18.8992
 30
0.0
 10
-7.0766
 20
-18.8992
 30
0.0
 10
-7.3305
 20
-19.2458
 30
0.0
 10
-7.4944
 20
-19.6321
 30
0.0
 10
-7.6229
 20
-20.0389
 30
0.0
  0
SPLINE
  5
69
330
1F
100
AcDbEntity
  8
Ilustrace
 62
   250
370
    30
100
AcDbSpline
210
0.0
220
0.0
230
1.0
 70
     8
 71
     3
 72
    16
 73
    12
 74
     0
 42
0.0000000001
 43
0.0000000001
 40
0.0
 40
0.0
 40
0.0
 40
0.0
 40
0.25
 40
0.25
 40
0.25
 40
0.25
 40
0.5
 40
0.5
 40
0.5
 40
0.5
 40
1.0
 40
1.0
 40
1.0
 40
1.0
 10
-7.8951
 20
-19.9601
 30
0.0
 10
-7.9722
 20
-20.5547
 30
0.0
 10
-8.0883
 20
-21.1358
 30
0.0
 10
-8.3034
 20
-21.6977
 30
0.0
 10
-8.3034
 20
-21.6977
 30
0.0
 10
-8.7354
 20
-22.8271
 30
0.0
 10
-9.5112
 20
-23.7766
 30
0.0
 10
-10.5026
 20
-24.4632
 30
0.0
 10
-10.5026
 20
-24.4632
 30
0.0
 10
-11.0335
 20
-24.831
 30
0.0
 10
-11.6078
 20
-25.107
 30
0.0
 10
-12.2027
 20
-25.3532
 30
0.0
  0
SPLINE
  5
6A
330
1F
100
AcDbEntity
  8
Ilustrace
 62
   250
370
    30
100
AcDbSpline
210
0.0
220
0.0
230
1.0
 70
     8
 71
     3
 72
     8
 73
     4
 74
     0
 42
0.0000000001
 43
0.0000000001
 40
0.0
 40
0.0
 40
0.0
 40
0.0
 40
1.0
 40
1.0
 40
1.0
 40
1.0
 10
-12.5478
 20
-24.4974
 30
0.0
 10
-12.5365
 20
-24.5113
 30
0.0
 10
-12.5269
 20
-24.5249
 30
0.0
 10
-12.5202
 20
-24.5417
 30
0.0
  0
SPLINE
  5
6B
330
1F
100
AcDbEntity
  8
Ilustrace
 62
   250
370
    30
100
AcDbSpline
210
0.0
220
0.0
230
1.0
 70
     8
 71
     3
 72
    20
 73
    16
 74
     0
 42
0.0000000001
 43
0.0000000001
 40
0.0
 40
0.0
 40
0.0
 40
0.0
 40
0.2
 40
0.2
 40
0.2
 40
0.2
 40
0.4
 40
0.4
 40
0.4
 40
0.4
 40
0.6
 40
0.6
 40
0.6
 40
0.6
 40
1.0
 40
1.0
 40
1.0
 40
1.0
 10
-12.5202
 20
-24.5417
 30
0.0
 10
-12.5202
 20
-24.5417
 30
0.0
 10
-12.3086
 20
-25.0827
 30
0.0
 10
-12.3086
 20
-25.0827
 30
0.0
 10
-12.3086
 20
-25.0827
 30
0.0
 10
-12.3086
 20
-25.0827
 30
0.0
 10
-12.2027
 20
-25.3532
 30
0.0
 10
-12.2027
 20
-25.3532
 30
0.0
 10
-12.2027
 20
-25.3532
 30
0.0
 10
-12.2027
 20
-25.3532
 30
0.0
 10
-11.9911
 20
-25.8943
 30
0.0
 10
-11.9911
 20
-25.8943
 30
0.0
 10
-11.9911
 20
-25.8943
 30
0.0
 10
-11.9911
 20
-25.8943
 30
0.0
 10
-11.984
 20
-25.9185
 30
0.0
 10
-11.984
 20
-25.9185
 30
0.0
  0
SPLINE
  5
6C
330
1F
100
AcDbEntity
  8
Ilustrace
 62
   250
370
    30
100
AcDbSpline
210
0.0
220
0.0
230
1.0
 70
     8
 71
     3
 72
     8
 73
     4
 74
     0
 42
0.0000000001
 43
0.0000000001
 40
0.0
 40
0.0
 40
0.0
 40
0.0
 40
1.0
 40
1.0
 40
1.0
 40
1.0
 10
-11.984
 20
-25.9185
 30
0.0
 10
-11.9702
 20
-25.9867
 30
0.0
 10
-12.0086
 20
-26.057
 30
0.0
 10
-12.0734
 20
-26.0824
 30
0.0
  0
SPLINE
  5
6D
330
1F
100
AcDbEntity
  8
Ilustrace
 62
   250
370
    30
100
AcDbSpline
210
0.0
220
0.0
230
1.0
 70
     8
 71
     3
 72
    16
 73
    12
 74
     0
 42
0.0000000001
 43
0.0000000001
 40
0.0
 40
0.0
 40
0.0
 40
0.0
 40
0.25
 40
0.25
 40
0.25
 40
0.25
 40
0.5
 40
0.5
 40
0.5
 40
0.5
 40
1.0
 40
1.0
 40
1.0
 40
1.0
 10
-12.0734
 20
-26.0824
 30
0.0
 10
-12.0734
 20
-26.0824
 30
0.0
 10
-12.6145
 20
-26.294
 30
0.0
 10
-12.6145
 20
-26.294
 30
0.0
 10
-12.6145
 20
-26.294
 30
0.0
 10
-12.6145
 20
-26.294
 30
0.0
 10
-13.4259
 20
-26.6117
 30
0.0
 10
-13.4259
 20
-26.6117
 30
0.0
 10
-13.4259
 20
-26.6117
 30
0.0
 10
-13.4259
 20
-26.6117
 30
0.0
 10
-13.9669
 20
-26.8232
 30
0.0
 10
-13.9669
 20
-26.8232
 30
0.0
  0
SPLINE
  5
6E
330
1F
100
AcDbEntity
  8
Ilustrace
 62
   250
370
    30
100
AcDbSpline
210
0.0
220
0.0
230
1.0
 70
     8
 71
     3
 72
    12
 73
     8
 74
     0
 42
0.0000000001
 43
0.0000000001
 40
0.0
 40
0.0
 40
0.0
 40
0.0
 40
0.3333333333333333
 40
0.3333333333333333
 40
0.3333333333333333
 40
0.3333333333333333
 40
1.0
 40
1.0
 40
1.0
 40
1.0
 10
-12.3086
 20
-25.0828
 30
0.0
 10
-11.7347
 20
-24.8452
 30
0.0
 10
-11.1802
 20
-24.5793
 30
0.0
 10
-10.6679
 20
-24.2246
 30
0.0
 10
-10.6679
 20
-24.2246
 30
0.0
 10
-9.4727
 20
-23.3969
 30
0.0
 10
-8.6493
 20
-22.1849
 30
0.0
 10
-8.3266
 20
-20.7671
 30
0.0
  0
SPLINE
  5
6F
330
1F
100
AcDbEntity
  8
Ilustrace
 62
   250
370
    30
100
AcDbSpline
210
0.0
220
0.0
230
1.0
 70
     8
 71
     3
 72
    28
 73
    24
 74
     0
 42
0.0000000001
 43
0.0000000001
 40
0.0
 40
0.0
 40
0.0
 40
0.0
 40
0.1428571428571428
 40
0.1428571428571428
 40
0.1428571428571428
 40
0.1428571428571428
 40
0.2857142857142857
 40
0.2857142857142857
 40
0.2857142857142857
 40
0.2857142857142857
 40
0.4285714285714285
 40
0.4285714285714285
 40
0.4285714285714285
 40
0.4285714285714285
 40
0.5714285714285714
 40
0.5714285714285714
 40
0.5714285714285714
 40
0.5714285714285714
 40
0.7142857142857143
 40
0.7142857142857143
 40
0.7142857142857143
 40
0.7142857142857143
 40
1.0
 40
1.0
 40
1.0
 40
1.0
 10
10.0401
 20
-9.3939
 30
0.0
 10
10.3862
 20
-11.2053
 30
0.0
 10
10.012
 20
-13.4576
 30
0.0
 10
8.3596
 20
-14.5322
 30
0.0
 10
8.3596
 20
-14.5322
 30
0.0
 10
7.4479
 20
-15.1248
 30
0.0
 10
6.3314
 20
-15.3452
 30
0.0
 10
5.2678
 20
-15.4656
 30
0.0
 10
5.2678
 20
-15.4656
 30
0.0
 10
4.4741
 20
-15.5554
 30
0.0
 10
3.6742
 20
-15.5839
 30
0.0
 10
2.8761
 20
-15.5944
 30
0.0
 10
2.8761
 20
-15.5944
 30
0.0
 10
2.2145
 20
-15.6032
 30
0.0
 10
1.5528
 20
-15.5973
 30
0.0
 10
0.8912
 20
-15.5936
 30
0.0
 10
0.8912
 20
-15.5936
 30
0.0
 10
0.4095
 20
-15.5908
 30
0.0
 10
-0.0723
 20
-15.5878
 30
0.0
 10
-0.554
 20
-15.5915
 30
0.0
 10
-0.554
 20
-15.5915
 30
0.0
 10
-0.9822
 20
-15.5949
 30
0.0
 10
-1.4106
 20
-15.6027
 30
0.0
 10
-1.8384
 20
-15.6204
 30
0.0
  0
SPLINE
  5
70
330
1F
100
AcDbEntity
  8
Ilustrace
 62
   250
370
    30
100
AcDbSpline
210
0.0
220
0.0
230
1.0
 70
    24
 71
     3
 72
     8
 73
     4
 74
     0
 42
0.0000000001
 43
0.0000000001
 40
0.0
 40
0.0
 40
0.0
 40
0.0
 40
1.0
 40
1.0
 40
1.0
 40
1.0
 10
-1.8384
 20
-15.6204
 30
0.0
 10
-1.8384
 20
-15.6204
 30
0.0
 10
-2.6792
 20
-15.6689
 30
0.0
 10
-2.6792
 20
-15.6689
 30
0.0
  0
SPLINE
  5
71
330
1F
100
AcDbEntity
  8
Ilustrace
 62
   250
370
    30
100
AcDbSpline
210
0.0
220
0.0
230
1.0
 70
     8
 71
     3
 72
    16
 73
    12
 74
     0
 42
0.0000000001
 43
0.0000000001
 40
0.0
 40
0.0
 40
0.0
 40
0.0
 40
0.25
 40
0.25
 40
0.25
 40
0.25
 40
0.5
 40
0.5
 40
0.5
 40
0.5
 40
1.0
 40
1.0
 40
1.0
 40
1.0
 10
-2.6792
 20
-15.6689
 30
0.0
 10
-4.5833
 20
-15.815
 30
0.0
 10
-6.6857
 20
-16.2262
 30
0.0
 10
-8.0035
 20
-17.7358
 30
0.0
 10
-8.0035
 20
-17.7358
 30
0.0
 10
-8.1764
 20
-17.9339
 30
0.0
 10
-8.3308
 20
-18.1445
 30
0.0
 10
-8.4676
 20
-18.369
 30
0.0
 10
-8.4676
 20
-18.369
 30
0.0
 10
-8.711
 20
-18.7674
 30
0.0
 10
-8.8779
 20
-19.1921
 30
0.0
 10
-9.0181
 20
-19.6352
 30
0.0
  0
SPLINE
  5
72
330
1F
100
AcDbEntity
  8
Ilustrace
 62
   250
370
    30
100
AcDbSpline
210
0.0
220
0.0
230
1.0
 70
     8
 71
     3
 72
    16
 73
    12
 74
     0
 42
0.0000000001
 43
0.0000000001
 40
0.0
 40
0.0
 40
0.0
 40
0.0
 40
0.25
 40
0.25
 40
0.25
 40
0.25
 40
0.5
 40
0.5
 40
0.5
 40
0.5
 40
1.0
 40
1.0
 40
1.0
 40
1.0
 10
-8.8329
 20
-19.6886
 30
0.0
 10
-8.9835
 20
-19.9216
 30
0.0
 10
-9.1533
 20
-20.1401
 30
0.0
 10
-9.3708
 20
-20.315
 30
0.0
 10
-9.3708
 20
-20.315
 30
0.0
 10
-9.4733
 20
-20.3975
 30
0.0
 10
-9.5846
 20
-20.4689
 30
0.0
 10
-9.7031
 20
-20.5261
 30
0.0
 10
-9.7031
 20
-20.5261
 30
0.0
 10
-10.5489
 20
-20.934
 30
0.0
 10
-11.5276
 20
-20.5095
 30
0.0
 10
-12.2662
 20
-20.0662
 30
0.0
  0
SPLINE
  5
73
330
1F
100
AcDbEntity
  8
Ilustrace
 62
   250
370
    30
100
AcDbSpline
210
0.0
220
0.0
230
1.0
 70
    24
 71
     3
 72
     8
 73
     4
 74
     0
 42
0.0000000001
 43
0.0000000001
 40
0.0
 40
0.0
 40
0.0
 40
0.0
 40
1.0
 40
1.0
 40
1.0
 40
1.0
 10
-12.2662
 20
-20.0662
 30
0.0
 10
-12.2662
 20
-20.0662
 30
0.0
 10
-12.6145
 20
-19.8434
 30
0.0
 10
-12.6145
 20
-19.8434
 30
0.0
  0
SPLINE
  5
74
330
1F
100
AcDbEntity
  8
Ilustrace
 62
   250
370
    30
100
AcDbSpline
210
0.0
220
0.0
230
1.0
 70
     8
 71
     3
 72
    16
 73
    12
 74
     0
 42
0.0000000001
 43
0.0000000001
 40
0.0
 40
0.0
 40
0.0
 40
0.0
 40
0.25
 40
0.25
 40
0.25
 40
0.25
 40
0.5
 40
0.5
 40
0.5
 40
0.5
 40
1.0
 40
1.0
 40
1.0
 40
1.0
 10
-14.9888
 20
-19.4668
 30
0.0
 10
-14.9888
 20
-19.4668
 30
0.0
 10
-14.5073
 20
-19.7919
 30
0.0
 10
-14.5073
 20
-19.7919
 30
0.0
 10
-14.5073
 20
-19.7919
 30
0.0
 10
-14.5073
 20
-19.7919
 30
0.0
 10
-13.7853
 20
-20.2796
 30
0.0
 10
-13.7853
 20
-20.2796
 30
0.0
 10
-13.7853
 20
-20.2796
 30
0.0
 10
-13.7853
 20
-20.2796
 30
0.0
 10
-13.3038
 20
-20.6048
 30
0.0
 10
-13.3038
 20
-20.6048
 30
0.0
  0
SPLINE
  5
75
330
1F
100
AcDbEntity
  8
Ilustrace
 62
   250
370
    30
100
AcDbSpline
210
0.0
220
0.0
230
1.0
 70
     8
 71
     3
 72
     8
 73
     4
 74
     0
 42
0.0000000001
 43
0.0000000001
 40
0.0
 40
0.0
 40
0.0
 40
0.0
 40
1.0
 40
1.0
 40
1.0
 40
1.0
 10
-13.3038
 20
-20.6048
 30
0.0
 10
-13.2461
 20
-20.6435
 30
0.0
 10
-13.1666
 20
-20.6353
 30
0.0
 10
-13.118
 20
-20.5852
 30
0.0
  0
SPLINE
  5
76
330
1F
100
AcDbEntity
  8
Ilustrace
 62
   250
370
    30
100
AcDbSpline
210
0.0
220
0.0
230
1.0
 70
     8
 71
     3
 72
    20
 73
    16
 74
     0
 42
0.0000000001
 43
0.0000000001
 40
0.0
 40
0.0
 40
0.0
 40
0.0
 40
0.2
 40
0.2
 40
0.2
 40
0.2
 40
0.4
 40
0.4
 40
0.4
 40
0.4
 40
0.6
 40
0.6
 40
0.6
 40
0.6
 40
1.0
 40
1.0
 40
1.0
 40
1.0
 10
-13.118
 20
-20.5852
 30
0.0
 10
-13.118
 20
-20.5852
 30
0.0
 10
-13.1022
 20
-20.5658
 30
0.0
 10
-13.1022
 20
-20.5658
 30
0.0
 10
-13.1022
 20
-20.5658
 30
0.0
 10
-13.1022
 20
-20.5658
 30
0.0
 10
-12.7771
 20
-20.0845
 30
0.0
 10
-12.7771
 20
-20.0845
 30
0.0
 10
-12.7771
 20
-20.0845
 30
0.0
 10
-12.7771
 20
-20.0845
 30
0.0
 10
-12.6146
 20
-19.8438
 30
0.0
 10
-12.6146
 20
-19.8438
 30
0.0
 10
-12.6146
 20
-19.8438
 30
0.0
 10
-12.6146
 20
-19.8438
 30
0.0
 10
-12.2895
 20
-19.3624
 30
0.0
 10
-12.2895
 20
-19.3624
 30
0.0
  0
SPLINE
  5
77
330
1F
100
AcDbEntity
  8
Ilustrace
 62
   250
370
    30
100
AcDbSpline
210
0.0
220
0.0
230
1.0
 70
     8
 71
     3
 72
     8
 73
     4
 74
     0
 42
0.0000000001
 43
0.0000000001
 40
0.0
 40
0.0
 40
0.0
 40
0.0
 40
1.0
 40
1.0
 40
1.0
 40
1.0
 10
-12.2895
 20
-19.3624
 30
0.0
 10
-12.2793
 20
-19.3472
 30
0.0
 10
-12.2734
 20
-19.3315
 30
0.0
 10
-12.2683
 20
-19.3141
 30
0.0
  0
SPLINE
  5
78
330
1F
100
AcDbEntity
  8
Ilustrace
 62
   250
370
    30
100
AcDbSpline
210
0.0
220
0.0
230
1.0
 70
     8
 71
     3
 72
    16
 73
    12
 74
     0
 42
0.0000000001
 43
0.0000000001
 40
0.0
 40
0.0
 40
0.0
 40
0.0
 40
0.25
 40
0.25
 40
0.25
 40
0.25
 40
0.5
 40
0.5
 40
0.5
 40
0.5
 40
1.0
 40
1.0
 40
1.0
 40
1.0
 10
-12.7771
 20
-20.0843
 30
0.0
 10
-11.8707
 20
-20.6802
 30
0.0
 10
-10.6609
 20
-21.3103
 30
0.0
 10
-9.5769
 20
-20.7878
 30
0.0
 10
-9.5769
 20
-20.7878
 30
0.0
 10
-9.3907
 20
-20.698
 30
0.0
 10
-9.2203
 20
-20.5781
 30
0.0
 10
-9.069
 20
-20.4379
 30
0.0
 10
-9.069
 20
-20.4379
 30
0.0
 10
-8.8598
 20
-20.2441
 30
0.0
 10
-8.6912
 20
-20.015
 30
0.0
 10
-8.5436
 20
-19.7723
 30
0.0
  0
SPLINE
  5
79
330
1F
100
AcDbEntity
  8
Ilustrace
 62
   250
370
    30
100
AcDbSpline
210
0.0
220
0.0
230
1.0
 70
     8
 71
     3
 72
    16
 73
    12
 74
     0
 42
0.0000000001
 43
0.0000000001
 40
0.0
 40
0.0
 40
0.0
 40
0.0
 40
0.25
 40
0.25
 40
0.25
 40
0.25
 40
0.5
 40
0.5
 40
0.5
 40
0.5
 40
1.0
 40
1.0
 40
1.0
 40
1.0
 10
-8.2321
 20
-19.8625
 30
0.0
 10
-8.3776
 20
-20.2605
 30
0.0
 10
-8.5538
 20
-20.6413
 30
0.0
 10
-8.8212
 20
-20.9738
 30
0.0
 10
-8.8212
 20
-20.9738
 30
0.0
 10
-8.9444
 20
-21.1269
 30
0.0
 10
-9.0836
 20
-21.2671
 30
0.0
 10
-9.2376
 20
-21.3893
 30
0.0
 10
-9.2376
 20
-21.3893
 30
0.0
 10
-10.324
 20
-22.2523
 30
0.0
 10
-11.833
 20
-22.0292
 30
0.0
 10
-13.0742
 20
-21.703
 30
0.0
  0
SPLINE
  5
7A
330
1F
100
AcDbEntity
  8
Ilustrace
 62
   250
370
    30
100
AcDbSpline
210
0.0
220
0.0
230
1.0
 70
     8
 71
     3
 72
     8
 73
     4
 74
     0
 42
0.0000000001
 43
0.0000000001
 40
0.0
 40
0.0
 40
0.0
 40
0.0
 40
1.0
 40
1.0
 40
1.0
 40
1.0
 10
-12.914
 20
-21.0912
 30
0.0
 10
-12.9133
 20
-21.1092
 30
0.0
 10
-12.9138
 20
-21.1259
 30
0.0
 10
-12.9187
 20
-21.1433
 30
0.0
  0
SPLINE
  5
7B
330
1F
100
AcDbEntity
  8
Ilustrace
 62
   250
370
    30
100
AcDbSpline
210
0.0
220
0.0
230
1.0
 70
     8
 71
     3
 72
    20
 73
    16
 74
     0
 42
0.0000000001
 43
0.0000000001
 40
0.0
 40
0.0
 40
0.0
 40
0.0
 40
0.2
 40
0.2
 40
0.2
 40
0.2
 40
0.4
 40
0.4
 40
0.4
 40
0.4
 40
0.6
 40
0.6
 40
0.6
 40
0.6
 40
1.0
 40
1.0
 40
1.0
 40
1.0
 10
-12.9187
 20
-21.1433
 30
0.0
 10
-12.9187
 20
-21.1433
 30
0.0
 10
-13.0742
 20
-21.703
 30
0.0
 10
-13.0742
 20
-21.703
 30
0.0
 10
-13.0742
 20
-21.703
 30
0.0
 10
-13.0742
 20
-21.703
 30
0.0
 10
-13.152
 20
-21.9828
 30
0.0
 10
-13.152
 20
-21.9828
 30
0.0
 10
-13.152
 20
-21.9828
 30
0.0
 10
-13.152
 20
-21.9828
 30
0.0
 10
-13.3075
 20
-22.5426
 30
0.0
 10
-13.3075
 20
-22.5426
 30
0.0
 10
-13.3075
 20
-22.5426
 30
0.0
 10
-13.3075
 20
-22.5426
 30
0.0
 10
-13.3165
 20
-22.5663
 30
0.0
 10
-13.3165
 20
-22.5663
 30
0.0
  0
SPLINE
  5
7C
330
1F
100
AcDbEntity
  8
Ilustrace
 62
   250
370
    30
100
AcDbSpline
210
0.0
220
0.0
230
1.0
 70
     8
 71
     3
 72
     8
 73
     4
 74
     0
 42
0.0000000001
 43
0.0000000001
 40
0.0
 40
0.0
 40
0.0
 40
0.0
 40
1.0
 40
1.0
 40
1.0
 40
1.0
 10
-13.3165
 20
-22.5663
 30
0.0
 10
-13.3464
 20
-22.6291
 30
0.0
 10
-13.4193
 20
-22.6621
 30
0.0
 10
-13.4863
 20
-22.6435
 30
0.0
  0
SPLINE
  5
7D
330
1F
100
AcDbEntity
  8
Ilustrace
 62
   250
370
    30
100
AcDbSpline
210
0.0
220
0.0
230
1.0
 70
     8
 71
     3
 72
    12
 73
     8
 74
     0
 42
0.0000000001
 43
0.0000000001
 40
0.0
 40
0.0
 40
0.0
 40
0.0
 40
0.3333333333333333
 40
0.3333333333333333
 40
0.3333333333333333
 40
0.3333333333333333
 40
1.0
 40
1.0
 40
1.0
 40
1.0
 10
-13.4863
 20
-22.6435
 30
0.0
 10
-13.4863
 20
-22.6435
 30
0.0
 10
-14.0462
 20
-22.4879
 30
0.0
 10
-14.0462
 20
-22.4879
 30
0.0
 10
-14.0462
 20
-22.4879
 30
0.0
 10
-14.0462
 20
-22.4879
 30
0.0
 10
-16.8448
 20
-21.7105
 30
0.0
 10
-16.8448
 20
-21.7105
 30
0.0
  0
SPLINE
  5
7E
330
1F
100
AcDbEntity
  8
Ilustrace
 62
   250
370
    30
100
AcDbSpline
210
0.0
220
0.0
230
1.0
 70
     8
 71
     3
 72
     8
 73
     4
 74
     0
 42
0.0000000001
 43
0.0000000001
 40
0.0
 40
0.0
 40
0.0
 40
0.0
 40
1.0
 40
1.0
 40
1.0
 40
1.0
 10
-16.8448
 20
-21.7105
 30
0.0
 10
-16.8623
 20
-21.7056
 30
0.0
 10
-17.4648
 20
-21.6685
 30
0.0
 10
-17.5096
 20
-21.4323
 30
0.0
  0
SPLINE
  5
7F
330
1F
100
AcDbEntity
  8
Ilustrace
 62
   250
370
    30
100
AcDbSpline
210
0.0
220
0.0
230
1.0
 70
     8
 71
     3
 72
    24
 73
    20
 74
     0
 42
0.0000000001
 43
0.0000000001
 40
0.0
 40
0.0
 40
0.0
 40
0.0
 40
0.1666666666666667
 40
0.1666666666666667
 40
0.1666666666666667
 40
0.1666666666666667
 40
0.3333333333333333
 40
0.3333333333333333
 40
0.3333333333333333
 40
0.3333333333333333
 40
0.5
 40
0.5
 40
0.5
 40
0.5
 40
0.6666666666666666
 40
0.6666666666666666
 40
0.6666666666666666
 40
0.6666666666666666
 40
1.0
 40
1.0
 40
1.0
 40
1.0
 10
-17.5101
 20
-21.428
 30
0.0
 10
-17.5101
 20
-21.428
 30
0.0
 10
-17.5106
 20
-21.4114
 30
0.0
 10
-17.5106
 20
-21.4114
 30
0.0
 10
-17.5106
 20
-21.4114
 30
0.0
 10
-17.5106
 20
-21.4114
 30
0.0
 10
-17.5054
 20
-21.3759
 30
0.0
 10
-17.5054
 20
-21.3759
 30
0.0
 10
-17.5054
 20
-21.3759
 30
0.0
 10
-17.5054
 20
-21.3759
 30
0.0
 10
-17.3497
 20
-20.8162
 30
0.0
 10
-17.3497
 20
-20.8162
 30
0.0
 10
-17.3497
 20
-20.8162
 30
0.0
 10
-17.3497
 20
-20.8162
 30
0.0
 10
-17.272
 20
-20.5363
 30
0.0
 10
-17.272
 20
-20.5363
 30
0.0
 10
-17.272
 20
-20.5363
 30
0.0
 10
-17.272
 20
-20.5363
 30
0.0
 10
-17.1165
 20
-19.9766
 30
0.0
 10
-17.1165
 20
-19.9766
 30
0.0
  0
SPLINE
  5
80
330
1F
100
AcDbEntity
  8
Ilustrace
 62
   250
370
    30
100
AcDbSpline
210
0.0
220
0.0
230
1.0
 70
     8
 71
     3
 72
     8
 73
     4
 74
     0
 42
0.0000000001
 43
0.0000000001
 40
0.0
 40
0.0
 40
0.0
 40
0.0
 40
1.0
 40
1.0
 40
1.0
 40
1.0
 10
-17.1165
 20
-19.9766
 30
0.0
 10
-17.0978
 20
-19.9094
 30
0.0
 10
-17.0318
 20
-19.8642
 30
0.0
 10
-16.9625
 20
-19.8708
 30
0.0
  0
SPLINE
  5
81
330
1F
100
AcDbEntity
  8
Ilustrace
 62
   250
370
    30
100
AcDbSpline
210
0.0
220
0.0
230
1.0
 70
     8
 71
     3
 72
    16
 73
    12
 74
     0
 42
0.0000000001
 43
0.0000000001
 40
0.0
 40
0.0
 40
0.0
 40
0.0
 40
0.25
 40
0.25
 40
0.25
 40
0.25
 40
0.5
 40
0.5
 40
0.5
 40
0.5
 40
1.0
 40
1.0
 40
1.0
 40
1.0
 10
-16.9625
 20
-19.8708
 30
0.0
 10
-16.9625
 20
-19.8708
 30
0.0
 10
-16.9376
 20
-19.8755
 30
0.0
 10
-16.9376
 20
-19.8755
 30
0.0
 10
-16.9376
 20
-19.8755
 30
0.0
 10
-16.9376
 20
-19.8755
 30
0.0
 10
-16.378
 20
-20.0311
 30
0.0
 10
-16.378
 20
-20.0311
 30
0.0
 10
-16.378
 20
-20.0311
 30
0.0
 10
-16.378
 20
-20.0311
 30
0.0
 10
-13.5791
 20
-20.8089
 30
0.0
 10
-13.5791
 20
-20.8089
 30
0.0
  0
SPLINE
  5
82
330
1F
100
AcDbEntity
  8
Ilustrace
 62
   250
370
    30
100
AcDbSpline
210
0.0
220
0.0
230
1.0
 70
     8
 71
     3
 72
     8
 73
     4
 74
     0
 42
0.0000000001
 43
0.0000000001
 40
0.0
 40
0.0
 40
0.0
 40
0.0
 40
1.0
 40
1.0
 40
1.0
 40
1.0
 10
-13.5791
 20
-20.8089
 30
0.0
 10
-13.5616
 20
-20.8137
 30
0.0
 10
-12.9592
 20
-20.8507
 30
0.0
 10
-12.9145
 20
-21.0866
 30
0.0
  0
SPLINE
  5
83
330
1F
100
AcDbEntity
  8
Ilustrace
 62
   250
370
    30
100
AcDbSpline
210
0.0
220
0.0
230
1.0
 70
     8
 71
     3
 72
    12
 73
     8
 74
     0
 42
0.0000000001
 43
0.0000000001
 40
0.0
 40
0.0
 40
0.0
 40
0.0
 40
0.3333333333333333
 40
0.3333333333333333
 40
0.3333333333333333
 40
0.3333333333333333
 40
1.0
 40
1.0
 40
1.0
 40
1.0
 10
-9.057
 20
-21.6168
 30
0.0
 10
-9.2928
 20
-21.7899
 30
0.0
 10
-9.5327
 20
-21.9384
 30
0.0
 10
-9.8065
 20
-22.045
 30
0.0
 10
-9.8065
 20
-22.045
 30
0.0
 10
-10.8805
 20
-22.4625
 30
0.0
 10
-12.0726
 20
-22.2665
 30
0.0
 10
-13.152
 20
-21.9828
 30
0.0
  0
SPLINE
  5
84
330
1F
100
AcDbEntity
  8
Ilustrace
 62
   250
370
    30
100
AcDbSpline
210
0.0
220
0.0
230
1.0
 70
     8
 71
     3
 72
     8
 73
     4
 74
     0
 42
0.0000000001
 43
0.0000000001
 40
0.0
 40
0.0
 40
0.0
 40
0.0
 40
1.0
 40
1.0
 40
1.0
 40
1.0
 10
-8.5052
 20
-19.7834
 30
0.0
 10
-8.5738
 20
-20.1653
 30
0.0
 10
-8.6587
 20
-20.5308
 30
0.0
 10
-8.7682
 20
-20.9029
 30
0.0
  0
SPLINE
  5
85
330
1F
100
AcDbEntity
  8
Ilustrace
 62
   250
370
    30
100
AcDbSpline
210
0.0
220
0.0
230
1.0
 70
     8
 71
     3
 72
     8
 73
     4
 74
     0
 42
0.0000000001
 43
0.0000000001
 40
0.0
 40
0.0
 40
0.0
 40
0.0
 40
1.0
 40
1.0
 40
1.0
 40
1.0
 10
-8.8932
 20
-20.2556
 30
0.0
 10
-8.9873
 20
-20.6613
 30
0.0
 10
-9.1166
 20
-21.0467
 30
0.0
 10
-9.288
 20
-21.4263
 30
0.0
  0
SPLINE
  5
86
330
1F
100
AcDbEntity
  8
Ilustrace
 62
   250
370
    30
100
AcDbSpline
210
0.0
220
0.0
230
1.0
 70
     8
 71
     3
 72
     8
 73
     4
 74
     0
 42
0.0000000001
 43
0.0000000001
 40
0.0
 40
0.0
 40
0.0
 40
0.0
 40
1.0
 40
1.0
 40
1.0
 40
1.0
 10
-16.7337
 20
-18.1751
 30
0.0
 10
-16.7286
 20
-18.1578
 30
0.0
 10
-16.7228
 20
-18.1422
 30
0.0
 10
-16.7126
 20
-18.1269
 30
0.0
  0
SPLINE
  5
87
330
1F
100
AcDbEntity
  8
Ilustrace
 62
   250
370
    30
100
AcDbSpline
210
0.0
220
0.0
230
1.0
 70
     8
 71
     3
 72
    20
 73
    16
 74
     0
 42
0.0000000001
 43
0.0000000001
 40
0.0
 40
0.0
 40
0.0
 40
0.0
 40
0.2
 40
0.2
 40
0.2
 40
0.2
 40
0.4
 40
0.4
 40
0.4
 40
0.4
 40
0.6
 40
0.6
 40
0.6
 40
0.6
 40
1.0
 40
1.0
 40
1.0
 40
1.0
 10
-16.7126
 20
-18.1269
 30
0.0
 10
-16.7126
 20
-18.1269
 30
0.0
 10
-16.3875
 20
-17.6456
 30
0.0
 10
-16.3875
 20
-17.6456
 30
0.0
 10
-16.3875
 20
-17.6456
 30
0.0
 10
-16.3875
 20
-17.6456
 30
0.0
 10
-16.2251
 20
-17.4049
 30
0.0
 10
-16.2251
 20
-17.4049
 30
0.0
 10
-16.2251
 20
-17.4049
 30
0.0
 10
-16.2251
 20
-17.4049
 30
0.0
 10
-15.8999
 20
-16.9236
 30
0.0
 10
-15.8999
 20
-16.9236
 30
0.0
 10
-15.8999
 20
-16.9236
 30
0.0
 10
-15.8999
 20
-16.9236
 30
0.0
 10
-15.8839
 20
-16.904
 30
0.0
 10
-15.8839
 20
-16.904
 30
0.0
  0
SPLINE
  5
88
330
1F
100
AcDbEntity
  8
Ilustrace
 62
   250
370
    30
100
AcDbSpline
210
0.0
220
0.0
230
1.0
 70
     8
 71
     3
 72
     8
 73
     4
 74
     0
 42
0.0000000001
 43
0.0000000001
 40
0.0
 40
0.0
 40
0.0
 40
0.0
 40
1.0
 40
1.0
 40
1.0
 40
1.0
 10
-15.8839
 20
-16.904
 30
0.0
 10
-15.8354
 20
-16.8539
 30
0.0
 10
-15.7558
 20
-16.8457
 30
0.0
 10
-15.6982
 20
-16.8845
 30
0.0
  0
SPLINE
  5
89
330
1F
100
AcDbEntity
  8
Ilustrace
 62
   250
370
    30
100
AcDbSpline
210
0.0
220
0.0
230
1.0
 70
     8
 71
     3
 72
    12
 73
     8
 74
     0
 42
0.0000000001
 43
0.0000000001
 40
0.0
 40
0.0
 40
0.0
 40
0.0
 40
0.3333333333333333
 40
0.3333333333333333
 40
0.3333333333333333
 40
0.3333333333333333
 40
1.0
 40
1.0
 40
1.0
 40
1.0
 10
-15.6982
 20
-16.8845
 30
0.0
 10
-15.6982
 20
-16.8845
 30
0.0
 10
-15.2167
 20
-17.2096
 30
0.0
 10
-15.2167
 20
-17.2096
 30
0.0
 10
-15.2167
 20
-17.2096
 30
0.0
 10
-15.2167
 20
-17.2096
 30
0.0
 10
-12.8097
 20
-18.8353
 30
0.0
 10
-12.8097
 20
-18.8353
 30
0.0
  0
SPLINE
  5
8A
330
1F
100
AcDbEntity
  8
Ilustrace
 62
   250
370
    30
100
AcDbSpline
210
0.0
220
0.0
230
1.0
 70
     8
 71
     3
 72
     8
 73
     4
 74
     0
 42
0.0000000001
 43
0.0000000001
 40
0.0
 40
0.0
 40
0.0
 40
0.0
 40
1.0
 40
1.0
 40
1.0
 40
1.0
 10
-12.8097
 20
-18.8353
 30
0.0
 10
-12.7946
 20
-18.8454
 30
0.0
 10
-12.2349
 20
-19.0717
 30
0.0
 10
-12.2674
 20
-19.3098
 30
0.0
  0
SPLINE
  5
8B
330
1F
100
AcDbEntity
  8
Ilustrace
 62
   250
370
    30
100
AcDbSpline
210
0.0
220
0.0
230
1.0
 70
     8
 71
     3
 72
     8
 73
     4
 74
     0
 42
0.0000000001
 43
0.0000000001
 40
0.0
 40
0.0
 40
0.0
 40
0.0
 40
1.0
 40
1.0
 40
1.0
 40
1.0
 10
-16.7347
 20
-18.1794
 30
0.0
 10
-16.743
 20
-18.241
 30
0.0
 10
-16.7226
 20
-18.2908
 30
0.0
 10
-16.6736
 20
-18.3288
 30
0.0
  0
SPLINE
  5
8C
330
1F
100
AcDbEntity
  8
Ilustrace
 62
   250
370
    30
100
AcDbSpline
210
0.0
220
0.0
230
1.0
 70
     8
 71
     3
 72
     8
 73
     4
 74
     0
 42
0.0000000001
 43
0.0000000001
 40
0.0
 40
0.0
 40
0.0
 40
0.0
 40
1.0
 40
1.0
 40
1.0
 40
1.0
 10
3.1392
 20
-9.3939
 30
0.0
 10
8.4572
 20
-9.3939
 30
0.0
 10
13.7679
 20
-9.4185
 30
0.0
 10
19.0856
 20
-9.4187
 30
0.0
  0
SPLINE
  5
8D
330
1F
100
AcDbEntity
  8
Ilustrace
 62
   250
370
    30
100
AcDbSpline
210
0.0
220
0.0
230
1.0
 70
     8
 71
     3
 72
     8
 73
     4
 74
     0
 42
0.0000000001
 43
0.0000000001
 40
0.0
 40
0.0
 40
0.0
 40
0.0
 40
1.0
 40
1.0
 40
1.0
 40
1.0
 10
-14.8438
 20
-24.5748
 30
0.0
 10
-14.9765
 20
-24.7754
 30
0.0
 10
-15.5462
 20
-24.576
 30
0.0
 10
-15.5646
 20
-24.5736
 30
0.0
  0
SPLINE
  5
8E
330
1F
100
AcDbEntity
  8
Ilustrace
 62
   250
370
    30
100
AcDbSpline
210
0.0
220
0.0
230
1.0
 70
     8
 71
     3
 72
    12
 73
     8
 74
     0
 42
0.0000000001
 43
0.0000000001
 40
0.0
 40
0.0
 40
0.0
 40
0.0
 40
0.3333333333333333
 40
0.3333333333333333
 40
0.3333333333333333
 40
0.3333333333333333
 40
1.0
 40
1.0
 40
1.0
 40
1.0
 10
-15.5646
 20
-24.5736
 30
0.0
 10
-15.5646
 20
-24.5736
 30
0.0
 10
-18.4458
 20
-24.207
 30
0.0
 10
-18.4458
 20
-24.207
 30
0.0
 10
-18.4458
 20
-24.207
 30
0.0
 10
-18.4458
 20
-24.207
 30
0.0
 10
-19.0222
 20
-24.1338
 30
0.0
 10
-19.0222
 20
-24.1338
 30
0.0
  0
SPLINE
  5
8F
330
1F
100
AcDbEntity
  8
Ilustrace
 62
   250
370
    30
100
AcDbSpline
210
0.0
220
0.0
230
1.0
 70
     8
 71
     3
 72
     8
 73
     4
 74
     0
 42
0.0000000001
 43
0.0000000001
 40
0.0
 40
0.0
 40
0.0
 40
0.0
 40
1.0
 40
1.0
 40
1.0
 40
1.0
 10
-19.0222
 20
-24.1338
 30
0.0
 10
-19.0399
 20
-24.1313
 30
0.0
 10
-19.056
 20
-24.125
 30
0.0
 10
-19.072
 20
-24.1175
 30
0.0
  0
SPLINE
  5
90
330
1F
100
AcDbEntity
  8
Ilustrace
 62
   250
370
    30
100
AcDbSpline
210
0.0
220
0.0
230
1.0
 70
     8
 71
     3
 72
    12
 73
     8
 74
     0
 42
0.0000000001
 43
0.0000000001
 40
0.0
 40
0.0
 40
0.0
 40
0.0
 40
0.3333333333333333
 40
0.3333333333333333
 40
0.3333333333333333
 40
0.3333333333333333
 40
1.0
 40
1.0
 40
1.0
 40
1.0
 10
-19.0759
 20
-24.1154
 30
0.0
 10
-19.1205
 20
-24.0857
 30
0.0
 10
-19.1474
 20
-24.0442
 30
0.0
 10
-19.1491
 20
-23.99
 30
0.0
 10
-19.1491
 20
-23.99
 30
0.0
 10
-19.1317
 20
-23.7071
 30
0.0
 10
-19.0745
 20
-23.3941
 30
0.0
 10
-19.0378
 20
-23.1063
 30
0.0
  0
SPLINE
  5
91
330
1F
100
AcDbEntity
  8
Ilustrace
 62
   250
370
    30
100
AcDbSpline
210
0.0
220
0.0
230
1.0
 70
     8
 71
     3
 72
    12
 73
     8
 74
     0
 42
0.0000000001
 43
0.0000000001
 40
0.0
 40
0.0
 40
0.0
 40
0.0
 40
0.3333333333333333
 40
0.3333333333333333
 40
0.3333333333333333
 40
0.3333333333333333
 40
1.0
 40
1.0
 40
1.0
 40
1.0
 10
-19.0378
 20
-23.1063
 30
0.0
 10
-19.0378
 20
-23.1063
 30
0.0
 10
-18.9644
 20
-22.5301
 30
0.0
 10
-18.9644
 20
-22.5301
 30
0.0
 10
-18.9644
 20
-22.5301
 30
0.0
 10
-18.9644
 20
-22.5301
 30
0.0
 10
-18.9486
 20
-22.4806
 30
0.0
 10
-18.9486
 20
-22.4806
 30
0.0
  0
SPLINE
  5
92
330
1F
100
AcDbEntity
  8
Ilustrace
 62
   250
370
    30
100
AcDbSpline
210
0.0
220
0.0
230
1.0
 70
    24
 71
     3
 72
     8
 73
     4
 74
     0
 42
0.0000000001
 43
0.0000000001
 40
0.0
 40
0.0
 40
0.0
 40
0.0
 40
1.0
 40
1.0
 40
1.0
 40
1.0
 10
19.0856
 20
-9.4187
 30
0.0
 10
19.0856
 20
-1.5116
 30
0.0
 10
19.0856
 20
6.3954
 30
0.0
 10
19.0856
 20
14.3025
 30
0.0
  0
SPLINE
  5
93
330
1F
100
AcDbEntity
  8
Ilustrace
 62
   250
370
    30
100
AcDbSpline
210
0.0
220
0.0
230
1.0
 70
    24
 71
     3
 72
    12
 73
     8
 74
     0
 42
0.0000000001
 43
0.0000000001
 40
0.0
 40
0.0
 40
0.0
 40
0.0
 40
0.3333333333333333
 40
0.3333333333333333
 40
0.3333333333333333
 40
0.3333333333333333
 40
1.0
 40
1.0
 40
1.0
 40
1.0
 10
19.0856
 20
14.3025
 30
0.0
 10
19.0856
 20
14.3025
 30
0.0
 10
19.0856
 20
14.3136
 30
0.0
 10
19.0856
 20
14.3136
 30
0.0
 10
19.0856
 20
14.3136
 30
0.0
 10
19.0856
 20
14.3136
 30
0.0
 10
19.0856
 20
21.0796
 30
0.0
 10
19.0856
 20
21.0796
 30
0.0
  0
SPLINE
  5
94
330
1F
100
AcDbEntity
  8
Ilustrace
 62
   250
370
    30
100
AcDbSpline
210
0.0
220
0.0
230
1.0
 70
    24
 71
     3
 72
    16
 73
    12
 74
     0
 42
0.0000000001
 43
0.0000000001
 40
0.0
 40
0.0
 40
0.0
 40
0.0
 40
0.25
 40
0.25
 40
0.25
 40
0.25
 40
0.5
 40
0.5
 40
0.5
 40
0.5
 40
1.0
 40
1.0
 40
1.0
 40
1.0
 10
26.3471
 20
1.1831
 30
0.0
 10
26.3471
 20
1.1831
 30
0.0
 10
26.3471
 20
1.5337
 30
0.0
 10
26.3471
 20
1.5337
 30
0.0
 10
26.3471
 20
1.5337
 30
0.0
 10
26.3471
 20
1.5337
 30
0.0
 10
26.3471
 20
1.5368
 30
0.0
 10
26.3471
 20
1.5368
 30
0.0
 10
26.3471
 20
1.5368
 30
0.0
 10
26.3471
 20
1.5368
 30
0.0
 10
26.3471
 20
10.4779
 30
0.0
 10
26.3471
 20
10.4779
 30
0.0
  0
SPLINE
  5
95
330
1F
100
AcDbEntity
  8
Ilustrace
 62
   250
370
    30
100
AcDbSpline
210
0.0
220
0.0
230
1.0
 70
    24
 71
     3
 72
     8
 73
     4
 74
     0
 42
0.0000000001
 43
0.0000000001
 40
0.0
 40
0.0
 40
0.0
 40
0.0
 40
1.0
 40
1.0
 40
1.0
 40
1.0
 10
-12.865
 20
-9.4187
 30
0.0
 10
-12.865
 20
-7.1632
 30
0.0
 10
-12.865
 20
-4.9079
 30
0.0
 10
-12.865
 20
-2.6526
 30
0.0
  0
SPLINE
  5
96
330
1F
100
AcDbEntity
  8
Ilustrace
 62
   250
370
    30
100
AcDbSpline
210
0.0
220
0.0
230
1.0
 70
    24
 71
     3
 72
     8
 73
     4
 74
     0
 42
0.0000000001
 43
0.0000000001
 40
0.0
 40
0.0
 40
0.0
 40
0.0
 40
1.0
 40
1.0
 40
1.0
 40
1.0
 10
-12.865
 20
-2.6526
 30
0.0
 10
-12.865
 20
-2.6526
 30
0.0
 10
-12.865
 20
-2.6415
 30
0.0
 10
-12.865
 20
-2.6415
 30
0.0
  0
SPLINE
  5
97
330
1F
100
AcDbEntity
  8
Ilustrace
 62
   250
370
    30
100
AcDbSpline
210
0.0
220
0.0
230
1.0
 70
    24
 71
     3
 72
     8
 73
     4
 74
     0
 42
0.0000000001
 43
0.0000000001
 40
0.0
 40
0.0
 40
0.0
 40
0.0
 40
1.0
 40
1.0
 40
1.0
 40
1.0
 10
-12.865
 20
-2.6415
 30
0.0
 10
-12.865
 20
5.2655
 30
0.0
 10
-12.865
 20
13.1726
 30
0.0
 10
-12.865
 20
21.0796
 30
0.0
  0
SPLINE
  5
98
330
1F
100
AcDbEntity
  8
Ilustrace
 62
   250
370
    30
100
AcDbSpline
210
0.0
220
0.0
230
1.0
 70
    24
 71
     3
 72
     8
 73
     4
 74
     0
 42
0.0000000001
 43
0.0000000001
 40
0.0
 40
0.0
 40
0.0
 40
0.0
 40
1.0
 40
1.0
 40
1.0
 40
1.0
 10
-20.1265
 20
1.1831
 30
0.0
 10
-20.1265
 20
1.1831
 30
0.0
 10
-20.1265
 20
1.5337
 30
0.0
 10
-20.1265
 20
1.5337
 30
0.0
  0
SPLINE
  5
99
330
1F
100
AcDbEntity
  8
Ilustrace
 62
   250
370
    30
100
AcDbSpline
210
0.0
220
0.0
230
1.0
 70
     8
 71
     3
 72
     8
 73
     4
 74
     0
 42
0.0000000001
 43
0.0000000001
 40
0.0
 40
0.0
 40
0.0
 40
0.0
 40
1.0
 40
1.0
 40
1.0
 40
1.0
 10
-20.1265
 20
1.5337
 30
0.0
 10
-20.1142
 20
4.3971
 30
0.0
 10
-20.1265
 20
7.2607
 30
0.0
 10
-20.1265
 20
10.124
 30
0.0
  0
SPLINE
  5
9A
330
1F
100
AcDbEntity
  8
Ilustrace
 62
   250
370
    30
100
AcDbSpline
210
0.0
220
0.0
230
1.0
 70
    24
 71
     3
 72
    12
 73
     8
 74
     0
 42
0.0000000001
 43
0.0000000001
 40
0.0
 40
0.0
 40
0.0
 40
0.0
 40
0.3333333333333333
 40
0.3333333333333333
 40
0.3333333333333333
 40
0.3333333333333333
 40
1.0
 40
1.0
 40
1.0
 40
1.0
 10
-20.1265
 20
10.124
 30
0.0
 10
-20.1265
 20
10.124
 30
0.0
 10
-20.1265
 20
10.1272
 30
0.0
 10
-20.1265
 20
10.1272
 30
0.0
 10
-20.1265
 20
10.1272
 30
0.0
 10
-20.1265
 20
10.1272
 30
0.0
 10
-20.1265
 20
10.4779
 30
0.0
 10
-20.1265
 20
10.4779
 30
0.0
  0
SPLINE
  5
9B
330
1F
100
AcDbEntity
  8
Ilustrace
 62
   250
100
AcDbSpline
210
0.0
220
0.0
230
1.0
 70
    11
 71
     3
 72
   104
 73
   100
 74
     0
 42
0.0000000001
 43
0.0000000001
 40
0.0
 40
0.0
 40
0.0
 40
0.0
 40
0.0384615384615385
 40
0.0384615384615385
 40
0.0384615384615385
 40
0.0384615384615385
 40
0.0769230769230769
 40
0.0769230769230769
 40
0.0769230769230769
 40
0.0769230769230769
 40
0.1153846153846154
 40
0.1153846153846154
 40
0.1153846153846154
 40
0.1153846153846154
 40
0.1538461538461539
 40
0.1538461538461539
 40
0.1538461538461539
 40
0.1538461538461539
 40
0.1923076923076923
 40
0.1923076923076923
 40
0.1923076923076923
 40
0.1923076923076923
 40
0.2307692307692308
 40
0.2307692307692308
 40
0.2307692307692308
 40
0.2307692307692308
 40
0.2692307692307692
 40
0.2692307692307692
 40
0.2692307692307692
 40
0.2692307692307692
 40
0.3076923076923077
 40
0.3076923076923077
 40
0.3076923076923077
 40
0.3076923076923077
 40
0.3461538461538461
 40
0.3461538461538461
 40
0.3461538461538461
 40
0.3461538461538461
 40
0.3846153846153846
 40
0.3846153846153846
 40
0.3846153846153846
 40
0.3846153846153846
 40
0.4230769230769231
 40
0.4230769230769231
 40
0.4230769230769231
 40
0.4230769230769231
 40
0.4615384615384616
 40
0.4615384615384616
 40
0.4615384615384616
 40
0.4615384615384616
 40
0.5
 40
0.5
 40
0.5
 40
0.5
 40
0.5384615384615384
 40
0.5384615384615384
 40
0.5384615384615384
 40
0.5384615384615384
 40
0.5769230769230769
 40
0.5769230769230769
 40
0.5769230769230769
 40
0.5769230769230769
 40
0.6153846153846154
 40
0.6153846153846154
 40
0.6153846153846154
 40
0.6153846153846154
 40
0.6538461538461539
 40
0.6538461538461539
 40
0.6538461538461539
 40
0.6538461538461539
 40
0.6923076923076923
 40
0.6923076923076923
 40
0.6923076923076923
 40
0.6923076923076923
 40
0.7307692307692307
 40
0.7307692307692307
 40
0.7307692307692307
 40
0.7307692307692307
 40
0.7692307692307693
 40
0.7692307692307693
 40
0.7692307692307693
 40
0.7692307692307693
 40
0.8076923076923077
 40
0.8076923076923077
 40
0.8076923076923077
 40
0.8076923076923077
 40
0.8461538461538461
 40
0.8461538461538461
 40
0.8461538461538461
 40
0.8461538461538461
 40
0.8846153846153846
 40
0.8846153846153846
 40
0.8846153846153846
 40
0.8846153846153846
 40
0.9230769230769231
 40
0.9230769230769231
 40
0.9230769230769231
 40
0.9230769230769231
 40
1.0
 40
1.0
 40
1.0
 40
1.0
 10
34.7501
 20
12.7008
 30
0.0
 10
34.7501
 20
12.7008
 30
0.0
 10
34.4163
 20
12.9206
 30
0.0
 10
34.4163
 20
12.9206
 30
0.0
 10
34.4163
 20
12.9206
 30
0.0
 10
34.4842
 20
13.0049
 30
0.0
 10
34.5366
 20
13.0973
 30
0.0
 10
34.5722
 20
13.1973
 30
0.0
 10
34.5722
 20
13.1973
 30
0.0
 10
34.6078
 20
13.2979
 30
0.0
 10
34.6259
 20
13.4031
 30
0.0
 10
34.6259
 20
13.5136
 30
0.0
 10
34.6259
 20
13.5136
 30
0.0
 10
34.6259
 20
13.627
 30
0.0
 10
34.6071
 20
13.7368
 30
0.0
 10
34.5703
 20
13.8421
 30
0.0
 10
34.5703
 20
13.8421
 30
0.0
 10
34.5334
 20
13.9473
 30
0.0
 10
34.4784
 20
14.045
 30
0.0
 10
34.4047
 20
14.1345
 30
0.0
 10
34.4047
 20
14.1345
 30
0.0
 10
34.3316
 20
14.2246
 30
0.0
 10
34.2398
 20
14.3031
 30
0.0
 10
34.1298
 20
14.3706
 30
0.0
 10
34.1298
 20
14.3706
 30
0.0
 10
34.0199
 20
14.4374
 30
0.0
 10
33.8918
 20
14.4897
 30
0.0
 10
33.745
 20
14.5275
 30
0.0
 10
33.745
 20
14.5275
 30
0.0
 10
33.5988
 20
14.5648
 30
0.0
 10
33.4346
 20
14.5839
 30
0.0
 10
33.2522
 20
14.5845
 30
0.0
 10
33.2522
 20
14.5845
 30
0.0
 10
33.1234
 20
14.5845
 30
0.0
 10
33.0012
 20
14.5729
 30
0.0
 10
32.8848
 20
14.5491
 30
0.0
 10
32.8848
 20
14.5491
 30
0.0
 10
32.7678
 20
14.5258
 30
0.0
 10
32.6591
 20
14.4915
 30
0.0
 10
32.5588
 20
14.4467
 30
0.0
 10
32.5588
 20
14.4467
 30
0.0
 10
32.4586
 20
14.4014
 30
0.0
 10
32.3693
 20
14.3462
 30
0.0
 10
32.2898
 20
14.281
 30
0.0
 10
32.2898
 20
14.281
 30
0.0
 10
32.2898
 20
14.281
 30
0.0
 10
31.9561
 20
14.4973
 30
0.0
 10
31.9561
 20
14.4973
 30
0.0
 10
31.9561
 20
14.4973
 30
0.0
 10
31.9561
 20
14.4973
 30
0.0
 10
31.8164
 20
14.3124
 30
0.0
 10
31.8164
 20
14.3124
 30
0.0
 10
31.8164
 20
14.3124
 30
0.0
 10
31.8164
 20
14.3124
 30
0.0
 10
32.1307
 20
14.1066
 30
0.0
 10
32.1307
 20
14.1066
 30
0.0
 10
32.1307
 20
14.1066
 30
0.0
 10
32.0609
 20
14.0223
 30
0.0
 10
32.0085
 20
13.931
 30
0.0
 10
31.9735
 20
13.8322
 30
0.0
 10
31.9735
 20
13.8322
 30
0.0
 10
31.9386
 20
13.7328
 30
0.0
 10
31.9211
 20
13.6293
 30
0.0
 10
31.9211
 20
13.5206
 30
0.0
 10
31.9211
 20
13.5206
 30
0.0
 10
31.9218
 20
13.3653
 30
0.0
 10
31.9541
 20
13.2223
 30
0.0
 10
32.0181
 20
13.0903
 30
0.0
 10
32.0181
 20
13.0903
 30
0.0
 10
32.0822
 20
12.9589
 30
0.0
 10
32.1747
 20
12.8444
 30
0.0
 10
32.2943
 20
12.7467
 30
0.0
 10
32.2943
 20
12.7467
 30
0.0
 10
32.414
 20
12.6485
 30
0.0
 10
32.5576
 20
12.5729
 30
0.0
 10
32.7251
 20
12.5182
 30
0.0
 10
32.7251
 20
12.5182
 30
0.0
 10
32.8926
 20
12.4642
 30
0.0
 10
33.0795
 20
12.4363
 30
0.0
 10
33.2871
 20
12.4357
 30
0.0
 10
33.2871
 20
12.4357
 30
0.0
 10
33.4177
 20
12.4357
 30
0.0
 10
33.5426
 20
12.4485
 30
0.0
 10
33.6603
 20
12.4729
 30
0.0
 10
33.6603
 20
12.4729
 30
0.0
 10
33.778
 20
12.4973
 30
0.0
 10
33.8873
 20
12.5328
 30
0.0
 10
33.9875
 20
12.5787
 30
0.0
 10
33.9875
 20
12.5787
 30
0.0
 10
34.0878
 20
12.6252
 30
0.0
 10
34.1777
 20
12.681
 30
0.0
 10
34.2572
 20
12.7462
 30
0.0
 10
34.2572
 20
12.7462
 30
0.0
 10
34.2572
 20
12.7462
 30
0.0
 10
34.5948
 20
12.5299
 30
0.0
 10
34.5948
 20
12.5299
 30
0.0
 10
34.5948
 20
12.5299
 30
0.0
 10
34.5948
 20
12.5299
 30
0.0
 10
34.7501
 20
12.7008
 30
0.0
 10
34.7501
 20
12.7008
 30
0.0
  0
SPLINE
  5
9C
330
1F
100
AcDbEntity
  8
Ilustrace
 62
   250
100
AcDbSpline
210
0.0
220
0.0
230
1.0
 70
    11
 71
     3
 72
    52
 73
    48
 74
     0
 42
0.0000000001
 43
0.0000000001
 40
0.0
 40
0.0
 40
0.0
 40
0.0
 40
0.0769230769230769
 40
0.0769230769230769
 40
0.0769230769230769
 40
0.0769230769230769
 40
0.1538461538461539
 40
0.1538461538461539
 40
0.1538461538461539
 40
0.1538461538461539
 40
0.2307692307692308
 40
0.2307692307692308
 40
0.2307692307692308
 40
0.2307692307692308
 40
0.3076923076923077
 40
0.3076923076923077
 40
0.3076923076923077
 40
0.3076923076923077
 40
0.3846153846153846
 40
0.3846153846153846
 40
0.3846153846153846
 40
0.3846153846153846
 40
0.4615384615384616
 40
0.4615384615384616
 40
0.4615384615384616
 40
0.4615384615384616
 40
0.5384615384615384
 40
0.5384615384615384
 40
0.5384615384615384
 40
0.5384615384615384
 40
0.6153846153846154
 40
0.6153846153846154
 40
0.6153846153846154
 40
0.6153846153846154
 40
0.6923076923076923
 40
0.6923076923076923
 40
0.6923076923076923
 40
0.6923076923076923
 40
0.7692307692307693
 40
0.7692307692307693
 40
0.7692307692307693
 40
0.7692307692307693
 40
0.8461538461538461
 40
0.8461538461538461
 40
0.8461538461538461
 40
0.8461538461538461
 40
1.0
 40
1.0
 40
1.0
 40
1.0
 10
33.9701
 20
12.924
 30
0.0
 10
33.9701
 20
12.924
 30
0.0
 10
33.9739
 20
12.9171
 30
0.0
 10
33.9739
 20
12.9171
 30
0.0
 10
33.9739
 20
12.9171
 30
0.0
 10
33.9073
 20
12.8822
 30
0.0
 10
33.8381
 20
12.852
 30
0.0
 10
33.767
 20
12.8264
 30
0.0
 10
33.767
 20
12.8264
 30
0.0
 10
33.6952
 20
12.8008
 30
0.0
 10
33.6195
 20
12.781
 30
0.0
 10
33.538
 20
12.7671
 30
0.0
 10
33.538
 20
12.7671
 30
0.0
 10
33.4572
 20
12.7531
 30
0.0
 10
33.3679
 20
12.7462
 30
0.0
 10
33.2716
 20
12.7462
 30
0.0
 10
33.2716
 20
12.7462
 30
0.0
 10
33.1603
 20
12.7462
 30
0.0
 10
33.053
 20
12.7566
 30
0.0
 10
32.9475
 20
12.7769
 30
0.0
 10
32.9475
 20
12.7769
 30
0.0
 10
32.8428
 20
12.7979
 30
0.0
 10
32.7444
 20
12.8287
 30
0.0
 10
32.6539
 20
12.8694
 30
0.0
 10
32.6539
 20
12.8694
 30
0.0
 10
32.5627
 20
12.9107
 30
0.0
 10
32.4825
 20
12.9618
 30
0.0
 10
32.414
 20
13.0235
 30
0.0
 10
32.414
 20
13.0235
 30
0.0
 10
32.3448
 20
13.0851
 30
0.0
 10
32.2911
 20
13.1566
 30
0.0
 10
32.2523
 20
13.238
 30
0.0
 10
32.2523
 20
13.238
 30
0.0
 10
32.2128
 20
13.32
 30
0.0
 10
32.1934
 20
13.4118
 30
0.0
 10
32.1928
 20
13.5136
 30
0.0
 10
32.1928
 20
13.5136
 30
0.0
 10
32.1934
 20
13.6025
 30
0.0
 10
32.2096
 20
13.6839
 30
0.0
 10
32.2419
 20
13.7572
 30
0.0
 10
32.2419
 20
13.7572
 30
0.0
 10
32.2736
 20
13.831
 30
0.0
 10
32.3182
 20
13.8973
 30
0.0
 10
32.3752
 20
13.9566
 30
0.0
 10
32.3752
 20
13.9566
 30
0.0
 10
32.3752
 20
13.9566
 30
0.0
 10
33.9701
 20
12.924
 30
0.0
 10
33.9701
 20
12.924
 30
0.0
  0
SPLINE
  5
9D
330
1F
100
AcDbEntity
  8
Ilustrace
 62
   250
100
AcDbSpline
210
0.0
220
0.0
230
1.0
 70
    11
 71
     3
 72
    48
 73
    44
 74
     0
 42
0.0000000001
 43
0.0000000001
 40
0.0
 40
0.0
 40
0.0
 40
0.0
 40
0.0833333333333333
 40
0.0833333333333333
 40
0.0833333333333333
 40
0.0833333333333333
 40
0.1666666666666667
 40
0.1666666666666667
 40
0.1666666666666667
 40
0.1666666666666667
 40
0.25
 40
0.25
 40
0.25
 40
0.25
 40
0.3333333333333333
 40
0.3333333333333333
 40
0.3333333333333333
 40
0.3333333333333333
 40
0.4166666666666667
 40
0.4166666666666667
 40
0.4166666666666667
 40
0.4166666666666667
 40
0.5
 40
0.5
 40
0.5
 40
0.5
 40
0.5833333333333334
 40
0.5833333333333334
 40
0.5833333333333334
 40
0.5833333333333334
 40
0.6666666666666666
 40
0.6666666666666666
 40
0.6666666666666666
 40
0.6666666666666666
 40
0.75
 40
0.75
 40
0.75
 40
0.75
 40
0.8333333333333334
 40
0.8333333333333334
 40
0.8333333333333334
 40
0.8333333333333334
 40
1.0
 40
1.0
 40
1.0
 40
1.0
 10
32.5808
 20
14.0996
 30
0.0
 10
32.5808
 20
14.0996
 30
0.0
 10
32.5808
 20
14.1101
 30
0.0
 10
32.5808
 20
14.1101
 30
0.0
 10
32.5808
 20
14.1101
 30
0.0
 10
32.6934
 20
14.1706
 30
0.0
 10
32.8072
 20
14.213
 30
0.0
 10
32.9223
 20
14.238
 30
0.0
 10
32.9223
 20
14.238
 30
0.0
 10
33.0368
 20
14.263
 30
0.0
 10
33.1506
 20
14.2752
 30
0.0
 10
33.2638
 20
14.274
 30
0.0
 10
33.2638
 20
14.274
 30
0.0
 10
33.3815
 20
14.274
 30
0.0
 10
33.4941
 20
14.263
 30
0.0
 10
33.6021
 20
14.2415
 30
0.0
 10
33.6021
 20
14.2415
 30
0.0
 10
33.7101
 20
14.22
 30
0.0
 10
33.8097
 20
14.188
 30
0.0
 10
33.9009
 20
14.1461
 30
0.0
 10
33.9009
 20
14.1461
 30
0.0
 10
33.9921
 20
14.1037
 30
0.0
 10
34.0716
 20
14.052
 30
0.0
 10
34.1389
 20
13.9903
 30
0.0
 10
34.1389
 20
13.9903
 30
0.0
 10
34.2068
 20
13.9281
 30
0.0
 10
34.2598
 20
13.8572
 30
0.0
 10
34.2973
 20
13.777
 30
0.0
 10
34.2973
 20
13.777
 30
0.0
 10
34.3348
 20
13.6967
 30
0.0
 10
34.3536
 20
13.6078
 30
0.0
 10
34.3542
 20
13.5101
 30
0.0
 10
34.3542
 20
13.5101
 30
0.0
 10
34.3542
 20
13.4153
 30
0.0
 10
34.3381
 20
13.3322
 30
0.0
 10
34.3064
 20
13.2618
 30
0.0
 10
34.3064
 20
13.2618
 30
0.0
 10
34.2747
 20
13.1909
 30
0.0
 10
34.2281
 20
13.1275
 30
0.0
 10
34.168
 20
13.0706
 30
0.0
 10
34.168
 20
13.0706
 30
0.0
 10
34.168
 20
13.0706
 30
0.0
 10
32.5808
 20
14.0996
 30
0.0
 10
32.5808
 20
14.0996
 30
0.0
  0
SPLINE
  5
9E
330
1F
100
AcDbEntity
  8
Ilustrace
 62
   250
100
AcDbSpline
210
0.0
220
0.0
230
1.0
 70
    11
 71
     3
 72
   196
 73
   192
 74
     0
 42
0.0000000001
 43
0.0000000001
 40
0.0
 40
0.0
 40
0.0
 40
0.0
 40
0.0204081632653061
 40
0.0204081632653061
 40
0.0204081632653061
 40
0.0204081632653061
 40
0.0408163265306122
 40
0.0408163265306122
 40
0.0408163265306122
 40
0.0408163265306122
 40
0.0612244897959184
 40
0.0612244897959184
 40
0.0612244897959184
 40
0.0612244897959184
 40
0.0816326530612245
 40
0.0816326530612245
 40
0.0816326530612245
 40
0.0816326530612245
 40
0.1020408163265306
 40
0.1020408163265306
 40
0.1020408163265306
 40
0.1020408163265306
 40
0.1224489795918367
 40
0.1224489795918367
 40
0.1224489795918367
 40
0.1224489795918367
 40
0.1428571428571428
 40
0.1428571428571428
 40
0.1428571428571428
 40
0.1428571428571428
 40
0.163265306122449
 40
0.163265306122449
 40
0.163265306122449
 40
0.163265306122449
 40
0.1836734693877551
 40
0.1836734693877551
 40
0.1836734693877551
 40
0.1836734693877551
 40
0.2040816326530612
 40
0.2040816326530612
 40
0.2040816326530612
 40
0.2040816326530612
 40
0.2244897959183673
 40
0.2244897959183673
 40
0.2244897959183673
 40
0.2244897959183673
 40
0.2448979591836735
 40
0.2448979591836735
 40
0.2448979591836735
 40
0.2448979591836735
 40
0.2653061224489796
 40
0.2653061224489796
 40
0.2653061224489796
 40
0.2653061224489796
 40
0.2857142857142857
 40
0.2857142857142857
 40
0.2857142857142857
 40
0.2857142857142857
 40
0.3061224489795918
 40
0.3061224489795918
 40
0.3061224489795918
 40
0.3061224489795918
 40
0.3265306122448979
 40
0.3265306122448979
 40
0.3265306122448979
 40
0.3265306122448979
 40
0.3469387755102041
 40
0.3469387755102041
 40
0.3469387755102041
 40
0.3469387755102041
 40
0.3673469387755102
 40
0.3673469387755102
 40
0.3673469387755102
 40
0.3673469387755102
 40
0.3877551020408163
 40
0.3877551020408163
 40
0.3877551020408163
 40
0.3877551020408163
 40
0.4081632653061225
 40
0.4081632653061225
 40
0.4081632653061225
 40
0.4081632653061225
 40
0.4285714285714285
 40
0.4285714285714285
 40
0.4285714285714285
 40
0.4285714285714285
 40
0.4489795918367347
 40
0.4489795918367347
 40
0.4489795918367347
 40
0.4489795918367347
 40
0.4693877551020408
 40
0.4693877551020408
 40
0.4693877551020408
 40
0.4693877551020408
 40
0.4897959183673469
 40
0.4897959183673469
 40
0.4897959183673469
 40
0.4897959183673469
 40
0.5102040816326531
 40
0.5102040816326531
 40
0.5102040816326531
 40
0.5102040816326531
 40
0.5306122448979592
 40
0.5306122448979592
 40
0.5306122448979592
 40
0.5306122448979592
 40
0.5510204081632653
 40
0.5510204081632653
 40
0.5510204081632653
 40
0.5510204081632653
 40
0.5714285714285714
 40
0.5714285714285714
 40
0.5714285714285714
 40
0.5714285714285714
 40
0.5918367346938775
 40
0.5918367346938775
 40
0.5918367346938775
 40
0.5918367346938775
 40
0.6122448979591837
 40
0.6122448979591837
 40
0.6122448979591837
 40
0.6122448979591837
 40
0.6326530612244898
 40
0.6326530612244898
 40
0.6326530612244898
 40
0.6326530612244898
 40
0.6530612244897959
 40
0.6530612244897959
 40
0.6530612244897959
 40
0.6530612244897959
 40
0.673469387755102
 40
0.673469387755102
 40
0.673469387755102
 40
0.673469387755102
 40
0.6938775510204082
 40
0.6938775510204082
 40
0.6938775510204082
 40
0.6938775510204082
 40
0.7142857142857143
 40
0.7142857142857143
 40
0.7142857142857143
 40
0.7142857142857143
 40
0.7346938775510204
 40
0.7346938775510204
 40
0.7346938775510204
 40
0.7346938775510204
 40
0.7551020408163265
 40
0.7551020408163265
 40
0.7551020408163265
 40
0.7551020408163265
 40
0.7755102040816326
 40
0.7755102040816326
 40
0.7755102040816326
 40
0.7755102040816326
 40
0.7959183673469388
 40
0.7959183673469388
 40
0.7959183673469388
 40
0.7959183673469388
 40
0.8163265306122449
 40
0.8163265306122449
 40
0.8163265306122449
 40
0.8163265306122449
 40
0.8367346938775511
 40
0.8367346938775511
 40
0.8367346938775511
 40
0.8367346938775511
 40
0.8571428571428571
 40
0.8571428571428571
 40
0.8571428571428571
 40
0.8571428571428571
 40
0.8775510204081632
 40
0.8775510204081632
 40
0.8775510204081632
 40
0.8775510204081632
 40
0.8979591836734694
 40
0.8979591836734694
 40
0.8979591836734694
 40
0.8979591836734694
 40
0.9183673469387755
 40
0.9183673469387755
 40
0.9183673469387755
 40
0.9183673469387755
 40
0.9387755102040817
 40
0.9387755102040817
 40
0.9387755102040817
 40
0.9387755102040817
 40
0.9591836734693877
 40
0.9591836734693877
 40
0.9591836734693877
 40
0.9591836734693877
 40
1.0
 40
1.0
 40
1.0
 40
1.0
 10
34.4551
 20
14.8601
 30
0.0
 10
34.483
 20
14.8979
 30
0.0
 10
34.5095
 20
14.9467
 30
0.0
 10
34.5353
 20
15.006
 30
0.0
 10
34.5353
 20
15.006
 30
0.0
 10
34.5612
 20
15.0653
 30
0.0
 10
34.5825
 20
15.1328
 30
0.0
 10
34.6
 20
15.2084
 30
0.0
 10
34.6
 20
15.2084
 30
0.0
 10
34.6168
 20
15.2839
 30
0.0
 10
34.6252
 20
15.3642
 30
0.0
 10
34.6259
 20
15.4496
 30
0.0
 10
34.6259
 20
15.4496
 30
0.0
 10
34.6252
 20
15.5851
 30
0.0
 10
34.6045
 20
15.7043
 30
0.0
 10
34.5644
 20
15.8072
 30
0.0
 10
34.5644
 20
15.8072
 30
0.0
 10
34.5243
 20
15.9101
 30
0.0
 10
34.4687
 20
15.9962
 30
0.0
 10
34.3989
 20
16.0659
 30
0.0
 10
34.3989
 20
16.0659
 30
0.0
 10
34.329
 20
16.1357
 30
0.0
 10
34.2482
 20
16.188
 30
0.0
 10
34.1576
 20
16.2235
 30
0.0
 10
34.1576
 20
16.2235
 30
0.0
 10
34.0671
 20
16.2584
 30
0.0
 10
33.9707
 20
16.2764
 30
0.0
 10
33.8692
 20
16.2764
 30
0.0
 10
33.8692
 20
16.2764
 30
0.0
 10
33.7806
 20
16.2752
 30
0.0
 10
33.7004
 20
16.2613
 30
0.0
 10
33.6279
 20
16.2351
 30
0.0
 10
33.6279
 20
16.2351
 30
0.0
 10
33.5548
 20
16.2089
 30
0.0
 10
33.4915
 20
16.1729
 30
0.0
 10
33.4365
 20
16.127
 30
0.0
 10
33.4365
 20
16.127
 30
0.0
 10
33.3815
 20
16.081
 30
0.0
 10
33.3363
 20
16.0276
 30
0.0
 10
33.3007
 20
15.9671
 30
0.0
 10
33.3007
 20
15.9671
 30
0.0
 10
33.2651
 20
15.906
 30
0.0
 10
33.2399
 20
15.8409
 30
0.0
 10
33.225
 20
15.7706
 30
0.0
 10
33.225
 20
15.7706
 30
0.0
 10
33.225
 20
15.7706
 30
0.0
 10
33.2172
 20
15.7706
 30
0.0
 10
33.2172
 20
15.7706
 30
0.0
 10
33.2172
 20
15.7706
 30
0.0
 10
33.1791
 20
15.8624
 30
0.0
 10
33.1306
 20
15.9398
 30
0.0
 10
33.0711
 20
16.0014
 30
0.0
 10
33.0711
 20
16.0014
 30
0.0
 10
33.0116
 20
16.0636
 30
0.0
 10
32.943
 20
16.1107
 30
0.0
 10
32.8667
 20
16.1421
 30
0.0
 10
32.8667
 20
16.1421
 30
0.0
 10
32.7904
 20
16.1735
 30
0.0
 10
32.7082
 20
16.1892
 30
0.0
 10
32.6196
 20
16.1892
 30
0.0
 10
32.6196
 20
16.1892
 30
0.0
 10
32.542
 20
16.1892
 30
0.0
 10
32.4676
 20
16.1764
 30
0.0
 10
32.3965
 20
16.1508
 30
0.0
 10
32.3965
 20
16.1508
 30
0.0
 10
32.3247
 20
16.1246
 30
0.0
 10
32.2607
 20
16.0851
 30
0.0
 10
32.2038
 20
16.0322
 30
0.0
 10
32.2038
 20
16.0322
 30
0.0
 10
32.1469
 20
15.9793
 30
0.0
 10
32.1022
 20
15.9119
 30
0.0
 10
32.0692
 20
15.8299
 30
0.0
 10
32.0692
 20
15.8299
 30
0.0
 10
32.0356
 20
15.7485
 30
0.0
 10
32.0188
 20
15.652
 30
0.0
 10
32.0181
 20
15.5403
 30
0.0
 10
32.0181
 20
15.5403
 30
0.0
 10
32.0188
 20
15.4584
 30
0.0
 10
32.0285
 20
15.3799
 30
0.0
 10
32.0466
 20
15.3043
 30
0.0
 10
32.0466
 20
15.3043
 30
0.0
 10
32.0654
 20
15.2287
 30
0.0
 10
32.0893
 20
15.1601
 30
0.0
 10
32.1184
 20
15.0985
 30
0.0
 10
32.1184
 20
15.0985
 30
0.0
 10
32.1482
 20
15.0369
 30
0.0
 10
32.1792
 20
14.9851
 30
0.0
 10
32.2122
 20
14.9438
 30
0.0
 10
32.2122
 20
14.9438
 30
0.0
 10
32.2122
 20
14.9438
 30
0.0
 10
32.4605
 20
15.0276
 30
0.0
 10
32.4605
 20
15.0276
 30
0.0
 10
32.4605
 20
15.0276
 30
0.0
 10
32.434
 20
15.0607
 30
0.0
 10
32.4082
 20
15.1008
 30
0.0
 10
32.3829
 20
15.1485
 30
0.0
 10
32.3829
 20
15.1485
 30
0.0
 10
32.3571
 20
15.1956
 30
0.0
 10
32.3364
 20
15.2479
 30
0.0
 10
32.3195
 20
15.3049
 30
0.0
 10
32.3195
 20
15.3049
 30
0.0
 10
32.3027
 20
15.3613
 30
0.0
 10
32.2943
 20
15.42
 30
0.0
 10
32.2937
 20
15.481
 30
0.0
 10
32.2937
 20
15.481
 30
0.0
 10
32.2943
 20
15.5752
 30
0.0
 10
32.3124
 20
15.6514
 30
0.0
 10
32.3474
 20
15.7095
 30
0.0
 10
32.3474
 20
15.7095
 30
0.0
 10
32.3823
 20
15.7682
 30
0.0
 10
32.4282
 20
15.8113
 30
0.0
 10
32.4858
 20
15.8386
 30
0.0
 10
32.4858
 20
15.8386
 30
0.0
 10
32.5427
 20
15.8659
 30
0.0
 10
32.6054
 20
15.8793
 30
0.0
 10
32.674
 20
15.8787
 30
0.0
 10
32.674
 20
15.8787
 30
0.0
 10
32.7483
 20
15.8781
 30
0.0
 10
32.813
 20
15.8618
 30
0.0
 10
32.8667
 20
15.8311
 30
0.0
 10
32.8667
 20
15.8311
 30
0.0
 10
32.9204
 20
15.8002
 30
0.0
 10
32.965
 20
15.7595
 30
0.0
 10
32.9993
 20
15.7095
 30
0.0
 10
32.9993
 20
15.7095
 30
0.0
 10
33.0342
 20
15.6595
 30
0.0
 10
33.0594
 20
15.6049
 30
0.0
 10
33.0762
 20
15.5462
 30
0.0
 10
33.0762
 20
15.5462
 30
0.0
 10
33.0924
 20
15.4874
 30
0.0
 10
33.1008
 20
15.4299
 30
0.0
 10
33.1008
 20
15.3729
 30
0.0
 10
33.1008
 20
15.3729
 30
0.0
 10
33.1008
 20
15.3729
 30
0.0
 10
33.1008
 20
15.202
 30
0.0
 10
33.1008
 20
15.202
 30
0.0
 10
33.1008
 20
15.202
 30
0.0
 10
33.1008
 20
15.202
 30
0.0
 10
33.3569
 20
15.202
 30
0.0
 10
33.3569
 20
15.202
 30
0.0
 10
33.3569
 20
15.202
 30
0.0
 10
33.3569
 20
15.202
 30
0.0
 10
33.3569
 20
15.3729
 30
0.0
 10
33.3569
 20
15.3729
 30
0.0
 10
33.3569
 20
15.3729
 30
0.0
 10
33.3569
 20
15.4479
 30
0.0
 10
33.3667
 20
15.52
 30
0.0
 10
33.386
 20
15.5892
 30
0.0
 10
33.386
 20
15.5892
 30
0.0
 10
33.4054
 20
15.6584
 30
0.0
 10
33.4358
 20
15.7206
 30
0.0
 10
33.4766
 20
15.7758
 30
0.0
 10
33.4766
 20
15.7758
 30
0.0
 10
33.5173
 20
15.8311
 30
0.0
 10
33.5697
 20
15.8752
 30
0.0
 10
33.6338
 20
15.9078
 30
0.0
 10
33.6338
 20
15.9078
 30
0.0
 10
33.6971
 20
15.9404
 30
0.0
 10
33.7734
 20
15.9572
 30
0.0
 10
33.8614
 20
15.959
 30
0.0
 10
33.8614
 20
15.959
 30
0.0
 10
33.9157
 20
15.9601
 30
0.0
 10
33.9714
 20
15.9526
 30
0.0
 10
34.0276
 20
15.9351
 30
0.0
 10
34.0276
 20
15.9351
 30
0.0
 10
34.0845
 20
15.9183
 30
0.0
 10
34.1376
 20
15.8898
 30
0.0
 10
34.1861
 20
15.8502
 30
0.0
 10
34.1861
 20
15.8502
 30
0.0
 10
34.2346
 20
15.8107
 30
0.0
 10
34.274
 20
15.7578
 30
0.0
 10
34.3038
 20
15.6915
 30
0.0
 10
34.3038
 20
15.6915
 30
0.0
 10
34.3342
 20
15.6252
 30
0.0
 10
34.3497
 20
15.5438
 30
0.0
 10
34.3504
 20
15.4462
 30
0.0
 10
34.3504
 20
15.4462
 30
0.0
 10
34.3497
 20
15.3735
 30
0.0
 10
34.3407
 20
15.3043
 30
0.0
 10
34.3232
 20
15.2392
 30
0.0
 10
34.3232
 20
15.2392
 30
0.0
 10
34.3057
 20
15.1741
 30
0.0
 10
34.285
 20
15.1159
 30
0.0
 10
34.2611
 20
15.0648
 30
0.0
 10
34.2611
 20
15.0648
 30
0.0
 10
34.2372
 20
15.0136
 30
0.0
 10
34.2152
 20
14.9735
 30
0.0
 10
34.1951
 20
14.9438
 30
0.0
 10
34.1951
 20
14.9438
 30
0.0
 10
34.1951
 20
14.9438
 30
0.0
 10
34.4551
 20
14.8601
 30
0.0
 10
34.4551
 20
14.8601
 30
0.0
  0
SPLINE
  5
9F
330
1F
100
AcDbEntity
  8
Ilustrace
 62
   250
100
AcDbSpline
210
0.0
220
0.0
230
1.0
 70
    11
 71
     3
 72
   124
 73
   120
 74
     0
 42
0.0000000001
 43
0.0000000001
 40
0.0
 40
0.0
 40
0.0
 40
0.0
 40
0.032258064516129
 40
0.032258064516129
 40
0.032258064516129
 40
0.032258064516129
 40
0.0645161290322581
 40
0.0645161290322581
 40
0.0645161290322581
 40
0.0645161290322581
 40
0.0967741935483871
 40
0.0967741935483871
 40
0.0967741935483871
 40
0.0967741935483871
 40
0.1290322580645161
 40
0.1290322580645161
 40
0.1290322580645161
 40
0.1290322580645161
 40
0.1612903225806452
 40
0.1612903225806452
 40
0.1612903225806452
 40
0.1612903225806452
 40
0.1935483870967742
 40
0.1935483870967742
 40
0.1935483870967742
 40
0.1935483870967742
 40
0.2258064516129032
 40
0.2258064516129032
 40
0.2258064516129032
 40
0.2258064516129032
 40
0.2580645161290323
 40
0.2580645161290323
 40
0.2580645161290323
 40
0.2580645161290323
 40
0.2903225806451613
 40
0.2903225806451613
 40
0.2903225806451613
 40
0.2903225806451613
 40
0.3225806451612903
 40
0.3225806451612903
 40
0.3225806451612903
 40
0.3225806451612903
 40
0.3548387096774194
 40
0.3548387096774194
 40
0.3548387096774194
 40
0.3548387096774194
 40
0.3870967741935484
 40
0.3870967741935484
 40
0.3870967741935484
 40
0.3870967741935484
 40
0.4193548387096774
 40
0.4193548387096774
 40
0.4193548387096774
 40
0.4193548387096774
 40
0.4516129032258064
 40
0.4516129032258064
 40
0.4516129032258064
 40
0.4516129032258064
 40
0.4838709677419355
 40
0.4838709677419355
 40
0.4838709677419355
 40
0.4838709677419355
 40
0.5161290322580645
 40
0.5161290322580645
 40
0.5161290322580645
 40
0.5161290322580645
 40
0.5483870967741935
 40
0.5483870967741935
 40
0.5483870967741935
 40
0.5483870967741935
 40
0.5806451612903226
 40
0.5806451612903226
 40
0.5806451612903226
 40
0.5806451612903226
 40
0.6129032258064516
 40
0.6129032258064516
 40
0.6129032258064516
 40
0.6129032258064516
 40
0.6451612903225806
 40
0.6451612903225806
 40
0.6451612903225806
 40
0.6451612903225806
 40
0.6774193548387096
 40
0.6774193548387096
 40
0.6774193548387096
 40
0.6774193548387096
 40
0.7096774193548387
 40
0.7096774193548387
 40
0.7096774193548387
 40
0.7096774193548387
 40
0.7419354838709677
 40
0.7419354838709677
 40
0.7419354838709677
 40
0.7419354838709677
 40
0.7741935483870968
 40
0.7741935483870968
 40
0.7741935483870968
 40
0.7741935483870968
 40
0.8064516129032258
 40
0.8064516129032258
 40
0.8064516129032258
 40
0.8064516129032258
 40
0.8387096774193549
 40
0.8387096774193549
 40
0.8387096774193549
 40
0.8387096774193549
 40
0.8709677419354839
 40
0.8709677419354839
 40
0.8709677419354839
 40
0.8709677419354839
 40
0.9032258064516129
 40
0.9032258064516129
 40
0.9032258064516129
 40
0.9032258064516129
 40
0.9354838709677419
 40
0.9354838709677419
 40
0.9354838709677419
 40
0.9354838709677419
 40
1.0
 40
1.0
 40
1.0
 40
1.0
 10
34.5832
 20
18.1078
 30
0.0
 10
34.5832
 20
18.1078
 30
0.0
 10
34.2999
 20
18.1078
 30
0.0
 10
34.2999
 20
18.1078
 30
0.0
 10
34.2999
 20
18.1078
 30
0.0
 10
34.2999
 20
18.1078
 30
0.0
 10
34.2999
 20
17.0927
 30
0.0
 10
34.2999
 20
17.0927
 30
0.0
 10
34.2999
 20
17.0927
 30
0.0
 10
34.2999
 20
17.0927
 30
0.0
 10
34.2922
 20
17.0927
 30
0.0
 10
34.2922
 20
17.0927
 30
0.0
 10
34.2922
 20
17.0927
 30
0.0
 10
34.2922
 20
17.0927
 30
0.0
 10
34.1059
 20
17.2706
 30
0.0
 10
34.1059
 20
17.2706
 30
0.0
 10
34.1059
 20
17.2706
 30
0.0
 10
33.9785
 20
17.3904
 30
0.0
 10
33.8575
 20
17.4985
 30
0.0
 10
33.7437
 20
17.5944
 30
0.0
 10
33.7437
 20
17.5944
 30
0.0
 10
33.6299
 20
17.6904
 30
0.0
 10
33.5186
 20
17.7723
 30
0.0
 10
33.4113
 20
17.8404
 30
0.0
 10
33.4113
 20
17.8404
 30
0.0
 10
33.3039
 20
17.909
 30
0.0
 10
33.1959
 20
17.9607
 30
0.0
 10
33.0872
 20
17.9973
 30
0.0
 10
33.0872
 20
17.9973
 30
0.0
 10
32.9792
 20
18.0334
 30
0.0
 10
32.8673
 20
18.0514
 30
0.0
 10
32.7516
 20
18.052
 30
0.0
 10
32.7516
 20
18.052
 30
0.0
 10
32.6604
 20
18.052
 30
0.0
 10
32.5711
 20
18.0392
 30
0.0
 10
32.4845
 20
18.0125
 30
0.0
 10
32.4845
 20
18.0125
 30
0.0
 10
32.3978
 20
17.9857
 30
0.0
 10
32.3195
 20
17.9438
 30
0.0
 10
32.2497
 20
17.888
 30
0.0
 10
32.2497
 20
17.888
 30
0.0
 10
32.1792
 20
17.8322
 30
0.0
 10
32.1236
 20
17.7601
 30
0.0
 10
32.0822
 20
17.6723
 30
0.0
 10
32.0822
 20
17.6723
 30
0.0
 10
32.0402
 20
17.5845
 30
0.0
 10
32.0188
 20
17.4799
 30
0.0
 10
32.0181
 20
17.3578
 30
0.0
 10
32.0181
 20
17.3578
 30
0.0
 10
32.0188
 20
17.2717
 30
0.0
 10
32.0298
 20
17.1898
 30
0.0
 10
32.0524
 20
17.1119
 30
0.0
 10
32.0524
 20
17.1119
 30
0.0
 10
32.0751
 20
17.034
 30
0.0
 10
32.1055
 20
16.9619
 30
0.0
 10
32.1443
 20
16.8956
 30
0.0
 10
32.1443
 20
16.8956
 30
0.0
 10
32.1824
 20
16.8299
 30
0.0
 10
32.2258
 20
16.7712
 30
0.0
 10
32.2743
 20
16.7194
 30
0.0
 10
32.2743
 20
16.7194
 30
0.0
 10
32.2743
 20
16.7194
 30
0.0
 10
32.5149
 20
16.8171
 30
0.0
 10
32.5149
 20
16.8171
 30
0.0
 10
32.5149
 20
16.8171
 30
0.0
 10
32.4819
 20
16.852
 30
0.0
 10
32.4489
 20
16.8939
 30
0.0
 10
32.4165
 20
16.9427
 30
0.0
 10
32.4165
 20
16.9427
 30
0.0
 10
32.3836
 20
16.9915
 30
0.0
 10
32.3571
 20
17.0456
 30
0.0
 10
32.3351
 20
17.1055
 30
0.0
 10
32.3351
 20
17.1055
 30
0.0
 10
32.3137
 20
17.1654
 30
0.0
 10
32.3021
 20
17.2299
 30
0.0
 10
32.3014
 20
17.2985
 30
0.0
 10
32.3014
 20
17.2985
 30
0.0
 10
32.3021
 20
17.3828
 30
0.0
 10
32.3157
 20
17.4537
 30
0.0
 10
32.3422
 20
17.5113
 30
0.0
 10
32.3422
 20
17.5113
 30
0.0
 10
32.3693
 20
17.5683
 30
0.0
 10
32.4056
 20
17.6142
 30
0.0
 10
32.4515
 20
17.6485
 30
0.0
 10
32.4515
 20
17.6485
 30
0.0
 10
32.498
 20
17.6828
 30
0.0
 10
32.5504
 20
17.7078
 30
0.0
 10
32.6093
 20
17.7229
 30
0.0
 10
32.6093
 20
17.7229
 30
0.0
 10
32.6681
 20
17.738
 30
0.0
 10
32.7296
 20
17.7456
 30
0.0
 10
32.7943
 20
17.745
 30
0.0
 10
32.7943
 20
17.745
 30
0.0
 10
32.8887
 20
17.745
 30
0.0
 10
32.9818
 20
17.7281
 30
0.0
 10
33.0743
 20
17.6944
 30
0.0
 10
33.0743
 20
17.6944
 30
0.0
 10
33.1674
 20
17.6607
 30
0.0
 10
33.2645
 20
17.6095
 30
0.0
 10
33.3667
 20
17.5404
 30
0.0
 10
33.3667
 20
17.5404
 30
0.0
 10
33.4688
 20
17.4712
 30
0.0
 10
33.5807
 20
17.3834
 30
0.0
 10
33.7023
 20
17.277
 30
0.0
 10
33.7023
 20
17.277
 30
0.0
 10
33.8239
 20
17.1712
 30
0.0
 10
33.961
 20
17.0456
 30
0.0
 10
34.1137
 20
16.9008
 30
0.0
 10
34.1137
 20
16.9008
 30
0.0
 10
34.1137
 20
16.9008
 30
0.0
 10
34.3736
 20
16.6601
 30
0.0
 10
34.3736
 20
16.6601
 30
0.0
 10
34.3736
 20
16.6601
 30
0.0
 10
34.3736
 20
16.6601
 30
0.0
 10
34.5832
 20
16.6601
 30
0.0
 10
34.5832
 20
16.6601
 30
0.0
 10
34.5832
 20
16.6601
 30
0.0
 10
34.5832
 20
16.6601
 30
0.0
 10
34.5832
 20
18.1078
 30
0.0
 10
34.5832
 20
18.1078
 30
0.0
  0
SPLINE
  5
A0
330
1F
100
AcDbEntity
  8
Ilustrace
 62
   250
100
AcDbSpline
210
0.0
220
0.0
230
1.0
 70
    11
 71
     3
 72
   104
 73
   100
 74
     0
 42
0.0000000001
 43
0.0000000001
 40
0.0
 40
0.0
 40
0.0
 40
0.0
 40
0.0384615384615385
 40
0.0384615384615385
 40
0.0384615384615385
 40
0.0384615384615385
 40
0.0769230769230769
 40
0.0769230769230769
 40
0.0769230769230769
 40
0.0769230769230769
 40
0.1153846153846154
 40
0.1153846153846154
 40
0.1153846153846154
 40
0.1153846153846154
 40
0.1538461538461539
 40
0.1538461538461539
 40
0.1538461538461539
 40
0.1538461538461539
 40
0.1923076923076923
 40
0.1923076923076923
 40
0.1923076923076923
 40
0.1923076923076923
 40
0.2307692307692308
 40
0.2307692307692308
 40
0.2307692307692308
 40
0.2307692307692308
 40
0.2692307692307692
 40
0.2692307692307692
 40
0.2692307692307692
 40
0.2692307692307692
 40
0.3076923076923077
 40
0.3076923076923077
 40
0.3076923076923077
 40
0.3076923076923077
 40
0.3461538461538461
 40
0.3461538461538461
 40
0.3461538461538461
 40
0.3461538461538461
 40
0.3846153846153846
 40
0.3846153846153846
 40
0.3846153846153846
 40
0.3846153846153846
 40
0.4230769230769231
 40
0.4230769230769231
 40
0.4230769230769231
 40
0.4230769230769231
 40
0.4615384615384616
 40
0.4615384615384616
 40
0.4615384615384616
 40
0.4615384615384616
 40
0.5
 40
0.5
 40
0.5
 40
0.5
 40
0.5384615384615384
 40
0.5384615384615384
 40
0.5384615384615384
 40
0.5384615384615384
 40
0.5769230769230769
 40
0.5769230769230769
 40
0.5769230769230769
 40
0.5769230769230769
 40
0.6153846153846154
 40
0.6153846153846154
 40
0.6153846153846154
 40
0.6153846153846154
 40
0.6538461538461539
 40
0.6538461538461539
 40
0.6538461538461539
 40
0.6538461538461539
 40
0.6923076923076923
 40
0.6923076923076923
 40
0.6923076923076923
 40
0.6923076923076923
 40
0.7307692307692307
 40
0.7307692307692307
 40
0.7307692307692307
 40
0.7307692307692307
 40
0.7692307692307693
 40
0.7692307692307693
 40
0.7692307692307693
 40
0.7692307692307693
 40
0.8076923076923077
 40
0.8076923076923077
 40
0.8076923076923077
 40
0.8076923076923077
 40
0.8461538461538461
 40
0.8461538461538461
 40
0.8461538461538461
 40
0.8461538461538461
 40
0.8846153846153846
 40
0.8846153846153846
 40
0.8846153846153846
 40
0.8846153846153846
 40
0.9230769230769231
 40
0.9230769230769231
 40
0.9230769230769231
 40
0.9230769230769231
 40
1.0
 40
1.0
 40
1.0
 40
1.0
 10
-36.5382
 20
3.1486
 30
0.0
 10
-36.5382
 20
3.1486
 30
0.0
 10
-36.872
 20
3.3684
 30
0.0
 10
-36.872
 20
3.3684
 30
0.0
 10
-36.872
 20
3.3684
 30
0.0
 10
-36.8041
 20
3.4527
 30
0.0
 10
-36.7517
 20
3.5451
 30
0.0
 10
-36.7161
 20
3.6451
 30
0.0
 10
-36.7161
 20
3.6451
 30
0.0
 10
-36.6805
 20
3.7457
 30
0.0
 10
-36.6624
 20
3.8509
 30
0.0
 10
-36.6624
 20
3.9614
 30
0.0
 10
-36.6624
 20
3.9614
 30
0.0
 10
-36.6624
 20
4.0748
 30
0.0
 10
-36.6812
 20
4.1846
 30
0.0
 10
-36.718
 20
4.2899
 30
0.0
 10
-36.718
 20
4.2899
 30
0.0
 10
-36.7549
 20
4.3951
 30
0.0
 10
-36.8099
 20
4.4928
 30
0.0
 10
-36.8836
 20
4.5823
 30
0.0
 10
-36.8836
 20
4.5823
 30
0.0
 10
-36.9567
 20
4.6724
 30
0.0
 10
-37.0485
 20
4.7509
 30
0.0
 10
-37.1585
 20
4.8184
 30
0.0
 10
-37.1585
 20
4.8184
 30
0.0
 10
-37.2684
 20
4.8852
 30
0.0
 10
-37.3965
 20
4.9375
 30
0.0
 10
-37.5433
 20
4.9753
 30
0.0
 10
-37.5433
 20
4.9753
 30
0.0
 10
-37.6895
 20
5.0126
 30
0.0
 10
-37.8537
 20
5.0317
 30
0.0
 10
-38.0361
 20
5.0323
 30
0.0
 10
-38.0361
 20
5.0323
 30
0.0
 10
-38.1649
 20
5.0323
 30
0.0
 10
-38.2871
 20
5.0207
 30
0.0
 10
-38.4035
 20
4.9969
 30
0.0
 10
-38.4035
 20
4.9969
 30
0.0
 10
-38.5205
 20
4.9736
 30
0.0
 10
-38.6292
 20
4.9393
 30
0.0
 10
-38.7295
 20
4.8945
 30
0.0
 10
-38.7295
 20
4.8945
 30
0.0
 10
-38.8297
 20
4.8492
 30
0.0
 10
-38.919
 20
4.794
 30
0.0
 10
-38.9985
 20
4.7288
 30
0.0
 10
-38.9985
 20
4.7288
 30
0.0
 10
-38.9985
 20
4.7288
 30
0.0
 10
-39.3322
 20
4.9451
 30
0.0
 10
-39.3322
 20
4.9451
 30
0.0
 10
-39.3322
 20
4.9451
 30
0.0
 10
-39.3322
 20
4.9451
 30
0.0
 10
-39.4719
 20
4.7602
 30
0.0
 10
-39.4719
 20
4.7602
 30
0.0
 10
-39.4719
 20
4.7602
 30
0.0
 10
-39.4719
 20
4.7602
 30
0.0
 10
-39.1576
 20
4.5544
 30
0.0
 10
-39.1576
 20
4.5544
 30
0.0
 10
-39.1576
 20
4.5544
 30
0.0
 10
-39.2274
 20
4.4701
 30
0.0
 10
-39.2798
 20
4.3788
 30
0.0
 10
-39.3148
 20
4.28
 30
0.0
 10
-39.3148
 20
4.28
 30
0.0
 10
-39.3497
 20
4.1806
 30
0.0
 10
-39.3672
 20
4.0771
 30
0.0
 10
-39.3672
 20
3.9684
 30
0.0
 10
-39.3672
 20
3.9684
 30
0.0
 10
-39.3665
 20
3.8131
 30
0.0
 10
-39.3342
 20
3.6701
 30
0.0
 10
-39.2702
 20
3.5381
 30
0.0
 10
-39.2702
 20
3.5381
 30
0.0
 10
-39.2061
 20
3.4067
 30
0.0
 10
-39.1136
 20
3.2922
 30
0.0
 10
-38.994
 20
3.1945
 30
0.0
 10
-38.994
 20
3.1945
 30
0.0
 10
-38.8743
 20
3.0963
 30
0.0
 10
-38.7307
 20
3.0207
 30
0.0
 10
-38.5632
 20
2.966
 30
0.0
 10
-38.5632
 20
2.966
 30
0.0
 10
-38.3957
 20
2.912
 30
0.0
 10
-38.2088
 20
2.8841
 30
0.0
 10
-38.0012
 20
2.8835
 30
0.0
 10
-38.0012
 20
2.8835
 30
0.0
 10
-37.8706
 20
2.8835
 30
0.0
 10
-37.7457
 20
2.8963
 30
0.0
 10
-37.628
 20
2.9207
 30
0.0
 10
-37.628
 20
2.9207
 30
0.0
 10
-37.5103
 20
2.9451
 30
0.0
 10
-37.401
 20
2.9806
 30
0.0
 10
-37.3008
 20
3.0265
 30
0.0
 10
-37.3008
 20
3.0265
 30
0.0
 10
-37.2005
 20
3.073
 30
0.0
 10
-37.1106
 20
3.1288
 30
0.0
 10
-37.0311
 20
3.194
 30
0.0
 10
-37.0311
 20
3.194
 30
0.0
 10
-37.0311
 20
3.194
 30
0.0
 10
-36.6935
 20
2.9777
 30
0.0
 10
-36.6935
 20
2.9777
 30
0.0
 10
-36.6935
 20
2.9777
 30
0.0
 10
-36.6935
 20
2.9777
 30
0.0
 10
-36.5382
 20
3.1486
 30
0.0
 10
-36.5382
 20
3.1486
 30
0.0
  0
SPLINE
  5
A1
330
1F
100
AcDbEntity
  8
Ilustrace
 62
   250
100
AcDbSpline
210
0.0
220
0.0
230
1.0
 70
    11
 71
     3
 72
    52
 73
    48
 74
     0
 42
0.0000000001
 43
0.0000000001
 40
0.0
 40
0.0
 40
0.0
 40
0.0
 40
0.0769230769230769
 40
0.0769230769230769
 40
0.0769230769230769
 40
0.0769230769230769
 40
0.1538461538461539
 40
0.1538461538461539
 40
0.1538461538461539
 40
0.1538461538461539
 40
0.2307692307692308
 40
0.2307692307692308
 40
0.2307692307692308
 40
0.2307692307692308
 40
0.3076923076923077
 40
0.3076923076923077
 40
0.3076923076923077
 40
0.3076923076923077
 40
0.3846153846153846
 40
0.3846153846153846
 40
0.3846153846153846
 40
0.3846153846153846
 40
0.4615384615384616
 40
0.4615384615384616
 40
0.4615384615384616
 40
0.4615384615384616
 40
0.5384615384615384
 40
0.5384615384615384
 40
0.5384615384615384
 40
0.5384615384615384
 40
0.6153846153846154
 40
0.6153846153846154
 40
0.6153846153846154
 40
0.6153846153846154
 40
0.6923076923076923
 40
0.6923076923076923
 40
0.6923076923076923
 40
0.6923076923076923
 40
0.7692307692307693
 40
0.7692307692307693
 40
0.7692307692307693
 40
0.7692307692307693
 40
0.8461538461538461
 40
0.8461538461538461
 40
0.8461538461538461
 40
0.8461538461538461
 40
1.0
 40
1.0
 40
1.0
 40
1.0
 10
-37.3182
 20
3.3718
 30
0.0
 10
-37.3182
 20
3.3718
 30
0.0
 10
-37.3144
 20
3.3649
 30
0.0
 10
-37.3144
 20
3.3649
 30
0.0
 10
-37.3144
 20
3.3649
 30
0.0
 10
-37.381
 20
3.33
 30
0.0
 10
-37.4502
 20
3.2998
 30
0.0
 10
-37.5213
 20
3.2742
 30
0.0
 10
-37.5213
 20
3.2742
 30
0.0
 10
-37.5931
 20
3.2486
 30
0.0
 10
-37.6688
 20
3.2288
 30
0.0
 10
-37.7503
 20
3.2149
 30
0.0
 10
-37.7503
 20
3.2149
 30
0.0
 10
-37.8311
 20
3.2009
 30
0.0
 10
-37.9204
 20
3.194
 30
0.0
 10
-38.0167
 20
3.194
 30
0.0
 10
-38.0167
 20
3.194
 30
0.0
 10
-38.128
 20
3.194
 30
0.0
 10
-38.2353
 20
3.2044
 30
0.0
 10
-38.3408
 20
3.2247
 30
0.0
 10
-38.3408
 20
3.2247
 30
0.0
 10
-38.4455
 20
3.2457
 30
0.0
 10
-38.5439
 20
3.2765
 30
0.0
 10
-38.6344
 20
3.3172
 30
0.0
 10
-38.6344
 20
3.3172
 30
0.0
 10
-38.7256
 20
3.3585
 30
0.0
 10
-38.8058
 20
3.4096
 30
0.0
 10
-38.8743
 20
3.4713
 30
0.0
 10
-38.8743
 20
3.4713
 30
0.0
 10
-38.9435
 20
3.5329
 30
0.0
 10
-38.9972
 20
3.6044
 30
0.0
 10
-39.036
 20
3.6858
 30
0.0
 10
-39.036
 20
3.6858
 30
0.0
 10
-39.0755
 20
3.7678
 30
0.0
 10
-39.0949
 20
3.8596
 30
0.0
 10
-39.0955
 20
3.9614
 30
0.0
 10
-39.0955
 20
3.9614
 30
0.0
 10
-39.0949
 20
4.0503
 30
0.0
 10
-39.0787
 20
4.1317
 30
0.0
 10
-39.0464
 20
4.205
 30
0.0
 10
-39.0464
 20
4.205
 30
0.0
 10
-39.0147
 20
4.2788
 30
0.0
 10
-38.9701
 20
4.3451
 30
0.0
 10
-38.9131
 20
4.4044
 30
0.0
 10
-38.9131
 20
4.4044
 30
0.0
 10
-38.9131
 20
4.4044
 30
0.0
 10
-37.3182
 20
3.3718
 30
0.0
 10
-37.3182
 20
3.3718
 30
0.0
  0
SPLINE
  5
A2
330
1F
100
AcDbEntity
  8
Ilustrace
 62
   250
100
AcDbSpline
210
0.0
220
0.0
230
1.0
 70
    11
 71
     3
 72
    48
 73
    44
 74
     0
 42
0.0000000001
 43
0.0000000001
 40
0.0
 40
0.0
 40
0.0
 40
0.0
 40
0.0833333333333333
 40
0.0833333333333333
 40
0.0833333333333333
 40
0.0833333333333333
 40
0.1666666666666667
 40
0.1666666666666667
 40
0.1666666666666667
 40
0.1666666666666667
 40
0.25
 40
0.25
 40
0.25
 40
0.25
 40
0.3333333333333333
 40
0.3333333333333333
 40
0.3333333333333333
 40
0.3333333333333333
 40
0.4166666666666667
 40
0.4166666666666667
 40
0.4166666666666667
 40
0.4166666666666667
 40
0.5
 40
0.5
 40
0.5
 40
0.5
 40
0.5833333333333334
 40
0.5833333333333334
 40
0.5833333333333334
 40
0.5833333333333334
 40
0.6666666666666666
 40
0.6666666666666666
 40
0.6666666666666666
 40
0.6666666666666666
 40
0.75
 40
0.75
 40
0.75
 40
0.75
 40
0.8333333333333334
 40
0.8333333333333334
 40
0.8333333333333334
 40
0.8333333333333334
 40
1.0
 40
1.0
 40
1.0
 40
1.0
 10
-38.7075
 20
4.5474
 30
0.0
 10
-38.7075
 20
4.5474
 30
0.0
 10
-38.7075
 20
4.5579
 30
0.0
 10
-38.7075
 20
4.5579
 30
0.0
 10
-38.7075
 20
4.5579
 30
0.0
 10
-38.5949
 20
4.6184
 30
0.0
 10
-38.4811
 20
4.6608
 30
0.0
 10
-38.366
 20
4.6858
 30
0.0
 10
-38.366
 20
4.6858
 30
0.0
 10
-38.2515
 20
4.7108
 30
0.0
 10
-38.1377
 20
4.723
 30
0.0
 10
-38.0245
 20
4.7218
 30
0.0
 10
-38.0245
 20
4.7218
 30
0.0
 10
-37.9068
 20
4.7218
 30
0.0
 10
-37.7942
 20
4.7108
 30
0.0
 10
-37.6862
 20
4.6893
 30
0.0
 10
-37.6862
 20
4.6893
 30
0.0
 10
-37.5782
 20
4.6678
 30
0.0
 10
-37.4786
 20
4.6358
 30
0.0
 10
-37.3874
 20
4.5939
 30
0.0
 10
-37.3874
 20
4.5939
 30
0.0
 10
-37.2962
 20
4.5515
 30
0.0
 10
-37.2167
 20
4.4998
 30
0.0
 10
-37.1494
 20
4.4381
 30
0.0
 10
-37.1494
 20
4.4381
 30
0.0
 10
-37.0815
 20
4.3759
 30
0.0
 10
-37.0285
 20
4.305
 30
0.0
 10
-36.991
 20
4.2248
 30
0.0
 10
-36.991
 20
4.2248
 30
0.0
 10
-36.9535
 20
4.1445
 30
0.0
 10
-36.9347
 20
4.0556
 30
0.0
 10
-36.9341
 20
3.9579
 30
0.0
 10
-36.9341
 20
3.9579
 30
0.0
 10
-36.9341
 20
3.8631
 30
0.0
 10
-36.9502
 20
3.78
 30
0.0
 10
-36.9819
 20
3.7096
 30
0.0
 10
-36.9819
 20
3.7096
 30
0.0
 10
-37.0136
 20
3.6387
 30
0.0
 10
-37.0602
 20
3.5753
 30
0.0
 10
-37.1203
 20
3.5184
 30
0.0
 10
-37.1203
 20
3.5184
 30
0.0
 10
-37.1203
 20
3.5184
 30
0.0
 10
-38.7075
 20
4.5474
 30
0.0
 10
-38.7075
 20
4.5474
 30
0.0
  0
SPLINE
  5
A3
330
1F
100
AcDbEntity
  8
Ilustrace
 62
   250
100
AcDbSpline
210
0.0
220
0.0
230
1.0
 70
    11
 71
     3
 72
    36
 73
    32
 74
     0
 42
0.0000000001
 43
0.0000000001
 40
0.0
 40
0.0
 40
0.0
 40
0.0
 40
0.1111111111111111
 40
0.1111111111111111
 40
0.1111111111111111
 40
0.1111111111111111
 40
0.2222222222222222
 40
0.2222222222222222
 40
0.2222222222222222
 40
0.2222222222222222
 40
0.3333333333333333
 40
0.3333333333333333
 40
0.3333333333333333
 40
0.3333333333333333
 40
0.4444444444444444
 40
0.4444444444444444
 40
0.4444444444444444
 40
0.4444444444444444
 40
0.5555555555555556
 40
0.5555555555555556
 40
0.5555555555555556
 40
0.5555555555555556
 40
0.6666666666666666
 40
0.6666666666666666
 40
0.6666666666666666
 40
0.6666666666666666
 40
0.7777777777777778
 40
0.7777777777777778
 40
0.7777777777777778
 40
0.7777777777777778
 40
1.0
 40
1.0
 40
1.0
 40
1.0
 10
-36.7051
 20
5.9846
 30
0.0
 10
-36.7051
 20
5.9846
 30
0.0
 10
-36.7051
 20
6.2812
 30
0.0
 10
-36.7051
 20
6.2812
 30
0.0
 10
-36.7051
 20
6.2812
 30
0.0
 10
-36.7051
 20
6.2812
 30
0.0
 10
-39.2274
 20
6.2812
 30
0.0
 10
-39.2274
 20
6.2812
 30
0.0
 10
-39.2274
 20
6.2812
 30
0.0
 10
-39.2274
 20
6.2812
 30
0.0
 10
-39.2274
 20
6.0195
 30
0.0
 10
-39.2274
 20
6.0195
 30
0.0
 10
-39.2274
 20
6.0195
 30
0.0
 10
-39.2274
 20
6.0195
 30
0.0
 10
-38.9325
 20
5.5242
 30
0.0
 10
-38.9325
 20
5.5242
 30
0.0
 10
-38.9325
 20
5.5242
 30
0.0
 10
-38.9325
 20
5.5242
 30
0.0
 10
-38.6725
 20
5.5835
 30
0.0
 10
-38.6725
 20
5.5835
 30
0.0
 10
-38.6725
 20
5.5835
 30
0.0
 10
-38.6725
 20
5.5835
 30
0.0
 10
-38.9093
 20
5.9777
 30
0.0
 10
-38.9093
 20
5.9777
 30
0.0
 10
-38.9093
 20
5.9777
 30
0.0
 10
-38.9093
 20
5.9777
 30
0.0
 10
-38.9093
 20
5.9846
 30
0.0
 10
-38.9093
 20
5.9846
 30
0.0
 10
-38.9093
 20
5.9846
 30
0.0
 10
-38.9093
 20
5.9846
 30
0.0
 10
-36.7051
 20
5.9846
 30
0.0
 10
-36.7051
 20
5.9846
 30
0.0
  0
SPLINE
  5
A4
330
1F
100
AcDbEntity
  8
Ilustrace
 62
   250
100
AcDbSpline
210
0.0
220
0.0
230
1.0
 70
    11
 71
     3
 72
    56
 73
    52
 74
     0
 42
0.0000000001
 43
0.0000000001
 40
0.0
 40
0.0
 40
0.0
 40
0.0
 40
0.0714285714285714
 40
0.0714285714285714
 40
0.0714285714285714
 40
0.0714285714285714
 40
0.1428571428571428
 40
0.1428571428571428
 40
0.1428571428571428
 40
0.1428571428571428
 40
0.2142857142857143
 40
0.2142857142857143
 40
0.2142857142857143
 40
0.2142857142857143
 40
0.2857142857142857
 40
0.2857142857142857
 40
0.2857142857142857
 40
0.2857142857142857
 40
0.3571428571428572
 40
0.3571428571428572
 40
0.3571428571428572
 40
0.3571428571428572
 40
0.4285714285714285
 40
0.4285714285714285
 40
0.4285714285714285
 40
0.4285714285714285
 40
0.5
 40
0.5
 40
0.5
 40
0.5
 40
0.5714285714285714
 40
0.5714285714285714
 40
0.5714285714285714
 40
0.5714285714285714
 40
0.6428571428571429
 40
0.6428571428571429
 40
0.6428571428571429
 40
0.6428571428571429
 40
0.7142857142857143
 40
0.7142857142857143
 40
0.7142857142857143
 40
0.7142857142857143
 40
0.7857142857142857
 40
0.7857142857142857
 40
0.7857142857142857
 40
0.7857142857142857
 40
0.8571428571428571
 40
0.8571428571428571
 40
0.8571428571428571
 40
0.8571428571428571
 40
1.0
 40
1.0
 40
1.0
 40
1.0
 10
-39.2702
 20
7.8684
 30
0.0
 10
-39.2702
 20
7.7527
 30
0.0
 10
-39.2417
 20
7.6469
 30
0.0
 10
-39.1848
 20
7.5504
 30
0.0
 10
-39.1848
 20
7.5504
 30
0.0
 10
-39.1279
 20
7.4539
 30
0.0
 10
-39.0444
 20
7.3707
 30
0.0
 10
-38.9332
 20
7.2998
 30
0.0
 10
-38.9332
 20
7.2998
 30
0.0
 10
-38.8219
 20
7.2289
 30
0.0
 10
-38.6848
 20
7.1742
 30
0.0
 10
-38.5218
 20
7.1352
 30
0.0
 10
-38.5218
 20
7.1352
 30
0.0
 10
-38.3589
 20
7.0969
 30
0.0
 10
-38.1713
 20
7.0771
 30
0.0
 10
-37.9585
 20
7.0765
 30
0.0
 10
-37.9585
 20
7.0765
 30
0.0
 10
-37.6798
 20
7.08
 30
0.0
 10
-37.4443
 20
7.1132
 30
0.0
 10
-37.2516
 20
7.1765
 30
0.0
 10
-37.2516
 20
7.1765
 30
0.0
 10
-37.0589
 20
7.2399
 30
0.0
 10
-36.9127
 20
7.3277
 30
0.0
 10
-36.8131
 20
7.4393
 30
0.0
 10
-36.8131
 20
7.4393
 30
0.0
 10
-36.7135
 20
7.551
 30
0.0
 10
-36.6631
 20
7.6812
 30
0.0
 10
-36.6624
 20
7.83
 30
0.0
 10
-36.6624
 20
7.83
 30
0.0
 10
-36.6631
 20
7.9969
 30
0.0
 10
-36.7148
 20
8.1387
 30
0.0
 10
-36.817
 20
8.2562
 30
0.0
 10
-36.817
 20
8.2562
 30
0.0
 10
-36.9192
 20
8.3736
 30
0.0
 10
-37.0692
 20
8.4632
 30
0.0
 10
-37.2671
 20
8.5248
 30
0.0
 10
-37.2671
 20
8.5248
 30
0.0
 10
-37.465
 20
8.587
 30
0.0
 10
-37.7069
 20
8.6178
 30
0.0
 10
-37.9934
 20
8.6184
 30
0.0
 10
-37.9934
 20
8.6184
 30
0.0
 10
-38.2619
 20
8.6178
 30
0.0
 10
-38.4915
 20
8.5882
 30
0.0
 10
-38.6816
 20
8.5294
 30
0.0
 10
-38.6816
 20
8.5294
 30
0.0
 10
-38.8718
 20
8.4707
 30
0.0
 10
-39.0173
 20
8.3852
 30
0.0
 10
-39.1175
 20
8.2736
 30
0.0
 10
-39.1175
 20
8.2736
 30
0.0
 10
-39.2184
 20
8.162
 30
0.0
 10
-39.2695
 20
8.0271
 30
0.0
 10
-39.2702
 20
7.8684
 30
0.0
  0
SPLINE
  5
A5
330
1F
100
AcDbEntity
  8
Ilustrace
 62
   250
100
AcDbSpline
210
0.0
220
0.0
230
1.0
 70
    11
 71
     3
 72
    56
 73
    52
 74
     0
 42
0.0000000001
 43
0.0000000001
 40
0.0
 40
0.0
 40
0.0
 40
0.0
 40
0.0714285714285714
 40
0.0714285714285714
 40
0.0714285714285714
 40
0.0714285714285714
 40
0.1428571428571428
 40
0.1428571428571428
 40
0.1428571428571428
 40
0.1428571428571428
 40
0.2142857142857143
 40
0.2142857142857143
 40
0.2142857142857143
 40
0.2142857142857143
 40
0.2857142857142857
 40
0.2857142857142857
 40
0.2857142857142857
 40
0.2857142857142857
 40
0.3571428571428572
 40
0.3571428571428572
 40
0.3571428571428572
 40
0.3571428571428572
 40
0.4285714285714285
 40
0.4285714285714285
 40
0.4285714285714285
 40
0.4285714285714285
 40
0.5
 40
0.5
 40
0.5
 40
0.5
 40
0.5714285714285714
 40
0.5714285714285714
 40
0.5714285714285714
 40
0.5714285714285714
 40
0.6428571428571429
 40
0.6428571428571429
 40
0.6428571428571429
 40
0.6428571428571429
 40
0.7142857142857143
 40
0.7142857142857143
 40
0.7142857142857143
 40
0.7142857142857143
 40
0.7857142857142857
 40
0.7857142857142857
 40
0.7857142857142857
 40
0.7857142857142857
 40
0.8571428571428571
 40
0.8571428571428571
 40
0.8571428571428571
 40
0.8571428571428571
 40
1.0
 40
1.0
 40
1.0
 40
1.0
 10
-39.0063
 20
7.8475
 30
0.0
 10
-39.0056
 20
7.9277
 30
0.0
 10
-38.9817
 20
7.9969
 30
0.0
 10
-38.9332
 20
8.055
 30
0.0
 10
-38.9332
 20
8.055
 30
0.0
 10
-38.8847
 20
8.1132
 30
0.0
 10
-38.8155
 20
8.1608
 30
0.0
 10
-38.7249
 20
8.198
 30
0.0
 10
-38.7249
 20
8.198
 30
0.0
 10
-38.635
 20
8.2353
 30
0.0
 10
-38.5264
 20
8.2632
 30
0.0
 10
-38.4009
 20
8.2812
 30
0.0
 10
-38.4009
 20
8.2812
 30
0.0
 10
-38.2748
 20
8.2992
 30
0.0
 10
-38.1338
 20
8.3079
 30
0.0
 10
-37.9779
 20
8.3079
 30
0.0
 10
-37.9779
 20
8.3079
 30
0.0
 10
-37.7619
 20
8.3079
 30
0.0
 10
-37.5757
 20
8.2911
 30
0.0
 10
-37.4191
 20
8.2573
 30
0.0
 10
-37.4191
 20
8.2573
 30
0.0
 10
-37.262
 20
8.2242
 30
0.0
 10
-37.141
 20
8.173
 30
0.0
 10
-37.0556
 20
8.105
 30
0.0
 10
-37.0556
 20
8.105
 30
0.0
 10
-36.9703
 20
8.037
 30
0.0
 10
-36.9276
 20
7.9509
 30
0.0
 10
-36.9263
 20
7.8475
 30
0.0
 10
-36.9263
 20
7.8475
 30
0.0
 10
-36.9269
 20
7.7539
 30
0.0
 10
-36.9671
 20
7.6731
 30
0.0
 10
-37.0472
 20
7.6038
 30
0.0
 10
-37.0472
 20
7.6038
 30
0.0
 10
-37.1274
 20
7.5353
 30
0.0
 10
-37.2439
 20
7.4823
 30
0.0
 10
-37.3965
 20
7.4446
 30
0.0
 10
-37.3965
 20
7.4446
 30
0.0
 10
-37.5498
 20
7.4068
 30
0.0
 10
-37.7354
 20
7.3876
 30
0.0
 10
-37.9547
 20
7.387
 30
0.0
 10
-37.9547
 20
7.387
 30
0.0
 10
-38.1842
 20
7.3876
 30
0.0
 10
-38.3763
 20
7.4079
 30
0.0
 10
-38.5328
 20
7.4475
 30
0.0
 10
-38.5328
 20
7.4475
 30
0.0
 10
-38.6887
 20
7.487
 30
0.0
 10
-38.8064
 20
7.5411
 30
0.0
 10
-38.8866
 20
7.6102
 30
0.0
 10
-38.8866
 20
7.6102
 30
0.0
 10
-38.9662
 20
7.6794
 30
0.0
 10
-39.0063
 20
7.7585
 30
0.0
 10
-39.0063
 20
7.8475
 30
0.0
  0
SPLINE
  5
A6
330
1F
100
AcDbEntity
  8
Ilustrace
 62
   250
100
AcDbSpline
210
0.0
220
0.0
230
1.0
 70
    11
 71
     3
 72
   196
 73
   192
 74
     0
 42
0.0000000001
 43
0.0000000001
 40
0.0
 40
0.0
 40
0.0
 40
0.0
 40
0.0204081632653061
 40
0.0204081632653061
 40
0.0204081632653061
 40
0.0204081632653061
 40
0.0408163265306122
 40
0.0408163265306122
 40
0.0408163265306122
 40
0.0408163265306122
 40
0.0612244897959184
 40
0.0612244897959184
 40
0.0612244897959184
 40
0.0612244897959184
 40
0.0816326530612245
 40
0.0816326530612245
 40
0.0816326530612245
 40
0.0816326530612245
 40
0.1020408163265306
 40
0.1020408163265306
 40
0.1020408163265306
 40
0.1020408163265306
 40
0.1224489795918367
 40
0.1224489795918367
 40
0.1224489795918367
 40
0.1224489795918367
 40
0.1428571428571428
 40
0.1428571428571428
 40
0.1428571428571428
 40
0.1428571428571428
 40
0.163265306122449
 40
0.163265306122449
 40
0.163265306122449
 40
0.163265306122449
 40
0.1836734693877551
 40
0.1836734693877551
 40
0.1836734693877551
 40
0.1836734693877551
 40
0.2040816326530612
 40
0.2040816326530612
 40
0.2040816326530612
 40
0.2040816326530612
 40
0.2244897959183673
 40
0.2244897959183673
 40
0.2244897959183673
 40
0.2244897959183673
 40
0.2448979591836735
 40
0.2448979591836735
 40
0.2448979591836735
 40
0.2448979591836735
 40
0.2653061224489796
 40
0.2653061224489796
 40
0.2653061224489796
 40
0.2653061224489796
 40
0.2857142857142857
 40
0.2857142857142857
 40
0.2857142857142857
 40
0.2857142857142857
 40
0.3061224489795918
 40
0.3061224489795918
 40
0.3061224489795918
 40
0.3061224489795918
 40
0.3265306122448979
 40
0.3265306122448979
 40
0.3265306122448979
 40
0.3265306122448979
 40
0.3469387755102041
 40
0.3469387755102041
 40
0.3469387755102041
 40
0.3469387755102041
 40
0.3673469387755102
 40
0.3673469387755102
 40
0.3673469387755102
 40
0.3673469387755102
 40
0.3877551020408163
 40
0.3877551020408163
 40
0.3877551020408163
 40
0.3877551020408163
 40
0.4081632653061225
 40
0.4081632653061225
 40
0.4081632653061225
 40
0.4081632653061225
 40
0.4285714285714285
 40
0.4285714285714285
 40
0.4285714285714285
 40
0.4285714285714285
 40
0.4489795918367347
 40
0.4489795918367347
 40
0.4489795918367347
 40
0.4489795918367347
 40
0.4693877551020408
 40
0.4693877551020408
 40
0.4693877551020408
 40
0.4693877551020408
 40
0.4897959183673469
 40
0.4897959183673469
 40
0.4897959183673469
 40
0.4897959183673469
 40
0.5102040816326531
 40
0.5102040816326531
 40
0.5102040816326531
 40
0.5102040816326531
 40
0.5306122448979592
 40
0.5306122448979592
 40
0.5306122448979592
 40
0.5306122448979592
 40
0.5510204081632653
 40
0.5510204081632653
 40
0.5510204081632653
 40
0.5510204081632653
 40
0.5714285714285714
 40
0.5714285714285714
 40
0.5714285714285714
 40
0.5714285714285714
 40
0.5918367346938775
 40
0.5918367346938775
 40
0.5918367346938775
 40
0.5918367346938775
 40
0.6122448979591837
 40
0.6122448979591837
 40
0.6122448979591837
 40
0.6122448979591837
 40
0.6326530612244898
 40
0.6326530612244898
 40
0.6326530612244898
 40
0.6326530612244898
 40
0.6530612244897959
 40
0.6530612244897959
 40
0.6530612244897959
 40
0.6530612244897959
 40
0.673469387755102
 40
0.673469387755102
 40
0.673469387755102
 40
0.673469387755102
 40
0.6938775510204082
 40
0.6938775510204082
 40
0.6938775510204082
 40
0.6938775510204082
 40
0.7142857142857143
 40
0.7142857142857143
 40
0.7142857142857143
 40
0.7142857142857143
 40
0.7346938775510204
 40
0.7346938775510204
 40
0.7346938775510204
 40
0.7346938775510204
 40
0.7551020408163265
 40
0.7551020408163265
 40
0.7551020408163265
 40
0.7551020408163265
 40
0.7755102040816326
 40
0.7755102040816326
 40
0.7755102040816326
 40
0.7755102040816326
 40
0.7959183673469388
 40
0.7959183673469388
 40
0.7959183673469388
 40
0.7959183673469388
 40
0.8163265306122449
 40
0.8163265306122449
 40
0.8163265306122449
 40
0.8163265306122449
 40
0.8367346938775511
 40
0.8367346938775511
 40
0.8367346938775511
 40
0.8367346938775511
 40
0.8571428571428571
 40
0.8571428571428571
 40
0.8571428571428571
 40
0.8571428571428571
 40
0.8775510204081632
 40
0.8775510204081632
 40
0.8775510204081632
 40
0.8775510204081632
 40
0.8979591836734694
 40
0.8979591836734694
 40
0.8979591836734694
 40
0.8979591836734694
 40
0.9183673469387755
 40
0.9183673469387755
 40
0.9183673469387755
 40
0.9183673469387755
 40
0.9387755102040817
 40
0.9387755102040817
 40
0.9387755102040817
 40
0.9387755102040817
 40
0.9591836734693877
 40
0.9591836734693877
 40
0.9591836734693877
 40
0.9591836734693877
 40
1.0
 40
1.0
 40
1.0
 40
1.0
 10
-36.8332
 20
8.887
 30
0.0
 10
-36.8053
 20
8.9248
 30
0.0
 10
-36.7788
 20
8.9736
 30
0.0
 10
-36.753
 20
9.0329
 30
0.0
 10
-36.753
 20
9.0329
 30
0.0
 10
-36.7271
 20
9.0922
 30
0.0
 10
-36.7058
 20
9.1597
 30
0.0
 10
-36.6883
 20
9.2353
 30
0.0
 10
-36.6883
 20
9.2353
 30
0.0
 10
-36.6715
 20
9.3108
 30
0.0
 10
-36.6631
 20
9.3911
 30
0.0
 10
-36.6624
 20
9.4765
 30
0.0
 10
-36.6624
 20
9.4765
 30
0.0
 10
-36.6631
 20
9.612
 30
0.0
 10
-36.6838
 20
9.7312
 30
0.0
 10
-36.7239
 20
9.8341
 30
0.0
 10
-36.7239
 20
9.8341
 30
0.0
 10
-36.764
 20
9.937
 30
0.0
 10
-36.8196
 20
10.0231
 30
0.0
 10
-36.8894
 20
10.0928
 30
0.0
 10
-36.8894
 20
10.0928
 30
0.0
 10
-36.9593
 20
10.1626
 30
0.0
 10
-37.0401
 20
10.2149
 30
0.0
 10
-37.1307
 20
10.2504
 30
0.0
 10
-37.1307
 20
10.2504
 30
0.0
 10
-37.2212
 20
10.2853
 30
0.0
 10
-37.3176
 20
10.3033
 30
0.0
 10
-37.4191
 20
10.3033
 30
0.0
 10
-37.4191
 20
10.3033
 30
0.0
 10
-37.5077
 20
10.3021
 30
0.0
 10
-37.5879
 20
10.2882
 30
0.0
 10
-37.6604
 20
10.262
 30
0.0
 10
-37.6604
 20
10.262
 30
0.0
 10
-37.7335
 20
10.2358
 30
0.0
 10
-37.7968
 20
10.1998
 30
0.0
 10
-37.8518
 20
10.1539
 30
0.0
 10
-37.8518
 20
10.1539
 30
0.0
 10
-37.9068
 20
10.1079
 30
0.0
 10
-37.952
 20
10.0545
 30
0.0
 10
-37.9876
 20
9.994
 30
0.0
 10
-37.9876
 20
9.994
 30
0.0
 10
-38.0232
 20
9.9329
 30
0.0
 10
-38.0484
 20
9.8678
 30
0.0
 10
-38.0633
 20
9.7975
 30
0.0
 10
-38.0633
 20
9.7975
 30
0.0
 10
-38.0633
 20
9.7975
 30
0.0
 10
-38.0711
 20
9.7975
 30
0.0
 10
-38.0711
 20
9.7975
 30
0.0
 10
-38.0711
 20
9.7975
 30
0.0
 10
-38.1092
 20
9.8893
 30
0.0
 10
-38.1577
 20
9.9667
 30
0.0
 10
-38.2172
 20
10.0283
 30
0.0
 10
-38.2172
 20
10.0283
 30
0.0
 10
-38.2767
 20
10.0905
 30
0.0
 10
-38.3453
 20
10.1376
 30
0.0
 10
-38.4216
 20
10.169
 30
0.0
 10
-38.4216
 20
10.169
 30
0.0
 10
-38.4979
 20
10.2004
 30
0.0
 10
-38.5801
 20
10.2161
 30
0.0
 10
-38.6687
 20
10.2161
 30
0.0
 10
-38.6687
 20
10.2161
 30
0.0
 10
-38.7463
 20
10.2161
 30
0.0
 10
-38.8207
 20
10.2033
 30
0.0
 10
-38.8918
 20
10.1777
 30
0.0
 10
-38.8918
 20
10.1777
 30
0.0
 10
-38.9636
 20
10.1515
 30
0.0
 10
-39.0276
 20
10.112
 30
0.0
 10
-39.0845
 20
10.0591
 30
0.0
 10
-39.0845
 20
10.0591
 30
0.0
 10
-39.1414
 20
10.0062
 30
0.0
 10
-39.1861
 20
9.9388
 30
0.0
 10
-39.2191
 20
9.8568
 30
0.0
 10
-39.2191
 20
9.8568
 30
0.0
 10
-39.2527
 20
9.7754
 30
0.0
 10
-39.2695
 20
9.6789
 30
0.0
 10
-39.2702
 20
9.5672
 30
0.0
 10
-39.2702
 20
9.5672
 30
0.0
 10
-39.2695
 20
9.4853
 30
0.0
 10
-39.2598
 20
9.4068
 30
0.0
 10
-39.2417
 20
9.3312
 30
0.0
 10
-39.2417
 20
9.3312
 30
0.0
 10
-39.2229
 20
9.2556
 30
0.0
 10
-39.199
 20
9.187
 30
0.0
 10
-39.1699
 20
9.1254
 30
0.0
 10
-39.1699
 20
9.1254
 30
0.0
 10
-39.1401
 20
9.0638
 30
0.0
 10
-39.1091
 20
9.012
 30
0.0
 10
-39.0761
 20
8.9707
 30
0.0
 10
-39.0761
 20
8.9707
 30
0.0
 10
-39.0761
 20
8.9707
 30
0.0
 10
-38.8278
 20
9.0545
 30
0.0
 10
-38.8278
 20
9.0545
 30
0.0
 10
-38.8278
 20
9.0545
 30
0.0
 10
-38.8543
 20
9.0876
 30
0.0
 10
-38.8801
 20
9.1277
 30
0.0
 10
-38.9054
 20
9.1754
 30
0.0
 10
-38.9054
 20
9.1754
 30
0.0
 10
-38.9312
 20
9.2225
 30
0.0
 10
-38.9519
 20
9.2748
 30
0.0
 10
-38.9688
 20
9.3318
 30
0.0
 10
-38.9688
 20
9.3318
 30
0.0
 10
-38.9856
 20
9.3882
 30
0.0
 10
-38.994
 20
9.4469
 30
0.0
 10
-38.9946
 20
9.5079
 30
0.0
 10
-38.9946
 20
9.5079
 30
0.0
 10
-38.994
 20
9.6021
 30
0.0
 10
-38.9759
 20
9.6783
 30
0.0
 10
-38.9409
 20
9.7364
 30
0.0
 10
-38.9409
 20
9.7364
 30
0.0
 10
-38.906
 20
9.7951
 30
0.0
 10
-38.8601
 20
9.8382
 30
0.0
 10
-38.8025
 20
9.8655
 30
0.0
 10
-38.8025
 20
9.8655
 30
0.0
 10
-38.7456
 20
9.8928
 30
0.0
 10
-38.6829
 20
9.9062
 30
0.0
 10
-38.6143
 20
9.9056
 30
0.0
 10
-38.6143
 20
9.9056
 30
0.0
 10
-38.54
 20
9.905
 30
0.0
 10
-38.4753
 20
9.8887
 30
0.0
 10
-38.4216
 20
9.858
 30
0.0
 10
-38.4216
 20
9.858
 30
0.0
 10
-38.3679
 20
9.8271
 30
0.0
 10
-38.3233
 20
9.7864
 30
0.0
 10
-38.289
 20
9.7364
 30
0.0
 10
-38.289
 20
9.7364
 30
0.0
 10
-38.2541
 20
9.6864
 30
0.0
 10
-38.2289
 20
9.6318
 30
0.0
 10
-38.2121
 20
9.5731
 30
0.0
 10
-38.2121
 20
9.5731
 30
0.0
 10
-38.1959
 20
9.5143
 30
0.0
 10
-38.1875
 20
9.4568
 30
0.0
 10
-38.1875
 20
9.3998
 30
0.0
 10
-38.1875
 20
9.3998
 30
0.0
 10
-38.1875
 20
9.3998
 30
0.0
 10
-38.1875
 20
9.2289
 30
0.0
 10
-38.1875
 20
9.2289
 30
0.0
 10
-38.1875
 20
9.2289
 30
0.0
 10
-38.1875
 20
9.2289
 30
0.0
 10
-37.9314
 20
9.2289
 30
0.0
 10
-37.9314
 20
9.2289
 30
0.0
 10
-37.9314
 20
9.2289
 30
0.0
 10
-37.9314
 20
9.2289
 30
0.0
 10
-37.9314
 20
9.3998
 30
0.0
 10
-37.9314
 20
9.3998
 30
0.0
 10
-37.9314
 20
9.3998
 30
0.0
 10
-37.9314
 20
9.4748
 30
0.0
 10
-37.9216
 20
9.5469
 30
0.0
 10
-37.9023
 20
9.6161
 30
0.0
 10
-37.9023
 20
9.6161
 30
0.0
 10
-37.8829
 20
9.6853
 30
0.0
 10
-37.8525
 20
9.7475
 30
0.0
 10
-37.8117
 20
9.8027
 30
0.0
 10
-37.8117
 20
9.8027
 30
0.0
 10
-37.771
 20
9.858
 30
0.0
 10
-37.7186
 20
9.9021
 30
0.0
 10
-37.6545
 20
9.9347
 30
0.0
 10
-37.6545
 20
9.9347
 30
0.0
 10
-37.5912
 20
9.9673
 30
0.0
 10
-37.5149
 20
9.9841
 30
0.0
 10
-37.4269
 20
9.9859
 30
0.0
 10
-37.4269
 20
9.9859
 30
0.0
 10
-37.3726
 20
9.987
 30
0.0
 10
-37.3169
 20
9.9795
 30
0.0
 10
-37.2607
 20
9.962
 30
0.0
 10
-37.2607
 20
9.962
 30
0.0
 10
-37.2038
 20
9.9452
 30
0.0
 10
-37.1507
 20
9.9167
 30
0.0
 10
-37.1022
 20
9.8771
 30
0.0
 10
-37.1022
 20
9.8771
 30
0.0
 10
-37.0537
 20
9.8376
 30
0.0
 10
-37.0143
 20
9.7847
 30
0.0
 10
-36.9845
 20
9.7184
 30
0.0
 10
-36.9845
 20
9.7184
 30
0.0
 10
-36.9541
 20
9.6521
 30
0.0
 10
-36.9386
 20
9.5707
 30
0.0
 10
-36.9379
 20
9.4731
 30
0.0
 10
-36.9379
 20
9.4731
 30
0.0
 10
-36.9386
 20
9.4004
 30
0.0
 10
-36.9476
 20
9.3312
 30
0.0
 10
-36.9651
 20
9.2661
 30
0.0
 10
-36.9651
 20
9.2661
 30
0.0
 10
-36.9826
 20
9.201
 30
0.0
 10
-37.0033
 20
9.1428
 30
0.0
 10
-37.0272
 20
9.0917
 30
0.0
 10
-37.0272
 20
9.0917
 30
0.0
 10
-37.0511
 20
9.0405
 30
0.0
 10
-37.0731
 20
9.0004
 30
0.0
 10
-37.0932
 20
8.9707
 30
0.0
 10
-37.0932
 20
8.9707
 30
0.0
 10
-37.0932
 20
8.9707
 30
0.0
 10
-36.8332
 20
8.887
 30
0.0
 10
-36.8332
 20
8.887
 30
0.0
  0
SPLINE
  5
A7
330
1F
100
AcDbEntity
  8
Ilustrace
 62
   250
100
AcDbSpline
210
0.0
220
0.0
230
1.0
 70
    11
 71
     3
 72
   124
 73
   120
 74
     0
 42
0.0000000001
 43
0.0000000001
 40
0.0
 40
0.0
 40
0.0
 40
0.0
 40
0.032258064516129
 40
0.032258064516129
 40
0.032258064516129
 40
0.032258064516129
 40
0.0645161290322581
 40
0.0645161290322581
 40
0.0645161290322581
 40
0.0645161290322581
 40
0.0967741935483871
 40
0.0967741935483871
 40
0.0967741935483871
 40
0.0967741935483871
 40
0.1290322580645161
 40
0.1290322580645161
 40
0.1290322580645161
 40
0.1290322580645161
 40
0.1612903225806452
 40
0.1612903225806452
 40
0.1612903225806452
 40
0.1612903225806452
 40
0.1935483870967742
 40
0.1935483870967742
 40
0.1935483870967742
 40
0.1935483870967742
 40
0.2258064516129032
 40
0.2258064516129032
 40
0.2258064516129032
 40
0.2258064516129032
 40
0.2580645161290323
 40
0.2580645161290323
 40
0.2580645161290323
 40
0.2580645161290323
 40
0.2903225806451613
 40
0.2903225806451613
 40
0.2903225806451613
 40
0.2903225806451613
 40
0.3225806451612903
 40
0.3225806451612903
 40
0.3225806451612903
 40
0.3225806451612903
 40
0.3548387096774194
 40
0.3548387096774194
 40
0.3548387096774194
 40
0.3548387096774194
 40
0.3870967741935484
 40
0.3870967741935484
 40
0.3870967741935484
 40
0.3870967741935484
 40
0.4193548387096774
 40
0.4193548387096774
 40
0.4193548387096774
 40
0.4193548387096774
 40
0.4516129032258064
 40
0.4516129032258064
 40
0.4516129032258064
 40
0.4516129032258064
 40
0.4838709677419355
 40
0.4838709677419355
 40
0.4838709677419355
 40
0.4838709677419355
 40
0.5161290322580645
 40
0.5161290322580645
 40
0.5161290322580645
 40
0.5161290322580645
 40
0.5483870967741935
 40
0.5483870967741935
 40
0.5483870967741935
 40
0.5483870967741935
 40
0.5806451612903226
 40
0.5806451612903226
 40
0.5806451612903226
 40
0.5806451612903226
 40
0.6129032258064516
 40
0.6129032258064516
 40
0.6129032258064516
 40
0.6129032258064516
 40
0.6451612903225806
 40
0.6451612903225806
 40
0.6451612903225806
 40
0.6451612903225806
 40
0.6774193548387096
 40
0.6774193548387096
 40
0.6774193548387096
 40
0.6774193548387096
 40
0.7096774193548387
 40
0.7096774193548387
 40
0.7096774193548387
 40
0.7096774193548387
 40
0.7419354838709677
 40
0.7419354838709677
 40
0.7419354838709677
 40
0.7419354838709677
 40
0.7741935483870968
 40
0.7741935483870968
 40
0.7741935483870968
 40
0.7741935483870968
 40
0.8064516129032258
 40
0.8064516129032258
 40
0.8064516129032258
 40
0.8064516129032258
 40
0.8387096774193549
 40
0.8387096774193549
 40
0.8387096774193549
 40
0.8387096774193549
 40
0.8709677419354839
 40
0.8709677419354839
 40
0.8709677419354839
 40
0.8709677419354839
 40
0.9032258064516129
 40
0.9032258064516129
 40
0.9032258064516129
 40
0.9032258064516129
 40
0.9354838709677419
 40
0.9354838709677419
 40
0.9354838709677419
 40
0.9354838709677419
 40
1.0
 40
1.0
 40
1.0
 40
1.0
 10
1.8909
 20
25.0083
 30
0.0
 10
1.8909
 20
25.0083
 30
0.0
 10
1.8909
 20
25.2916
 30
0.0
 10
1.8909
 20
25.2916
 30
0.0
 10
1.8909
 20
25.2916
 30
0.0
 10
1.8909
 20
25.2916
 30
0.0
 10
0.8758
 20
25.2916
 30
0.0
 10
0.8758
 20
25.2916
 30
0.0
 10
0.8758
 20
25.2916
 30
0.0
 10
0.8758
 20
25.2916
 30
0.0
 10
0.8758
 20
25.2993
 30
0.0
 10
0.8758
 20
25.2993
 30
0.0
 10
0.8758
 20
25.2993
 30
0.0
 10
0.8758
 20
25.2993
 30
0.0
 10
1.0537
 20
25.4856
 30
0.0
 10
1.0537
 20
25.4856
 30
0.0
 10
1.0537
 20
25.4856
 30
0.0
 10
1.1735
 20
25.613
 30
0.0
 10
1.2817
 20
25.734
 30
0.0
 10
1.3776
 20
25.8478
 30
0.0
 10
1.3776
 20
25.8478
 30
0.0
 10
1.4735
 20
25.9616
 30
0.0
 10
1.5555
 20
26.0729
 30
0.0
 10
1.6235
 20
26.1802
 30
0.0
 10
1.6235
 20
26.1802
 30
0.0
 10
1.6921
 20
26.2876
 30
0.0
 10
1.7439
 20
26.3956
 30
0.0
 10
1.7805
 20
26.5043
 30
0.0
 10
1.7805
 20
26.5043
 30
0.0
 10
1.8165
 20
26.6123
 30
0.0
 10
1.8346
 20
26.7242
 30
0.0
 10
1.8351
 20
26.8399
 30
0.0
 10
1.8351
 20
26.8399
 30
0.0
 10
1.8351
 20
26.9311
 30
0.0
 10
1.8223
 20
27.0204
 30
0.0
 10
1.7956
 20
27.107
 30
0.0
 10
1.7956
 20
27.107
 30
0.0
 10
1.7689
 20
27.1937
 30
0.0
 10
1.727
 20
27.272
 30
0.0
 10
1.6712
 20
27.3418
 30
0.0
 10
1.6712
 20
27.3418
 30
0.0
 10
1.6154
 20
27.4123
 30
0.0
 10
1.5433
 20
27.4679
 30
0.0
 10
1.4555
 20
27.5093
 30
0.0
 10
1.4555
 20
27.5093
 30
0.0
 10
1.3677
 20
27.5513
 30
0.0
 10
1.263
 20
27.5727
 30
0.0
 10
1.1409
 20
27.5734
 30
0.0
 10
1.1409
 20
27.5734
 30
0.0
 10
1.0549
 20
27.5727
 30
0.0
 10
0.9729
 20
27.5617
 30
0.0
 10
0.895
 20
27.5391
 30
0.0
 10
0.895
 20
27.5391
 30
0.0
 10
0.8171
 20
27.5164
 30
0.0
 10
0.745
 20
27.486
 30
0.0
 10
0.6787
 20
27.4472
 30
0.0
 10
0.6787
 20
27.4472
 30
0.0
 10
0.613
 20
27.4091
 30
0.0
 10
0.5543
 20
27.3657
 30
0.0
 10
0.5026
 20
27.3172
 30
0.0
 10
0.5026
 20
27.3172
 30
0.0
 10
0.5026
 20
27.3172
 30
0.0
 10
0.6003
 20
27.0766
 30
0.0
 10
0.6003
 20
27.0766
 30
0.0
 10
0.6003
 20
27.0766
 30
0.0
 10
0.6351
 20
27.1096
 30
0.0
 10
0.677
 20
27.1426
 30
0.0
 10
0.7258
 20
27.175
 30
0.0
 10
0.7258
 20
27.175
 30
0.0
 10
0.7747
 20
27.2079
 30
0.0
 10
0.8287
 20
27.2344
 30
0.0
 10
0.8886
 20
27.2564
 30
0.0
 10
0.8886
 20
27.2564
 30
0.0
 10
0.9485
 20
27.2778
 30
0.0
 10
1.013
 20
27.2894
 30
0.0
 10
1.0816
 20
27.2901
 30
0.0
 10
1.0816
 20
27.2901
 30
0.0
 10
1.166
 20
27.2894
 30
0.0
 10
1.2369
 20
27.2758
 30
0.0
 10
1.2944
 20
27.2493
 30
0.0
 10
1.2944
 20
27.2493
 30
0.0
 10
1.3514
 20
27.2222
 30
0.0
 10
1.3974
 20
27.1859
 30
0.0
 10
1.4316
 20
27.14
 30
0.0
 10
1.4316
 20
27.14
 30
0.0
 10
1.4659
 20
27.0935
 30
0.0
 10
1.491
 20
27.0411
 30
0.0
 10
1.5061
 20
26.9822
 30
0.0
 10
1.5061
 20
26.9822
 30
0.0
 10
1.5212
 20
26.9234
 30
0.0
 10
1.5287
 20
26.8619
 30
0.0
 10
1.5282
 20
26.7972
 30
0.0
 10
1.5282
 20
26.7972
 30
0.0
 10
1.5282
 20
26.7028
 30
0.0
 10
1.5113
 20
26.6097
 30
0.0
 10
1.4776
 20
26.5172
 30
0.0
 10
1.4776
 20
26.5172
 30
0.0
 10
1.4438
 20
26.4241
 30
0.0
 10
1.3927
 20
26.327
 30
0.0
 10
1.3235
 20
26.2248
 30
0.0
 10
1.3235
 20
26.2248
 30
0.0
 10
1.2543
 20
26.1227
 30
0.0
 10
1.1665
 20
26.0108
 30
0.0
 10
1.0601
 20
25.8892
 30
0.0
 10
1.0601
 20
25.8892
 30
0.0
 10
0.9543
 20
25.7676
 30
0.0
 10
0.8287
 20
25.6305
 30
0.0
 10
0.684
 20
25.4778
 30
0.0
 10
0.684
 20
25.4778
 30
0.0
 10
0.684
 20
25.4778
 30
0.0
 10
0.4433
 20
25.2179
 30
0.0
 10
0.4433
 20
25.2179
 30
0.0
 10
0.4433
 20
25.2179
 30
0.0
 10
0.4433
 20
25.2179
 30
0.0
 10
0.4433
 20
25.0083
 30
0.0
 10
0.4433
 20
25.0083
 30
0.0
 10
0.4433
 20
25.0083
 30
0.0
 10
0.4433
 20
25.0083
 30
0.0
 10
1.8909
 20
25.0083
 30
0.0
 10
1.8909
 20
25.0083
 30
0.0
  0
SPLINE
  5
A8
330
1F
100
AcDbEntity
  8
Ilustrace
 62
   250
100
AcDbSpline
210
0.0
220
0.0
230
1.0
 70
    11
 71
     3
 72
    48
 73
    44
 74
     0
 42
0.0000000001
 43
0.0000000001
 40
0.0
 40
0.0
 40
0.0
 40
0.0
 40
0.0833333333333333
 40
0.0833333333333333
 40
0.0833333333333333
 40
0.0833333333333333
 40
0.1666666666666667
 40
0.1666666666666667
 40
0.1666666666666667
 40
0.1666666666666667
 40
0.25
 40
0.25
 40
0.25
 40
0.25
 40
0.3333333333333333
 40
0.3333333333333333
 40
0.3333333333333333
 40
0.3333333333333333
 40
0.4166666666666667
 40
0.4166666666666667
 40
0.4166666666666667
 40
0.4166666666666667
 40
0.5
 40
0.5
 40
0.5
 40
0.5
 40
0.5833333333333334
 40
0.5833333333333334
 40
0.5833333333333334
 40
0.5833333333333334
 40
0.6666666666666666
 40
0.6666666666666666
 40
0.6666666666666666
 40
0.6666666666666666
 40
0.75
 40
0.75
 40
0.75
 40
0.75
 40
0.8333333333333334
 40
0.8333333333333334
 40
0.8333333333333334
 40
0.8333333333333334
 40
1.0
 40
1.0
 40
1.0
 40
1.0
 10
3.4712
 20
25.0083
 30
0.0
 10
3.4712
 20
25.0083
 30
0.0
 10
3.4712
 20
25.699
 30
0.0
 10
3.4712
 20
25.699
 30
0.0
 10
3.4712
 20
25.699
 30
0.0
 10
3.4712
 20
25.699
 30
0.0
 10
3.7886
 20
25.699
 30
0.0
 10
3.7886
 20
25.699
 30
0.0
 10
3.7886
 20
25.699
 30
0.0
 10
3.7886
 20
25.699
 30
0.0
 10
3.7886
 20
25.9629
 30
0.0
 10
3.7886
 20
25.9629
 30
0.0
 10
3.7886
 20
25.9629
 30
0.0
 10
3.7886
 20
25.9629
 30
0.0
 10
3.4712
 20
25.9629
 30
0.0
 10
3.4712
 20
25.9629
 30
0.0
 10
3.4712
 20
25.9629
 30
0.0
 10
3.4712
 20
25.9629
 30
0.0
 10
3.4712
 20
27.5306
 30
0.0
 10
3.4712
 20
27.5306
 30
0.0
 10
3.4712
 20
27.5306
 30
0.0
 10
3.4712
 20
27.5306
 30
0.0
 10
3.1398
 20
27.5306
 30
0.0
 10
3.1398
 20
27.5306
 30
0.0
 10
3.1398
 20
27.5306
 30
0.0
 10
3.1398
 20
27.5306
 30
0.0
 10
2.1282
 20
25.9202
 30
0.0
 10
2.1282
 20
25.9202
 30
0.0
 10
2.1282
 20
25.9202
 30
0.0
 10
2.1282
 20
25.9202
 30
0.0
 10
2.1282
 20
25.699
 30
0.0
 10
2.1282
 20
25.699
 30
0.0
 10
2.1282
 20
25.699
 30
0.0
 10
2.1282
 20
25.699
 30
0.0
 10
3.1817
 20
25.699
 30
0.0
 10
3.1817
 20
25.699
 30
0.0
 10
3.1817
 20
25.699
 30
0.0
 10
3.1817
 20
25.699
 30
0.0
 10
3.1817
 20
25.0083
 30
0.0
 10
3.1817
 20
25.0083
 30
0.0
 10
3.1817
 20
25.0083
 30
0.0
 10
3.1817
 20
25.0083
 30
0.0
 10
3.4712
 20
25.0083
 30
0.0
 10
3.4712
 20
25.0083
 30
0.0
  0
SPLINE
  5
A9
330
1F
100
AcDbEntity
  8
Ilustrace
 62
   250
100
AcDbSpline
210
0.0
220
0.0
230
1.0
 70
    11
 71
     3
 72
    36
 73
    32
 74
     0
 42
0.0000000001
 43
0.0000000001
 40
0.0
 40
0.0
 40
0.0
 40
0.0
 40
0.1111111111111111
 40
0.1111111111111111
 40
0.1111111111111111
 40
0.1111111111111111
 40
0.2222222222222222
 40
0.2222222222222222
 40
0.2222222222222222
 40
0.2222222222222222
 40
0.3333333333333333
 40
0.3333333333333333
 40
0.3333333333333333
 40
0.3333333333333333
 40
0.4444444444444444
 40
0.4444444444444444
 40
0.4444444444444444
 40
0.4444444444444444
 40
0.5555555555555556
 40
0.5555555555555556
 40
0.5555555555555556
 40
0.5555555555555556
 40
0.6666666666666666
 40
0.6666666666666666
 40
0.6666666666666666
 40
0.6666666666666666
 40
0.7777777777777778
 40
0.7777777777777778
 40
0.7777777777777778
 40
0.7777777777777778
 40
1.0
 40
1.0
 40
1.0
 40
1.0
 10
2.4386
 20
25.9629
 30
0.0
 10
2.4386
 20
25.9629
 30
0.0
 10
2.4386
 20
25.9707
 30
0.0
 10
2.4386
 20
25.9707
 30
0.0
 10
2.4386
 20
25.9707
 30
0.0
 10
2.4386
 20
25.9707
 30
0.0
 10
2.9933
 20
26.8283
 30
0.0
 10
2.9933
 20
26.8283
 30
0.0
 10
2.9933
 20
26.8283
 30
0.0
 10
3.0241
 20
26.8858
 30
0.0
 10
3.0549
 20
26.9441
 30
0.0
 10
3.0851
 20
27.0029
 30
0.0
 10
3.0851
 20
27.0029
 30
0.0
 10
3.1148
 20
27.0624
 30
0.0
 10
3.1474
 20
27.1284
 30
0.0
 10
3.1817
 20
27.2008
 30
0.0
 10
3.1817
 20
27.2008
 30
0.0
 10
3.1817
 20
27.2008
 30
0.0
 10
3.1921
 20
27.2008
 30
0.0
 10
3.1921
 20
27.2008
 30
0.0
 10
3.1921
 20
27.2008
 30
0.0
 10
3.1851
 20
27.0689
 30
0.0
 10
3.1817
 20
26.9369
 30
0.0
 10
3.1817
 20
26.805
 30
0.0
 10
3.1817
 20
26.805
 30
0.0
 10
3.1817
 20
26.805
 30
0.0
 10
3.1817
 20
25.9629
 30
0.0
 10
3.1817
 20
25.9629
 30
0.0
 10
3.1817
 20
25.9629
 30
0.0
 10
3.1817
 20
25.9629
 30
0.0
 10
2.4386
 20
25.9629
 30
0.0
 10
2.4386
 20
25.9629
 30
0.0
  0
SPLINE
  5
AA
330
1F
100
AcDbEntity
  8
Ilustrace
 62
   250
100
AcDbSpline
210
0.0
220
0.0
230
1.0
 70
    11
 71
     3
 72
   124
 73
   120
 74
     0
 42
0.0000000001
 43
0.0000000001
 40
0.0
 40
0.0
 40
0.0
 40
0.0
 40
0.032258064516129
 40
0.032258064516129
 40
0.032258064516129
 40
0.032258064516129
 40
0.0645161290322581
 40
0.0645161290322581
 40
0.0645161290322581
 40
0.0645161290322581
 40
0.0967741935483871
 40
0.0967741935483871
 40
0.0967741935483871
 40
0.0967741935483871
 40
0.1290322580645161
 40
0.1290322580645161
 40
0.1290322580645161
 40
0.1290322580645161
 40
0.1612903225806452
 40
0.1612903225806452
 40
0.1612903225806452
 40
0.1612903225806452
 40
0.1935483870967742
 40
0.1935483870967742
 40
0.1935483870967742
 40
0.1935483870967742
 40
0.2258064516129032
 40
0.2258064516129032
 40
0.2258064516129032
 40
0.2258064516129032
 40
0.2580645161290323
 40
0.2580645161290323
 40
0.2580645161290323
 40
0.2580645161290323
 40
0.2903225806451613
 40
0.2903225806451613
 40
0.2903225806451613
 40
0.2903225806451613
 40
0.3225806451612903
 40
0.3225806451612903
 40
0.3225806451612903
 40
0.3225806451612903
 40
0.3548387096774194
 40
0.3548387096774194
 40
0.3548387096774194
 40
0.3548387096774194
 40
0.3870967741935484
 40
0.3870967741935484
 40
0.3870967741935484
 40
0.3870967741935484
 40
0.4193548387096774
 40
0.4193548387096774
 40
0.4193548387096774
 40
0.4193548387096774
 40
0.4516129032258064
 40
0.4516129032258064
 40
0.4516129032258064
 40
0.4516129032258064
 40
0.4838709677419355
 40
0.4838709677419355
 40
0.4838709677419355
 40
0.4838709677419355
 40
0.5161290322580645
 40
0.5161290322580645
 40
0.5161290322580645
 40
0.5161290322580645
 40
0.5483870967741935
 40
0.5483870967741935
 40
0.5483870967741935
 40
0.5483870967741935
 40
0.5806451612903226
 40
0.5806451612903226
 40
0.5806451612903226
 40
0.5806451612903226
 40
0.6129032258064516
 40
0.6129032258064516
 40
0.6129032258064516
 40
0.6129032258064516
 40
0.6451612903225806
 40
0.6451612903225806
 40
0.6451612903225806
 40
0.6451612903225806
 40
0.6774193548387096
 40
0.6774193548387096
 40
0.6774193548387096
 40
0.6774193548387096
 40
0.7096774193548387
 40
0.7096774193548387
 40
0.7096774193548387
 40
0.7096774193548387
 40
0.7419354838709677
 40
0.7419354838709677
 40
0.7419354838709677
 40
0.7419354838709677
 40
0.7741935483870968
 40
0.7741935483870968
 40
0.7741935483870968
 40
0.7741935483870968
 40
0.8064516129032258
 40
0.8064516129032258
 40
0.8064516129032258
 40
0.8064516129032258
 40
0.8387096774193549
 40
0.8387096774193549
 40
0.8387096774193549
 40
0.8387096774193549
 40
0.8709677419354839
 40
0.8709677419354839
 40
0.8709677419354839
 40
0.8709677419354839
 40
0.9032258064516129
 40
0.9032258064516129
 40
0.9032258064516129
 40
0.9032258064516129
 40
0.9354838709677419
 40
0.9354838709677419
 40
0.9354838709677419
 40
0.9354838709677419
 40
1.0
 40
1.0
 40
1.0
 40
1.0
 10
4.2003
 20
24.9695
 30
0.0
 10
4.2369
 20
24.9676
 30
0.0
 10
4.2794
 20
24.9676
 30
0.0
 10
4.327
 20
24.9708
 30
0.0
 10
4.327
 20
24.9708
 30
0.0
 10
4.3747
 20
24.9734
 30
0.0
 10
4.427
 20
24.9792
 30
0.0
 10
4.4828
 20
24.9889
 30
0.0
 10
4.4828
 20
24.9889
 30
0.0
 10
4.5648
 20
24.9993
 30
0.0
 10
4.6451
 20
25.0193
 30
0.0
 10
4.7235
 20
25.0478
 30
0.0
 10
4.7235
 20
25.0478
 30
0.0
 10
4.802
 20
25.0769
 30
0.0
 10
4.877
 20
25.115
 30
0.0
 10
4.948
 20
25.1616
 30
0.0
 10
4.948
 20
25.1616
 30
0.0
 10
5.0189
 20
25.2082
 30
0.0
 10
5.0834
 20
25.2631
 30
0.0
 10
5.1421
 20
25.3265
 30
0.0
 10
5.1421
 20
25.3265
 30
0.0
 10
5.2172
 20
25.4067
 30
0.0
 10
5.284
 20
25.5031
 30
0.0
 10
5.3427
 20
25.6169
 30
0.0
 10
5.3427
 20
25.6169
 30
0.0
 10
5.4014
 20
25.7301
 30
0.0
 10
5.4474
 20
25.8607
 30
0.0
 10
5.4811
 20
26.0088
 30
0.0
 10
5.4811
 20
26.0088
 30
0.0
 10
5.5148
 20
26.1569
 30
0.0
 10
5.5323
 20
26.3225
 30
0.0
 10
5.5328
 20
26.5062
 30
0.0
 10
5.5328
 20
26.5062
 30
0.0
 10
5.5328
 20
26.6698
 30
0.0
 10
5.5154
 20
26.8166
 30
0.0
 10
5.4811
 20
26.9479
 30
0.0
 10
5.4811
 20
26.9479
 30
0.0
 10
5.4468
 20
27.0792
 30
0.0
 10
5.3968
 20
27.1911
 30
0.0
 10
5.3317
 20
27.2842
 30
0.0
 10
5.3317
 20
27.2842
 30
0.0
 10
5.2666
 20
27.3774
 30
0.0
 10
5.1881
 20
27.4485
 30
0.0
 10
5.0956
 20
27.4983
 30
0.0
 10
5.0956
 20
27.4983
 30
0.0
 10
5.0032
 20
27.5481
 30
0.0
 10
4.8991
 20
27.5727
 30
0.0
 10
4.7828
 20
27.5734
 30
0.0
 10
4.7828
 20
27.5734
 30
0.0
 10
4.6666
 20
27.5727
 30
0.0
 10
4.5607
 20
27.5481
 30
0.0
 10
4.466
 20
27.5003
 30
0.0
 10
4.466
 20
27.5003
 30
0.0
 10
4.3712
 20
27.453
 30
0.0
 10
4.2898
 20
27.3871
 30
0.0
 10
4.2218
 20
27.3043
 30
0.0
 10
4.2218
 20
27.3043
 30
0.0
 10
4.1532
 20
27.2209
 30
0.0
 10
4.1009
 20
27.1258
 30
0.0
 10
4.0642
 20
27.0184
 30
0.0
 10
4.0642
 20
27.0184
 30
0.0
 10
4.0276
 20
26.9111
 30
0.0
 10
4.009
 20
26.7972
 30
0.0
 10
4.0084
 20
26.6769
 30
0.0
 10
4.0084
 20
26.6769
 30
0.0
 10
4.009
 20
26.5689
 30
0.0
 10
4.0247
 20
26.4681
 30
0.0
 10
4.0555
 20
26.3749
 30
0.0
 10
4.0555
 20
26.3749
 30
0.0
 10
4.0869
 20
26.2811
 30
0.0
 10
4.1317
 20
26.1996
 30
0.0
 10
4.1898
 20
26.1291
 30
0.0
 10
4.1898
 20
26.1291
 30
0.0
 10
4.2479
 20
26.0593
 30
0.0
 10
4.3183
 20
26.0043
 30
0.0
 10
4.3997
 20
25.9649
 30
0.0
 10
4.3997
 20
25.9649
 30
0.0
 10
4.4817
 20
25.9254
 30
0.0
 10
4.5729
 20
25.9054
 30
0.0
 10
4.6747
 20
25.9047
 30
0.0
 10
4.6747
 20
25.9047
 30
0.0
 10
4.7898
 20
25.9054
 30
0.0
 10
4.8927
 20
25.9286
 30
0.0
 10
4.9828
 20
25.9746
 30
0.0
 10
4.9828
 20
25.9746
 30
0.0
 10
5.0724
 20
26.0205
 30
0.0
 10
5.1491
 20
26.0864
 30
0.0
 10
5.2119
 20
26.1725
 30
0.0
 10
5.2119
 20
26.1725
 30
0.0
 10
5.2119
 20
26.1725
 30
0.0
 10
5.2224
 20
26.1725
 30
0.0
 10
5.2224
 20
26.1725
 30
0.0
 10
5.2224
 20
26.1725
 30
0.0
 10
5.2009
 20
26.025
 30
0.0
 10
5.1642
 20
25.8957
 30
0.0
 10
5.1131
 20
25.7851
 30
0.0
 10
5.1131
 20
25.7851
 30
0.0
 10
5.0613
 20
25.6738
 30
0.0
 10
4.998
 20
25.5807
 30
0.0
 10
4.9224
 20
25.505
 30
0.0
 10
4.9224
 20
25.505
 30
0.0
 10
4.8573
 20
25.4352
 30
0.0
 10
4.7846
 20
25.3808
 30
0.0
 10
4.7038
 20
25.3407
 30
0.0
 10
4.7038
 20
25.3407
 30
0.0
 10
4.623
 20
25.3007
 30
0.0
 10
4.5375
 20
25.2741
 30
0.0
 10
4.4479
 20
25.2605
 30
0.0
 10
4.4479
 20
25.2605
 30
0.0
 10
4.3962
 20
25.2547
 30
0.0
 10
4.3497
 20
25.2502
 30
0.0
 10
4.3096
 20
25.2476
 30
0.0
 10
4.3096
 20
25.2476
 30
0.0
 10
4.2695
 20
25.245
 30
0.0
 10
4.2328
 20
25.245
 30
0.0
 10
4.2003
 20
25.2489
 30
0.0
 10
4.2003
 20
25.2489
 30
0.0
 10
4.2003
 20
25.2489
 30
0.0
 10
4.2003
 20
24.9695
 30
0.0
 10
4.2003
 20
24.9695
 30
0.0
  0
SPLINE
  5
AB
330
1F
100
AcDbEntity
  8
Ilustrace
 62
   250
100
AcDbSpline
210
0.0
220
0.0
230
1.0
 70
    11
 71
     3
 72
    64
 73
    60
 74
     0
 42
0.0000000001
 43
0.0000000001
 40
0.0
 40
0.0
 40
0.0
 40
0.0
 40
0.0625
 40
0.0625
 40
0.0625
 40
0.0625
 40
0.125
 40
0.125
 40
0.125
 40
0.125
 40
0.1875
 40
0.1875
 40
0.1875
 40
0.1875
 40
0.25
 40
0.25
 40
0.25
 40
0.25
 40
0.3125
 40
0.3125
 40
0.3125
 40
0.3125
 40
0.375
 40
0.375
 40
0.375
 40
0.375
 40
0.4375
 40
0.4375
 40
0.4375
 40
0.4375
 40
0.5
 40
0.5
 40
0.5
 40
0.5
 40
0.5625
 40
0.5625
 40
0.5625
 40
0.5625
 40
0.625
 40
0.625
 40
0.625
 40
0.625
 40
0.6875
 40
0.6875
 40
0.6875
 40
0.6875
 40
0.75
 40
0.75
 40
0.75
 40
0.75
 40
0.8125
 40
0.8125
 40
0.8125
 40
0.8125
 40
0.875
 40
0.875
 40
0.875
 40
0.875
 40
1.0
 40
1.0
 40
1.0
 40
1.0
 10
4.7549
 20
27.3134
 30
0.0
 10
4.8357
 20
27.3127
 30
0.0
 10
4.9061
 20
27.2933
 30
0.0
 10
4.9648
 20
27.2551
 30
0.0
 10
4.9648
 20
27.2551
 30
0.0
 10
5.0235
 20
27.217
 30
0.0
 10
5.0724
 20
27.1633
 30
0.0
 10
5.1102
 20
27.0947
 30
0.0
 10
5.1102
 20
27.0947
 30
0.0
 10
5.1485
 20
27.0262
 30
0.0
 10
5.1764
 20
26.9453
 30
0.0
 10
5.1951
 20
26.8535
 30
0.0
 10
5.1951
 20
26.8535
 30
0.0
 10
5.2137
 20
26.761
 30
0.0
 10
5.2224
 20
26.6608
 30
0.0
 10
5.2224
 20
26.5528
 30
0.0
 10
5.2224
 20
26.5528
 30
0.0
 10
5.2224
 20
26.5243
 30
0.0
 10
5.2201
 20
26.4997
 30
0.0
 10
5.2148
 20
26.4803
 30
0.0
 10
5.2148
 20
26.4803
 30
0.0
 10
5.2102
 20
26.4603
 30
0.0
 10
5.2032
 20
26.4415
 30
0.0
 10
5.1945
 20
26.4247
 30
0.0
 10
5.1945
 20
26.4247
 30
0.0
 10
5.1677
 20
26.3736
 30
0.0
 10
5.1322
 20
26.3283
 30
0.0
 10
5.0887
 20
26.2889
 30
0.0
 10
5.0887
 20
26.2889
 30
0.0
 10
5.0456
 20
26.2494
 30
0.0
 10
4.9951
 20
26.2184
 30
0.0
 10
4.9375
 20
26.1958
 30
0.0
 10
4.9375
 20
26.1958
 30
0.0
 10
4.8799
 20
26.1731
 30
0.0
 10
4.8166
 20
26.1615
 30
0.0
 10
4.748
 20
26.1608
 30
0.0
 10
4.748
 20
26.1608
 30
0.0
 10
4.659
 20
26.1615
 30
0.0
 10
4.5823
 20
26.1848
 30
0.0
 10
4.5171
 20
26.23
 30
0.0
 10
4.5171
 20
26.23
 30
0.0
 10
4.452
 20
26.2753
 30
0.0
 10
4.4014
 20
26.3374
 30
0.0
 10
4.366
 20
26.4176
 30
0.0
 10
4.366
 20
26.4176
 30
0.0
 10
4.3305
 20
26.4978
 30
0.0
 10
4.3125
 20
26.5909
 30
0.0
 10
4.3119
 20
26.6963
 30
0.0
 10
4.3119
 20
26.6963
 30
0.0
 10
4.3125
 20
26.8179
 30
0.0
 10
4.3317
 20
26.9247
 30
0.0
 10
4.3695
 20
27.0165
 30
0.0
 10
4.3695
 20
27.0165
 30
0.0
 10
4.4073
 20
27.109
 30
0.0
 10
4.459
 20
27.1814
 30
0.0
 10
4.5253
 20
27.2338
 30
0.0
 10
4.5253
 20
27.2338
 30
0.0
 10
4.5916
 20
27.2862
 30
0.0
 10
4.6683
 20
27.3127
 30
0.0
 10
4.7549
 20
27.3134
 30
0.0
  0
SPLINE
  5
AC
330
1F
100
AcDbEntity
  8
Ilustrace
 62
   250
370
    15
100
AcDbSpline
210
0.0
220
0.0
230
1.0
 70
    24
 71
     3
 72
     8
 73
     4
 74
     0
 42
0.0000000001
 43
0.0000000001
 40
0.0
 40
0.0
 40
0.0
 40
0.0
 40
1.0
 40
1.0
 40
1.0
 40
1.0
 10
35.3999
 20
-2.6596
 30
0.0
 10
35.3999
 20
-2.6596
 30
0.0
 10
35.3999
 20
18.4631
 30
0.0
 10
35.3999
 20
18.4631
 30
0.0
  0
SPLINE
  5
AD
330
1F
100
AcDbEntity
  8
Ilustrace
 62
   250
370
    15
100
AcDbSpline
210
0.0
220
0.0
230
1.0
 70
    24
 71
     3
 72
     8
 73
     4
 74
     0
 42
0.0000000001
 43
0.0000000001
 40
0.0
 40
0.0
 40
0.0
 40
0.0
 40
1.0
 40
1.0
 40
1.0
 40
1.0
 10
-35.8001
 20
-9.0709
 30
0.0
 10
-35.8001
 20
-9.0709
 30
0.0
 10
-35.8001
 20
20.4306
 30
0.0
 10
-35.8001
 20
20.4306
 30
0.0
  0
SPLINE
  5
AE
330
1F
100
AcDbEntity
  8
Ilustrace
 62
   250
370
    15
100
AcDbSpline
210
0.0
220
0.0
230
1.0
 70
    24
 71
     3
 72
     8
 73
     4
 74
     0
 42
0.0000000001
 43
0.0000000001
 40
0.0
 40
0.0
 40
0.0
 40
0.0
 40
1.0
 40
1.0
 40
1.0
 40
1.0
 10
-32.7092
 20
24.1915
 30
0.0
 10
-32.7092
 20
24.1915
 30
0.0
 10
38.764
 20
24.1915
 30
0.0
 10
38.764
 20
24.1915
 30
0.0
  0
SPLINE
  5
AF
330
1F
100
AcDbEntity
  8
Ilustrace
 62
   250
370
    15
100
AcDbSpline
210
0.0
220
0.0
230
1.0
 70
    24
 71
     3
 72
     8
 73
     4
 74
     0
 42
0.0000000001
 43
0.0000000001
 40
0.0
 40
0.0
 40
0.0
 40
0.0
 40
1.0
 40
1.0
 40
1.0
 40
1.0
 10
-36.5107
 20
21.1097
 30
0.0
 10
-36.5107
 20
21.1097
 30
0.0
 10
-13.2714
 20
21.1097
 30
0.0
 10
-13.2714
 20
21.1097
 30
0.0
  0
SPLINE
  5
B0
330
1F
100
AcDbEntity
  8
Ilustrace
 62
   250
370
    15
100
AcDbSpline
210
0.0
220
0.0
230
1.0
 70
    24
 71
     3
 72
     8
 73
     4
 74
     0
 42
0.0000000001
 43
0.0000000001
 40
0.0
 40
0.0
 40
0.0
 40
0.0
 40
1.0
 40
1.0
 40
1.0
 40
1.0
 10
39.4717
 20
24.9021
 30
0.0
 10
39.4717
 20
24.9021
 30
0.0
 10
39.4717
 20
11.0373
 30
0.0
 10
39.4717
 20
11.0373
 30
0.0
  0
SPLINE
  5
B1
330
1F
100
AcDbEntity
  8
Ilustrace
 62
   250
370
    15
100
AcDbSpline
210
0.0
220
0.0
230
1.0
 70
    24
 71
     3
 72
     8
 73
     4
 74
     0
 42
0.0000000001
 43
0.0000000001
 40
0.0
 40
0.0
 40
0.0
 40
0.0
 40
1.0
 40
1.0
 40
1.0
 40
1.0
 10
-36.5156
 20
-9.5209
 30
0.0
 10
-36.5156
 20
-9.5209
 30
0.0
 10
-13.2763
 20
-9.5209
 30
0.0
 10
-13.2763
 20
-9.5209
 30
0.0
  0
SPLINE
  5
B2
330
1F
100
AcDbEntity
  8
Ilustrace
 62
   250
370
    15
100
AcDbSpline
210
0.0
220
0.0
230
1.0
 70
    24
 71
     3
 72
     8
 73
     4
 74
     0
 42
0.0000000001
 43
0.0000000001
 40
0.0
 40
0.0
 40
0.0
 40
0.0
 40
1.0
 40
1.0
 40
1.0
 40
1.0
 10
-33.1592
 20
24.907
 30
0.0
 10
-33.1592
 20
24.907
 30
0.0
 10
-33.1592
 20
11.1919
 30
0.0
 10
-33.1592
 20
11.1919
 30
0.0
  0
SPLINE
  5
B3
330
1F
100
AcDbEntity
  8
Ilustrace
 62
   250
370
     9
100
AcDbSpline
210
0.0
220
0.0
230
1.0
 70
    11
 71
     3
 72
    32
 73
    28
 74
     0
 42
0.0000000001
 43
0.0000000001
 40
0.0
 40
0.0
 40
0.0
 40
0.0
 40
0.125
 40
0.125
 40
0.125
 40
0.125
 40
0.25
 40
0.25
 40
0.25
 40
0.25
 40
0.375
 40
0.375
 40
0.375
 40
0.375
 40
0.5
 40
0.5
 40
0.5
 40
0.5
 40
0.625
 40
0.625
 40
0.625
 40
0.625
 40
0.75
 40
0.75
 40
0.75
 40
0.75
 40
1.0
 40
1.0
 40
1.0
 40
1.0
 10
35.8203
 20
-0.2079
 30
0.0
 10
35.8203
 20
-0.2079
 30
0.0
 10
35.8203
 20
-0.2079
 30
0.0
 10
35.8203
 20
-0.2079
 30
0.0
 10
35.8203
 20
-0.2079
 30
0.0
 10
35.8203
 20
-0.2079
 30
0.0
 10
35.8203
 20
-0.2079
 30
0.0
 10
35.8203
 20
-0.2079
 30
0.0
 10
35.8203
 20
-0.2079
 30
0.0
 10
35.8203
 20
-0.2079
 30
0.0
 10
35.3769
 20
1.0649
 30
0.0
 10
35.3769
 20
1.0649
 30
0.0
 10
35.3769
 20
1.0649
 30
0.0
 10
35.3769
 20
1.0649
 30
0.0
 10
34.9335
 20
-0.2079
 30
0.0
 10
34.9335
 20
-0.2079
 30
0.0
 10
34.9335
 20
-0.2079
 30
0.0
 10
34.9335
 20
-0.2079
 30
0.0
 10
34.9335
 20
-0.2079
 30
0.0
 10
34.9335
 20
-0.2079
 30
0.0
 10
34.9335
 20
-0.2079
 30
0.0
 10
34.9335
 20
-0.2079
 30
0.0
 10
34.9335
 20
-0.2079
 30
0.0
 10
34.9335
 20
-0.2079
 30
0.0
 10
34.9335
 20
-0.2079
 30
0.0
 10
34.9335
 20
-0.2079
 30
0.0
 10
35.8203
 20
-0.2079
 30
0.0
 10
35.8203
 20
-0.2079
 30
0.0
  0
SPLINE
  5
B4
330
1F
100
AcDbEntity
  8
Ilustrace
 62
   250
370
     9
100
AcDbSpline
210
0.0
220
0.0
230
1.0
 70
    11
 71
     3
 72
    32
 73
    28
 74
     0
 42
0.0000000001
 43
0.0000000001
 40
0.0
 40
0.0
 40
0.0
 40
0.0
 40
0.125
 40
0.125
 40
0.125
 40
0.125
 40
0.25
 40
0.25
 40
0.25
 40
0.25
 40
0.375
 40
0.375
 40
0.375
 40
0.375
 40
0.5
 40
0.5
 40
0.5
 40
0.5
 40
0.625
 40
0.625
 40
0.625
 40
0.625
 40
0.75
 40
0.75
 40
0.75
 40
0.75
 40
1.0
 40
1.0
 40
1.0
 40
1.0
 10
-35.3908
 20
19.7796
 30
0.0
 10
-35.3908
 20
19.7796
 30
0.0
 10
-35.3908
 20
19.7796
 30
0.0
 10
-35.3908
 20
19.7796
 30
0.0
 10
-35.3908
 20
19.7796
 30
0.0
 10
-35.3908
 20
19.7796
 30
0.0
 10
-35.3908
 20
19.7796
 30
0.0
 10
-35.3908
 20
19.7796
 30
0.0
 10
-35.3908
 20
19.7796
 30
0.0
 10
-35.3908
 20
19.7796
 30
0.0
 10
-35.8342
 20
21.0524
 30
0.0
 10
-35.8342
 20
21.0524
 30
0.0
 10
-35.8342
 20
21.0524
 30
0.0
 10
-35.8342
 20
21.0524
 30
0.0
 10
-36.2776
 20
19.7796
 30
0.0
 10
-36.2776
 20
19.7796
 30
0.0
 10
-36.2776
 20
19.7796
 30
0.0
 10
-36.2776
 20
19.7796
 30
0.0
 10
-36.2776
 20
19.7796
 30
0.0
 10
-36.2776
 20
19.7796
 30
0.0
 10
-36.2776
 20
19.7796
 30
0.0
 10
-36.2776
 20
19.7796
 30
0.0
 10
-36.2776
 20
19.7796
 30
0.0
 10
-36.2776
 20
19.7796
 30
0.0
 10
-36.2776
 20
19.7796
 30
0.0
 10
-36.2776
 20
19.7796
 30
0.0
 10
-35.3908
 20
19.7796
 30
0.0
 10
-35.3908
 20
19.7796
 30
0.0
  0
SPLINE
  5
B5
330
1F
100
AcDbEntity
  8
Ilustrace
 62
   250
370
     9
100
AcDbSpline
210
0.0
220
0.0
230
1.0
 70
    11
 71
     3
 72
    32
 73
    28
 74
     0
 42
0.0000000001
 43
0.0000000001
 40
0.0
 40
0.0
 40
0.0
 40
0.0
 40
0.125
 40
0.125
 40
0.125
 40
0.125
 40
0.25
 40
0.25
 40
0.25
 40
0.25
 40
0.375
 40
0.375
 40
0.375
 40
0.375
 40
0.5
 40
0.5
 40
0.5
 40
0.5
 40
0.625
 40
0.625
 40
0.625
 40
0.625
 40
0.75
 40
0.75
 40
0.75
 40
0.75
 40
1.0
 40
1.0
 40
1.0
 40
1.0
 10
38.1413
 20
23.7822
 30
0.0
 10
38.1413
 20
23.7822
 30
0.0
 10
38.1413
 20
23.7822
 30
0.0
 10
38.1413
 20
23.7822
 30
0.0
 10
38.1413
 20
23.7822
 30
0.0
 10
38.1413
 20
23.7822
 30
0.0
 10
38.1413
 20
23.7822
 30
0.0
 10
38.1413
 20
23.7822
 30
0.0
 10
38.1413
 20
23.7822
 30
0.0
 10
38.1413
 20
23.7822
 30
0.0
 10
39.4141
 20
24.2256
 30
0.0
 10
39.4141
 20
24.2256
 30
0.0
 10
39.4141
 20
24.2256
 30
0.0
 10
39.4141
 20
24.2256
 30
0.0
 10
38.1413
 20
24.669
 30
0.0
 10
38.1413
 20
24.669
 30
0.0
 10
38.1413
 20
24.669
 30
0.0
 10
38.1413
 20
24.669
 30
0.0
 10
38.1413
 20
24.669
 30
0.0
 10
38.1413
 20
24.669
 30
0.0
 10
38.1413
 20
24.669
 30
0.0
 10
38.1413
 20
24.669
 30
0.0
 10
38.1413
 20
24.669
 30
0.0
 10
38.1413
 20
24.669
 30
0.0
 10
38.1413
 20
24.669
 30
0.0
 10
38.1413
 20
24.669
 30
0.0
 10
38.1413
 20
23.7822
 30
0.0
 10
38.1413
 20
23.7822
 30
0.0
  0
SPLINE
  5
B6
330
1F
100
AcDbEntity
  8
Ilustrace
 62
   250
370
     9
100
AcDbSpline
210
0.0
220
0.0
230
1.0
 70
    11
 71
     3
 72
    32
 73
    28
 74
     0
 42
0.0000000001
 43
0.0000000001
 40
0.0
 40
0.0
 40
0.0
 40
0.0
 40
0.125
 40
0.125
 40
0.125
 40
0.125
 40
0.25
 40
0.25
 40
0.25
 40
0.25
 40
0.375
 40
0.375
 40
0.375
 40
0.375
 40
0.5
 40
0.5
 40
0.5
 40
0.5
 40
0.625
 40
0.625
 40
0.625
 40
0.625
 40
0.75
 40
0.75
 40
0.75
 40
0.75
 40
1.0
 40
1.0
 40
1.0
 40
1.0
 10
35.8643
 20
11.7443
 30
0.0
 10
35.8643
 20
11.7443
 30
0.0
 10
35.8643
 20
11.7443
 30
0.0
 10
35.8643
 20
11.7443
 30
0.0
 10
35.8643
 20
11.7443
 30
0.0
 10
35.8643
 20
11.7443
 30
0.0
 10
35.8643
 20
11.7443
 30
0.0
 10
35.8643
 20
11.7443
 30
0.0
 10
35.8643
 20
11.7443
 30
0.0
 10
35.8643
 20
11.7443
 30
0.0
 10
35.4209
 20
10.4715
 30
0.0
 10
35.4209
 20
10.4715
 30
0.0
 10
35.4209
 20
10.4715
 30
0.0
 10
35.4209
 20
10.4715
 30
0.0
 10
34.9775
 20
11.7443
 30
0.0
 10
34.9775
 20
11.7443
 30
0.0
 10
34.9775
 20
11.7443
 30
0.0
 10
34.9775
 20
11.7443
 30
0.0
 10
34.9775
 20
11.7443
 30
0.0
 10
34.9775
 20
11.7443
 30
0.0
 10
34.9775
 20
11.7443
 30
0.0
 10
34.9775
 20
11.7443
 30
0.0
 10
34.9775
 20
11.7443
 30
0.0
 10
34.9775
 20
11.7443
 30
0.0
 10
34.9775
 20
11.7443
 30
0.0
 10
34.9775
 20
11.7443
 30
0.0
 10
35.8643
 20
11.7443
 30
0.0
 10
35.8643
 20
11.7443
 30
0.0
  0
SPLINE
  5
B7
330
1F
100
AcDbEntity
  8
Ilustrace
 62
   250
370
     9
100
AcDbSpline
210
0.0
220
0.0
230
1.0
 70
    11
 71
     3
 72
    32
 73
    28
 74
     0
 42
0.0000000001
 43
0.0000000001
 40
0.0
 40
0.0
 40
0.0
 40
0.0
 40
0.125
 40
0.125
 40
0.125
 40
0.125
 40
0.25
 40
0.25
 40
0.25
 40
0.25
 40
0.375
 40
0.375
 40
0.375
 40
0.375
 40
0.5
 40
0.5
 40
0.5
 40
0.5
 40
0.625
 40
0.625
 40
0.625
 40
0.625
 40
0.75
 40
0.75
 40
0.75
 40
0.75
 40
1.0
 40
1.0
 40
1.0
 40
1.0
 10
-35.3578
 20
-8.1376
 30
0.0
 10
-35.3578
 20
-8.1376
 30
0.0
 10
-35.3578
 20
-8.1376
 30
0.0
 10
-35.3578
 20
-8.1376
 30
0.0
 10
-35.3578
 20
-8.1376
 30
0.0
 10
-35.3578
 20
-8.1376
 30
0.0
 10
-35.3578
 20
-8.1376
 30
0.0
 10
-35.3578
 20
-8.1376
 30
0.0
 10
-35.3578
 20
-8.1376
 30
0.0
 10
-35.3578
 20
-8.1376
 30
0.0
 10
-35.8012
 20
-9.4104
 30
0.0
 10
-35.8012
 20
-9.4104
 30
0.0
 10
-35.8012
 20
-9.4104
 30
0.0
 10
-35.8012
 20
-9.4104
 30
0.0
 10
-36.2446
 20
-8.1376
 30
0.0
 10
-36.2446
 20
-8.1376
 30
0.0
 10
-36.2446
 20
-8.1376
 30
0.0
 10
-36.2446
 20
-8.1376
 30
0.0
 10
-36.2446
 20
-8.1376
 30
0.0
 10
-36.2446
 20
-8.1376
 30
0.0
 10
-36.2446
 20
-8.1376
 30
0.0
 10
-36.2446
 20
-8.1376
 30
0.0
 10
-36.2446
 20
-8.1376
 30
0.0
 10
-36.2446
 20
-8.1376
 30
0.0
 10
-36.2446
 20
-8.1376
 30
0.0
 10
-36.2446
 20
-8.1376
 30
0.0
 10
-35.3578
 20
-8.1376
 30
0.0
 10
-35.3578
 20
-8.1376
 30
0.0
  0
SPLINE
  5
B8
330
1F
100
AcDbEntity
  8
Ilustrace
 62
   250
370
     9
100
AcDbSpline
210
0.0
220
0.0
230
1.0
 70
    11
 71
     3
 72
    32
 73
    28
 74
     0
 42
0.0000000001
 43
0.0000000001
 40
0.0
 40
0.0
 40
0.0
 40
0.0
 40
0.125
 40
0.125
 40
0.125
 40
0.125
 40
0.25
 40
0.25
 40
0.25
 40
0.25
 40
0.375
 40
0.375
 40
0.375
 40
0.375
 40
0.5
 40
0.5
 40
0.5
 40
0.5
 40
0.625
 40
0.625
 40
0.625
 40
0.625
 40
0.75
 40
0.75
 40
0.75
 40
0.75
 40
1.0
 40
1.0
 40
1.0
 40
1.0
 10
-31.7759
 20
23.7492
 30
0.0
 10
-31.7759
 20
23.7492
 30
0.0
 10
-31.7759
 20
23.7492
 30
0.0
 10
-31.7759
 20
23.7492
 30
0.0
 10
-31.7759
 20
23.7492
 30
0.0
 10
-31.7759
 20
23.7492
 30
0.0
 10
-31.7759
 20
23.7492
 30
0.0
 10
-31.7759
 20
23.7492
 30
0.0
 10
-31.7759
 20
23.7492
 30
0.0
 10
-31.7759
 20
23.7492
 30
0.0
 10
-33.0487
 20
24.1926
 30
0.0
 10
-33.0487
 20
24.1926
 30
0.0
 10
-33.0487
 20
24.1926
 30
0.0
 10
-33.0487
 20
24.1926
 30
0.0
 10
-31.7759
 20
24.636
 30
0.0
 10
-31.7759
 20
24.636
 30
0.0
 10
-31.7759
 20
24.636
 30
0.0
 10
-31.7759
 20
24.636
 30
0.0
 10
-31.7759
 20
24.636
 30
0.0
 10
-31.7759
 20
24.636
 30
0.0
 10
-31.7759
 20
24.636
 30
0.0
 10
-31.7759
 20
24.636
 30
0.0
 10
-31.7759
 20
24.636
 30
0.0
 10
-31.7759
 20
24.636
 30
0.0
 10
-31.7759
 20
24.636
 30
0.0
 10
-31.7759
 20
24.636
 30
0.0
 10
-31.7759
 20
23.7492
 30
0.0
 10
-31.7759
 20
23.7492
 30
0.0
  0
ENDSEC
  0
SECTION
  2
OBJECTS
  0
DICTIONARY
  5
C
330
0
100
AcDbDictionary
281
     1
  3
ACAD_GROUP
350
D
  3
ACAD_LAYOUT
350
1A
  3
ACAD_MATERIAL
350
3B
  3
ACAD_MLEADERSTYLE
350
BB
  3
ACAD_MLINESTYLE
350
17
  3
ACAD_PLOTSETTINGS
350
19
  3
ACAD_PLOTSTYLENAME
350
E
  3
ACAD_VISUALSTYLE
350
2A
  3
AcDbVariableDictionary
350
B9
  0
DICTIONARY
  5
D
102
{ACAD_REACTORS
330
C
102
}
330
C
100
AcDbDictionary
281
     1
  0
DICTIONARY
  5
1A
102
{ACAD_REACTORS
330
C
102
}
330
C
100
AcDbDictionary
281
     1
  3
Layout1
350
1E
  3
Layout2
350
26
  3
Model
350
22
  0
DICTIONARY
  5
3B
102
{ACAD_REACTORS
330
C
102
}
330
C
100
AcDbDictionary
281
     1
  3
ByBlock
350
3D
  3
ByLayer
350
3C
  3
Global
350
3E
  0
DICTIONARY
  5
BB
102
{ACAD_REACTORS
330
C
102
}
330
C
100
AcDbDictionary
281
     1
  0
DICTIONARY
  5
17
102
{ACAD_REACTORS
330
C
102
}
330
C
100
AcDbDictionary
281
     1
  3
Standard
350
18
  0
DICTIONARY
  5
19
102
{ACAD_REACTORS
330
C
102
}
330
C
100
AcDbDictionary
281
     1
  0
ACDBDICTIONARYWDFLT
  5
E
102
{ACAD_REACTORS
330
C
102
}
330
C
100
AcDbDictionary
281
     1
  3
Normal
350
F
100
AcDbDictionaryWithDefault
340
F
  0
DICTIONARY
  5
2A
102
{ACAD_REACTORS
330
C
102
}
330
C
100
AcDbDictionary
281
     1
  3
2dWireframe
350
2F
  3
3D Hidden
350
31
  3
3dWireframe
350
30
  3
Basic
350
32
  3
Brighten
350
36
  3
ColorChange
350
3A
  3
Conceptual
350
34
  3
Dim
350
35
  3
Facepattern
350
39
  3
Flat
350
2B
  3
FlatWithEdges
350
2C
  3
Gouraud
350
2D
  3
GouraudWithEdges
350
2E
  3
Linepattern
350
38
  3
Realistic
350
33
  3
Thicken
350
37
  0
DICTIONARY
  5
B9
102
{ACAD_REACTORS
330
C
102
}
330
C
100
AcDbDictionary
281
     1
  3
DIMASSOC
350
BC
  3
HIDETEXT
350
BD
  0
LAYOUT
  5
1E
102
{ACAD_REACTORS
330
1A
102
}
330
1A
100
AcDbPlotSettings
  1

  2
none_device
  4

  6

 40
0.0
 41
0.0
 42
0.0
 43
0.0
 44
0.0
 45
0.0
 46
0.0
 47
0.0
 48
0.0
 49
0.0
140
0.0
141
0.0
142
1.0
143
1.0
 70
   688
 72
     0
 73
     0
 74
     5
  7

 75
    16
147
1.0
148
0.0
149
0.0
100
AcDbLayout
  1
Layout1
 70
     1
 71
     1
 10
0.0
 20
0.0
 11
12.0
 21
9.0
 12
0.0
 22
0.0
 32
0.0
 14
1.000000000000000E+20
 24
1.000000000000000E+20
 34
1.000000000000000E+20
 15
-1.000000000000000E+20
 25
-1.000000000000000E+20
 35
-1.000000000000000E+20
146
0.0
 13
0.0
 23
0.0
 33
0.0
 16
1.0
 26
0.0
 36
0.0
 17
0.0
 27
1.0
 37
0.0
 76
     0
330
1B
  0
LAYOUT
  5
26
102
{ACAD_REACTORS
330
1A
102
}
330
1A
100
AcDbPlotSettings
  1

  2
none_device
  4

  6

 40
0.0
 41
0.0
 42
0.0
 43
0.0
 44
0.0
 45
0.0
 46
0.0
 47
0.0
 48
0.0
 49
0.0
140
0.0
141
0.0
142
1.0
143
1.0
 70
   688
 72
     0
 73
     0
 74
     5
  7

 75
    16
147
1.0
148
0.0
149
0.0
100
AcDbLayout
  1
Layout2
 70
     1
 71
     2
 10
0.0
 20
0.0
 11
0.0
 21
0.0
 12
0.0
 22
0.0
 32
0.0
 14
0.0
 24
0.0
 34
0.0
 15
0.0
 25
0.0
 35
0.0
146
0.0
 13
0.0
 23
0.0
 33
0.0
 16
1.0
 26
0.0
 36
0.0
 17
0.0
 27
1.0
 37
0.0
 76
     0
330
23
  0
LAYOUT
  5
22
102
{ACAD_REACTORS
330
1A
102
}
330
1A
100
AcDbPlotSettings
  1

  2
none_device
  4

  6

 40
0.0
 41
0.0
 42
0.0
 43
0.0
 44
0.0
 45
0.0
 46
0.0
 47
0.0
 48
0.0
 49
0.0
140
0.0
141
0.0
142
1.0
143
1.0
 70
  1712
 72
     0
 73
     0
 74
     0
  7

 75
     0
147
1.0
148
0.0
149
0.0
100
AcDbLayout
  1
Model
 70
     1
 71
     0
 10
0.0
 20
0.0
 11
12.0
 21
9.0
 12
0.0
 22
0.0
 32
0.0
 14
-39.4719
 24
-27.7143
 34
0.0
 15
39.5588
 25
27.5734
 35
0.0
146
0.0
 13
0.0
 23
0.0
 33
0.0
 16
1.0
 26
0.0
 36
0.0
 17
0.0
 27
1.0
 37
0.0
 76
     0
330
1F
331
29
  0
MATERIAL
  5
3D
102
{ACAD_REACTORS
330
3B
102
}
102
{ACAD_XDICTIONARY
360
E0
102
}
330
3B
100
AcDbMaterial
  1
ByBlock
  0
MATERIAL
  5
3C
102
{ACAD_REACTORS
330
3B
102
}
102
{ACAD_XDICTIONARY
360
DE
102
}
330
3B
100
AcDbMaterial
  1
ByLayer
  0
MATERIAL
  5
3E
102
{ACAD_REACTORS
330
3B
102
}
102
{ACAD_XDICTIONARY
360
E2
102
}
330
3B
100
AcDbMaterial
  1
Global
  0
MLINESTYLE
  5
18
102
{ACAD_REACTORS
330
17
102
}
330
17
100
AcDbMlineStyle
  2
Standard
 70
     0
  3

 62
   256
 51
90.0
 52
90.0
 71
     2
 49
0.5
 62
   256
  6
BYLAYER
 49
-0.5
 62
   256
  6
BYLAYER
  0
ACDBPLACEHOLDER
  5
F
102
{ACAD_REACTORS
330
E
102
}
330
E
  0
VISUALSTYLE
  5
2F
102
{ACAD_REACTORS
330
2A
102
}
102
{ACAD_XDICTIONARY
360
C6
102
}
330
2A
100
AcDbVisualStyle
  2
2dWireframe
 70
     4
 71
     0
 72
     2
 73
     0
 90
        0
 40
-0.6
 41
-30.0
 62
     5
 63
     7
 74
     1
 91
        4
 64
     7
 65
   257
 75
     1
175
     1
 42
1.0
 92
        0
 66
   257
 43
1.0
 76
     1
 77
     6
 78
     2
 67
     7
 79
     5
170
     0
171
     0
290
     0
174
     0
 93
        1
 44
0.0
173
     0
291
     0
 45
0.0
1001
ACAD
1000
AcDbSavedByObjectVersion
1070
     0
  0
VISUALSTYLE
  5
31
102
{ACAD_REACTORS
330
2A
102
}
102
{ACAD_XDICTIONARY
360
CA
102
}
330
2A
100
AcDbVisualStyle
  2
3D Hidden
 70
     6
 71
     1
 72
     2
 73
     2
 90
        0
 40
-0.6
 41
-30.0
 62
     5
 63
     7
 74
     2
 91
        2
 64
     7
 65
   257
 75
     2
175
     1
 42
40.0
 92
        0
 66
   257
 43
1.0
 76
     1
 77
     6
 78
     2
 67
     7
 79
     3
170
     0
171
     0
290
     0
174
     0
 93
        1
 44
0.0
173
     0
291
     0
 45
0.0
1001
ACAD
1000
AcDbSavedByObjectVersion
1070
     0
  0
VISUALSTYLE
  5
30
102
{ACAD_REACTORS
330
2A
102
}
102
{ACAD_XDICTIONARY
360
C8
102
}
330
2A
100
AcDbVisualStyle
  2
3dWireframe
 70
     5
 71
     0
 72
     2
 73
     0
 90
        0
 40
-0.6
 41
-30.0
 62
     5
 63
     7
 74
     1
 91
        4
 64
     7
 65
   257
 75
     1
175
     1
 42
1.0
 92
        0
 66
   257
 43
1.0
 76
     1
 77
     6
 78
     2
 67
     7
 79
     5
170
     0
171
     0
290
     0
174
     0
 93
        1
 44
0.0
173
     0
291
     0
 45
0.0
1001
ACAD
1000
AcDbSavedByObjectVersion
1070
     0
  0
VISUALSTYLE
  5
32
102
{ACAD_REACTORS
330
2A
102
}
102
{ACAD_XDICTIONARY
360
CC
102
}
330
2A
100
AcDbVisualStyle
  2
Basic
 70
     7
 71
     1
 72
     0
 73
     1
 90
        0
 40
-0.6
 41
-30.0
 62
     5
 63
     7
 74
     0
 91
        4
 64
     7
 65
   257
 75
     1
175
     1
 42
1.0
 92
        8
 66
     7
 43
1.0
 76
     1
 77
     6
 78
     2
 67
     7
 79
     5
170
     0
171
     0
290
     0
174
     0
 93
        1
 44
0.0
173
     0
291
     1
 45
0.0
1001
ACAD
1000
AcDbSavedByObjectVersion
1070
     0
  0
VISUALSTYLE
  5
36
102
{ACAD_REACTORS
330
2A
102
}
102
{ACAD_XDICTIONARY
360
D4
102
}
330
2A
100
AcDbVisualStyle
  2
Brighten
 70
    12
 71
     2
 72
     2
 73
     0
 90
        0
 40
-0.6
 41
-30.0
 62
     5
 63
     7
 74
     1
 91
        4
 64
     7
 65
   257
 75
     1
175
     1
 42
1.0
 92
        8
 66
     7
 43
1.0
 76
     1
 77
     6
 78
     2
 67
     7
 79
     5
170
     0
171
     0
290
     0
174
     0
 93
        1
 44
50.0
173
     0
291
     1
 45
0.0
1001
ACAD
1000
AcDbSavedByObjectVersion
1070
     0
  0
VISUALSTYLE
  5
3A
102
{ACAD_REACTORS
330
2A
102
}
102
{ACAD_XDICTIONARY
360
DC
102
}
330
2A
100
AcDbVisualStyle
  2
ColorChange
 70
    16
 71
     2
 72
     2
 73
     3
 90
        0
 40
-0.6
 41
-30.0
 62
     5
 63
     8
 74
     1
 91
        4
 64
     7
 65
   257
 75
     1
175
     1
 42
1.0
 92
        8
 66
     8
 43
1.0
 76
     1
 77
     6
 78
     2
 67
     7
 79
     5
170
     0
171
     0
290
     0
174
     0
 93
        1
 44
0.0
173
     0
291
     1
 45
0.0
1001
ACAD
1000
AcDbSavedByObjectVersion
1070
     0
  0
VISUALSTYLE
  5
34
102
{ACAD_REACTORS
330
2A
102
}
102
{ACAD_XDICTIONARY
360
D0
102
}
330
2A
100
AcDbVisualStyle
  2
Conceptual
 70
     9
 71
     3
 72
     2
 73
     0
 90
        0
 40
-0.6
 41
-30.0
 62
     5
 63
     7
 74
     2
 91
        2
 64
     7
 65
   257
 75
     1
175
     1
 42
40.0
 92
        8
 66
     7
 43
1.0
 76
     1
 77
     6
 78
     2
 67
     7
 79
     3
170
     0
171
     0
290
     0
174
     0
 93
        1
 44
0.0
173
     0
291
     0
 45
0.0
1001
ACAD
1000
AcDbSavedByObjectVersion
1070
     0
  0
VISUALSTYLE
  5
35
102
{ACAD_REACTORS
330
2A
102
}
102
{ACAD_XDICTIONARY
360
D2
102
}
330
2A
100
AcDbVisualStyle
  2
Dim
 70
    11
 71
     2
 72
     2
 73
     0
 90
        0
 40
-0.6
 41
-30.0
 62
     5
 63
     7
 74
     1
 91
        4
 64
     7
 65
   257
 75
     1
175
     1
 42
1.0
 92
        8
 66
     7
 43
1.0
 76
     1
 77
     6
 78
     2
 67
     7
 79
     5
170
     0
171
     0
290
     0
174
     0
 93
        1
 44
-50.0
173
     0
291
     1
 45
0.0
1001
ACAD
1000
AcDbSavedByObjectVersion
1070
     0
  0
VISUALSTYLE
  5
39
102
{ACAD_REACTORS
330
2A
102
}
102
{ACAD_XDICTIONARY
360
DA
102
}
330
2A
100
AcDbVisualStyle
  2
Facepattern
 70
    15
 71
     2
 72
     2
 73
     0
 90
        0
 40
-0.6
 41
-30.0
 62
     5
 63
     7
 74
     1
 91
        4
 64
     7
 65
   257
 75
     1
175
     1
 42
1.0
 92
        8
 66
     7
 43
1.0
 76
     1
 77
     6
 78
     2
 67
     7
 79
     5
170
     0
171
     0
290
     0
174
     0
 93
        1
 44
0.0
173
     0
291
     1
 45
0.0
1001
ACAD
1000
AcDbSavedByObjectVersion
1070
     0
  0
VISUALSTYLE
  5
2B
102
{ACAD_REACTORS
330
2A
102
}
102
{ACAD_XDICTIONARY
360
BE
102
}
330
2A
100
AcDbVisualStyle
  2
Flat
 70
     0
 71
     2
 72
     1
 73
     1
 90
        2
 40
-0.6
 41
30.0
 62
     5
 63
     7
 74
     0
 91
        4
 64
     7
 65
   257
 75
     1
175
     1
 42
1.0
 92
        8
 66
     7
 43
1.0
 76
     1
 77
     6
 78
     2
 67
     7
 79
     5
170
     0
171
     0
290
     0
174
     0
 93
       13
 44
0.0
173
     0
291
     1
 45
0.0
1001
ACAD
1000
AcDbSavedByObjectVersion
1070
     0
  0
VISUALSTYLE
  5
2C
102
{ACAD_REACTORS
330
2A
102
}
102
{ACAD_XDICTIONARY
360
C0
102
}
330
2A
100
AcDbVisualStyle
  2
FlatWithEdges
 70
     1
 71
     2
 72
     1
 73
     1
 90
        2
 40
-0.6
 41
30.0
 62
     5
 63
     7
 74
     1
 91
        4
 64
     7
 65
   257
 75
     1
175
     1
 42
1.0
 92
        0
 66
   257
 43
1.0
 76
     1
 77
     6
 78
     2
 67
     7
 79
     5
170
     0
171
     0
290
     0
174
     0
 93
       13
 44
0.0
173
     0
291
     1
 45
0.0
1001
ACAD
1000
AcDbSavedByObjectVersion
1070
     0
  0
VISUALSTYLE
  5
2D
102
{ACAD_REACTORS
330
2A
102
}
102
{ACAD_XDICTIONARY
360
C2
102
}
330
2A
100
AcDbVisualStyle
  2
Gouraud
 70
     2
 71
     2
 72
     2
 73
     1
 90
        2
 40
-0.6
 41
30.0
 62
     5
 63
     7
 74
     0
 91
        4
 64
     7
 65
   257
 75
     1
175
     1
 42
1.0
 92
        0
 66
     7
 43
1.0
 76
     1
 77
     6
 78
     2
 67
     7
 79
     5
170
     0
171
     0
290
     0
174
     0
 93
       13
 44
0.0
173
     0
291
     1
 45
0.0
1001
ACAD
1000
AcDbSavedByObjectVersion
1070
     0
  0
VISUALSTYLE
  5
2E
102
{ACAD_REACTORS
330
2A
102
}
102
{ACAD_XDICTIONARY
360
C4
102
}
330
2A
100
AcDbVisualStyle
  2
GouraudWithEdges
 70
     3
 71
     2
 72
     2
 73
     1
 90
        2
 40
-0.6
 41
30.0
 62
     5
 63
     7
 74
     1
 91
        4
 64
     7
 65
   257
 75
     1
175
     1
 42
1.0
 92
        0
 66
   257
 43
1.0
 76
     1
 77
     6
 78
     2
 67
     7
 79
     5
170
     0
171
     0
290
     0
174
     0
 93
       13
 44
0.0
173
     0
291
     1
 45
0.0
1001
ACAD
1000
AcDbSavedByObjectVersion
1070
     0
  0
VISUALSTYLE
  5
38
102
{ACAD_REACTORS
330
2A
102
}
102
{ACAD_XDICTIONARY
360
D8
102
}
330
2A
100
AcDbVisualStyle
  2
Linepattern
 70
    14
 71
     2
 72
     2
 73
     0
 90
        0
 40
-0.6
 41
-30.0
 62
     5
 63
     7
 74
     1
 91
        4
 64
     7
 65
   257
 75
     7
175
     7
 42
1.0
 92
        8
 66
     7
 43
1.0
 76
     1
 77
     6
 78
     2
 67
     7
 79
     5
170
     0
171
     0
290
     0
174
     0
 93
        1
 44
0.0
173
     0
291
     1
 45
0.0
1001
ACAD
1000
AcDbSavedByObjectVersion
1070
     0
  0
VISUALSTYLE
  5
33
102
{ACAD_REACTORS
330
2A
102
}
102
{ACAD_XDICTIONARY
360
CE
102
}
330
2A
100
AcDbVisualStyle
  2
Realistic
 70
     8
 71
     2
 72
     2
 73
     0
 90
        0
 40
-0.6
 41
-30.0
 62
     5
 63
     7
 74
     1
 91
        0
 64
     7
 65
   257
 75
     1
175
     1
 42
1.0
 92
        8
 66
     8
 43
1.0
 76
     1
 77
     6
 78
     2
 67
     7
 79
     5
170
     0
171
     0
290
     0
174
     0
 93
       13
 44
0.0
173
     0
291
     0
 45
0.0
1001
ACAD
1000
AcDbSavedByObjectVersion
1070
     0
  0
VISUALSTYLE
  5
37
102
{ACAD_REACTORS
330
2A
102
}
102
{ACAD_XDICTIONARY
360
D6
102
}
330
2A
100
AcDbVisualStyle
  2
Thicken
 70
    13
 71
     2
 72
     2
 73
     0
 90
        0
 40
-0.6
 41
-30.0
 62
     5
 63
     7
 74
     1
 91
        4
 64
     7
 65
   257
 75
     1
175
     1
 42
1.0
 92
       12
 66
     7
 43
1.0
 76
     1
 77
     6
 78
     2
 67
     7
 79
     5
170
     0
171
     0
290
     0
174
     0
 93
        1
 44
0.0
173
     0
291
     1
 45
0.0
1001
ACAD
1000
AcDbSavedByObjectVersion
1070
     0
  0
DICTIONARYVAR
  5
BC
102
{ACAD_REACTORS
330
B9
102
}
330
B9
100
DictionaryVariables
280
     0
  1
2
  0
DICTIONARYVAR
  5
BD
102
{ACAD_REACTORS
330
B9
102
}
330
B9
100
DictionaryVariables
280
     0
  1
1
  0
DICTIONARY
  5
E0
330
3D
100
AcDbDictionary
280
     1
281
     1
  3
ACAD_XREC_ROUNDTRIP
360
E1
  0
DICTIONARY
  5
DE
330
3C
100
AcDbDictionary
280
     1
281
     1
  3
ACAD_XREC_ROUNDTRIP
360
DF
  0
DICTIONARY
  5
E2
330
3E
100
AcDbDictionary
280
     1
281
     1
  3
ACAD_XREC_ROUNDTRIP
360
E3
  0
DICTIONARY
  5
C6
330
2F
100
AcDbDictionary
280
     1
281
     1
  3
ACAD_XREC_ROUNDTRIP
360
C7
  0
DICTIONARY
  5
CA
330
31
100
AcDbDictionary
280
     1
281
     1
  3
ACAD_XREC_ROUNDTRIP
360
CB
  0
DICTIONARY
  5
C8
330
30
100
AcDbDictionary
280
     1
281
     1
  3
ACAD_XREC_ROUNDTRIP
360
C9
  0
DICTIONARY
  5
CC
330
32
100
AcDbDictionary
280
     1
281
     1
  3
ACAD_XREC_ROUNDTRIP
360
CD
  0
DICTIONARY
  5
D4
330
36
100
AcDbDictionary
280
     1
281
     1
  3
ACAD_XREC_ROUNDTRIP
360
D5
  0
DICTIONARY
  5
DC
330
3A
100
AcDbDictionary
280
     1
281
     1
  3
ACAD_XREC_ROUNDTRIP
360
DD
  0
DICTIONARY
  5
D0
330
34
100
AcDbDictionary
280
     1
281
     1
  3
ACAD_XREC_ROUNDTRIP
360
D1
  0
DICTIONARY
  5
D2
330
35
100
AcDbDictionary
280
     1
281
     1
  3
ACAD_XREC_ROUNDTRIP
360
D3
  0
DICTIONARY
  5
DA
330
39
100
AcDbDictionary
280
     1
281
     1
  3
ACAD_XREC_ROUNDTRIP
360
DB
  0
DICTIONARY
  5
BE
330
2B
100
AcDbDictionary
280
     1
281
     1
  3
ACAD_XREC_ROUNDTRIP
360
BF
  0
DICTIONARY
  5
C0
330
2C
100
AcDbDictionary
280
     1
281
     1
  3
ACAD_XREC_ROUNDTRIP
360
C1
  0
DICTIONARY
  5
C2
330
2D
100
AcDbDictionary
280
     1
281
     1
  3
ACAD_XREC_ROUNDTRIP
360
C3
  0
DICTIONARY
  5
C4
330
2E
100
AcDbDictionary
280
     1
281
     1
  3
ACAD_XREC_ROUNDTRIP
360
C5
  0
DICTIONARY
  5
D8
330
38
100
AcDbDictionary
280
     1
281
     1
  3
ACAD_XREC_ROUNDTRIP
360
D9
  0
DICTIONARY
  5
CE
330
33
100
AcDbDictionary
280
     1
281
     1
  3
ACAD_XREC_ROUNDTRIP
360
CF
  0
DICTIONARY
  5
D6
330
37
100
AcDbDictionary
280
     1
281
     1
  3
ACAD_XREC_ROUNDTRIP
360
D7
  0
XRECORD
  5
E1
102
{ACAD_REACTORS
330
E0
102
}
330
E0
100
AcDbXrecord
280
     1
102
MATERIAL
148
0.0
149
0.0
149
0.0
 93
        0
 94
      127
282
     0
 72
     1
 77
     1
171
     1
175
     1
179
     1
273
     0
  0
XRECORD
  5
DF
102
{ACAD_REACTORS
330
DE
102
}
330
DE
100
AcDbXrecord
280
     1
102
MATERIAL
148
0.0
149
0.0
149
0.0
 93
        0
 94
      127
282
     0
 72
     1
 77
     1
171
     1
175
     1
179
     1
273
     0
  0
XRECORD
  5
E3
102
{ACAD_REACTORS
330
E2
102
}
330
E2
100
AcDbXrecord
280
     1
102
MATERIAL
148
0.0
149
0.0
149
0.0
 93
        0
 94
      127
282
     0
 72
     1
 77
     1
171
     1
175
     1
179
     1
273
     0
  0
XRECORD
  5
C7
102
{ACAD_REACTORS
330
C6
102
}
330
C6
100
AcDbXrecord
280
     1
102
RTVSPropertyOp0
 70
     1
102
RTVSPropertyOp1
 70
     1
102
RTVSPropertyOp2
 70
     1
102
RTVSPropertyOp3
 70
     1
102
RTVSPropertyOp4
 70
     1
102
RTVSPropertyOp5
 70
     1
102
RTVSPropertyOp6
 70
     1
102
RTVSPropertyOp7
 70
     1
102
RTVSPropertyOp8
 70
     1
102
RTVSPropertyOp9
 70
     1
102
RTVSPropertyOp10
 70
     1
102
RTVSPropertyOp11
 70
     1
102
RTVSPropertyOp12
 70
     1
102
RTVSPropertyOp13
 70
     1
102
RTVSPropertyOp14
 70
     1
102
RTVSPropertyOp15
 70
     1
102
RTVSPropertyOp16
 70
     1
102
RTVSPropertyOp17
 70
     1
102
RTVSPropertyOp18
 70
     1
102
RTVSPropertyOp19
 70
     1
102
RTVSPropertyOp20
 70
     1
102
RTVSPropertyOp21
 70
     1
102
RTVSPropertyOp22
 70
     1
102
RTVSPropertyOp23
 70
     1
102
RTVSPropertyOp24
 70
     1
102
RTVSPropertyOp25
 70
     1
102
RTVSPropertyOp26
 70
     1
102
RTVSPropertyOp27
 70
     1
  0
XRECORD
  5
CB
102
{ACAD_REACTORS
330
CA
102
}
330
CA
100
AcDbXrecord
280
     1
102
RTVSPropertyOp0
 70
     1
102
RTVSPropertyOp1
 70
     1
102
RTVSPropertyOp2
 70
     1
102
RTVSPropertyOp3
 70
     1
102
RTVSPropertyOp4
 70
     1
102
RTVSPropertyOp5
 70
     1
102
RTVSPropertyOp6
 70
     1
102
RTVSPropertyOp7
 70
     1
102
RTVSPropertyOp8
 70
     1
102
RTVSPropertyOp9
 70
     1
102
RTVSPropertyOp10
 70
     1
102
RTVSPropertyOp11
 70
     1
102
RTVSPropertyOp12
 70
     1
102
RTVSPropertyOp13
 70
     1
102
RTVSPropertyOp14
 70
     1
102
RTVSPropertyOp15
 70
     1
102
RTVSPropertyOp16
 70
     1
102
RTVSPropertyOp17
 70
     1
102
RTVSPropertyOp18
 70
     1
102
RTVSPropertyOp19
 70
     1
102
RTVSPropertyOp20
 70
     1
102
RTVSPropertyOp21
 70
     1
102
RTVSPropertyOp22
 70
     1
102
RTVSPropertyOp23
 70
     1
102
RTVSPropertyOp24
 70
     1
102
RTVSPropertyOp25
 70
     1
102
RTVSPropertyOp26
 70
     1
102
RTVSPropertyOp27
 70
     1
  0
XRECORD
  5
C9
102
{ACAD_REACTORS
330
C8
102
}
330
C8
100
AcDbXrecord
280
     1
102
RTVSPropertyOp0
 70
     1
102
RTVSPropertyOp1
 70
     1
102
RTVSPropertyOp2
 70
     1
102
RTVSPropertyOp3
 70
     1
102
RTVSPropertyOp4
 70
     1
102
RTVSPropertyOp5
 70
     1
102
RTVSPropertyOp6
 70
     1
102
RTVSPropertyOp7
 70
     1
102
RTVSPropertyOp8
 70
     1
102
RTVSPropertyOp9
 70
     1
102
RTVSPropertyOp10
 70
     1
102
RTVSPropertyOp11
 70
     1
102
RTVSPropertyOp12
 70
     1
102
RTVSPropertyOp13
 70
     1
102
RTVSPropertyOp14
 70
     1
102
RTVSPropertyOp15
 70
     1
102
RTVSPropertyOp16
 70
     1
102
RTVSPropertyOp17
 70
     1
102
RTVSPropertyOp18
 70
     1
102
RTVSPropertyOp19
 70
     1
102
RTVSPropertyOp20
 70
     1
102
RTVSPropertyOp21
 70
     1
102
RTVSPropertyOp22
 70
     1
102
RTVSPropertyOp23
 70
     1
102
RTVSPropertyOp24
 70
     1
102
RTVSPropertyOp25
 70
     1
102
RTVSPropertyOp26
 70
     1
102
RTVSPropertyOp27
 70
     1
  0
XRECORD
  5
CD
102
{ACAD_REACTORS
330
CC
102
}
330
CC
100
AcDbXrecord
280
     1
102
RTVSPropertyOp0
 70
     1
102
RTVSPropertyOp1
 70
     1
102
RTVSPropertyOp2
 70
     1
102
RTVSPropertyOp3
 70
     1
102
RTVSPropertyOp4
 70
     1
102
RTVSPropertyOp5
 70
     1
102
RTVSPropertyOp6
 70
     1
102
RTVSPropertyOp7
 70
     1
102
RTVSPropertyOp8
 70
     1
102
RTVSPropertyOp9
 70
     1
102
RTVSPropertyOp10
 70
     1
102
RTVSPropertyOp11
 70
     1
102
RTVSPropertyOp12
 70
     1
102
RTVSPropertyOp13
 70
     1
102
RTVSPropertyOp14
 70
     1
102
RTVSPropertyOp15
 70
     1
102
RTVSPropertyOp16
 70
     1
102
RTVSPropertyOp17
 70
     1
102
RTVSPropertyOp18
 70
     1
102
RTVSPropertyOp19
 70
     1
102
RTVSPropertyOp20
 70
     1
102
RTVSPropertyOp21
 70
     1
102
RTVSPropertyOp22
 70
     1
102
RTVSPropertyOp23
 70
     1
102
RTVSPropertyOp24
 70
     1
102
RTVSPropertyOp25
 70
     1
102
RTVSPropertyOp26
 70
     1
102
RTVSPropertyOp27
 70
     1
  0
XRECORD
  5
D5
102
{ACAD_REACTORS
330
D4
102
}
330
D4
100
AcDbXrecord
280
     1
102
RTVSPropertyOp0
 70
     1
102
RTVSPropertyOp1
 70
     1
102
RTVSPropertyOp2
 70
     1
102
RTVSPropertyOp3
 70
     1
102
RTVSPropertyOp4
 70
     1
102
RTVSPropertyOp5
 70
     1
102
RTVSPropertyOp6
 70
     1
102
RTVSPropertyOp7
 70
     1
102
RTVSPropertyOp8
 70
     1
102
RTVSPropertyOp9
 70
     1
102
RTVSPropertyOp10
 70
     1
102
RTVSPropertyOp11
 70
     1
102
RTVSPropertyOp12
 70
     1
102
RTVSPropertyOp13
 70
     1
102
RTVSPropertyOp14
 70
     1
102
RTVSPropertyOp15
 70
     1
102
RTVSPropertyOp16
 70
     1
102
RTVSPropertyOp17
 70
     1
102
RTVSPropertyOp18
 70
     1
102
RTVSPropertyOp19
 70
     1
102
RTVSPropertyOp20
 70
     1
102
RTVSPropertyOp21
 70
     1
102
RTVSPropertyOp22
 70
     1
102
RTVSPropertyOp23
 70
     1
102
RTVSPropertyOp24
 70
     1
102
RTVSPropertyOp25
 70
     1
102
RTVSPropertyOp26
 70
     1
102
RTVSPropertyOp27
 70
     1
  0
XRECORD
  5
DD
102
{ACAD_REACTORS
330
DC
102
}
330
DC
100
AcDbXrecord
280
     1
102
RTVSPropertyOp0
 70
     1
102
RTVSPropertyOp1
 70
     1
102
RTVSPropertyOp2
 70
     1
102
RTVSPropertyOp3
 70
     1
102
RTVSPropertyOp4
 70
     1
102
RTVSPropertyOp5
 70
     1
102
RTVSPropertyOp6
 70
     1
102
RTVSPropertyOp7
 70
     1
102
RTVSPropertyOp8
 70
     1
102
RTVSPropertyOp9
 70
     1
102
RTVSPropertyOp10
 70
     1
102
RTVSPropertyOp11
 70
     1
102
RTVSPropertyOp12
 70
     1
102
RTVSPropertyOp13
 70
     1
102
RTVSPropertyOp14
 70
     1
102
RTVSPropertyOp15
 70
     1
102
RTVSPropertyOp16
 70
     1
102
RTVSPropertyOp17
 70
     1
102
RTVSPropertyOp18
 70
     1
102
RTVSPropertyOp19
 70
     1
102
RTVSPropertyOp20
 70
     1
102
RTVSPropertyOp21
 70
     1
102
RTVSPropertyOp22
 70
     1
102
RTVSPropertyOp23
 70
     1
102
RTVSPropertyOp24
 70
     1
102
RTVSPropertyOp25
 70
     1
102
RTVSPropertyOp26
 70
     1
102
RTVSPropertyOp27
 70
     1
  0
XRECORD
  5
D1
102
{ACAD_REACTORS
330
D0
102
}
330
D0
100
AcDbXrecord
280
     1
102
RTVSPropertyOp0
 70
     1
102
RTVSPropertyOp1
 70
     1
102
RTVSPropertyOp2
 70
     1
102
RTVSPropertyOp3
 70
     1
102
RTVSPropertyOp4
 70
     1
102
RTVSPropertyOp5
 70
     1
102
RTVSPropertyOp6
 70
     1
102
RTVSPropertyOp7
 70
     1
102
RTVSPropertyOp8
 70
     1
102
RTVSPropertyOp9
 70
     1
102
RTVSPropertyOp10
 70
     1
102
RTVSPropertyOp11
 70
     1
102
RTVSPropertyOp12
 70
     1
102
RTVSPropertyOp13
 70
     1
102
RTVSPropertyOp14
 70
     1
102
RTVSPropertyOp15
 70
     1
102
RTVSPropertyOp16
 70
     1
102
RTVSPropertyOp17
 70
     1
102
RTVSPropertyOp18
 70
     1
102
RTVSPropertyOp19
 70
     1
102
RTVSPropertyOp20
 70
     1
102
RTVSPropertyOp21
 70
     1
102
RTVSPropertyOp22
 70
     1
102
RTVSPropertyOp23
 70
     1
102
RTVSPropertyOp24
 70
     1
102
RTVSPropertyOp25
 70
     1
102
RTVSPropertyOp26
 70
     1
102
RTVSPropertyOp27
 70
     1
  0
XRECORD
  5
D3
102
{ACAD_REACTORS
330
D2
102
}
330
D2
100
AcDbXrecord
280
     1
102
RTVSPropertyOp0
 70
     1
102
RTVSPropertyOp1
 70
     1
102
RTVSPropertyOp2
 70
     1
102
RTVSPropertyOp3
 70
     1
102
RTVSPropertyOp4
 70
     1
102
RTVSPropertyOp5
 70
     1
102
RTVSPropertyOp6
 70
     1
102
RTVSPropertyOp7
 70
     1
102
RTVSPropertyOp8
 70
     1
102
RTVSPropertyOp9
 70
     1
102
RTVSPropertyOp10
 70
     1
102
RTVSPropertyOp11
 70
     1
102
RTVSPropertyOp12
 70
     1
102
RTVSPropertyOp13
 70
     1
102
RTVSPropertyOp14
 70
     1
102
RTVSPropertyOp15
 70
     1
102
RTVSPropertyOp16
 70
     1
102
RTVSPropertyOp17
 70
     1
102
RTVSPropertyOp18
 70
     1
102
RTVSPropertyOp19
 70
     1
102
RTVSPropertyOp20
 70
     1
102
RTVSPropertyOp21
 70
     1
102
RTVSPropertyOp22
 70
     1
102
RTVSPropertyOp23
 70
     1
102
RTVSPropertyOp24
 70
     1
102
RTVSPropertyOp25
 70
     1
102
RTVSPropertyOp26
 70
     1
102
RTVSPropertyOp27
 70
     1
  0
XRECORD
  5
DB
102
{ACAD_REACTORS
330
DA
102
}
330
DA
100
AcDbXrecord
280
     1
102
RTVSPropertyOp0
 70
     1
102
RTVSPropertyOp1
 70
     1
102
RTVSPropertyOp2
 70
     1
102
RTVSPropertyOp3
 70
     1
102
RTVSPropertyOp4
 70
     1
102
RTVSPropertyOp5
 70
     1
102
RTVSPropertyOp6
 70
     1
102
RTVSPropertyOp7
 70
     1
102
RTVSPropertyOp8
 70
     1
102
RTVSPropertyOp9
 70
     1
102
RTVSPropertyOp10
 70
     1
102
RTVSPropertyOp11
 70
     1
102
RTVSPropertyOp12
 70
     1
102
RTVSPropertyOp13
 70
     1
102
RTVSPropertyOp14
 70
     1
102
RTVSPropertyOp15
 70
     1
102
RTVSPropertyOp16
 70
     1
102
RTVSPropertyOp17
 70
     1
102
RTVSPropertyOp18
 70
     1
102
RTVSPropertyOp19
 70
     1
102
RTVSPropertyOp20
 70
     1
102
RTVSPropertyOp21
 70
     1
102
RTVSPropertyOp22
 70
     1
102
RTVSPropertyOp23
 70
     1
102
RTVSPropertyOp24
 70
     1
102
RTVSPropertyOp25
 70
     1
102
RTVSPropertyOp26
 70
     1
102
RTVSPropertyOp27
 70
     1
  0
XRECORD
  5
BF
102
{ACAD_REACTORS
330
BE
102
}
330
BE
100
AcDbXrecord
280
     1
102
RTVSPropertyOp0
 70
     1
102
RTVSPropertyOp1
 70
     1
102
RTVSPropertyOp2
 70
     1
102
RTVSPropertyOp3
 70
     1
102
RTVSPropertyOp4
 70
     1
102
RTVSPropertyOp5
 70
     1
102
RTVSPropertyOp6
 70
     1
102
RTVSPropertyOp7
 70
     1
102
RTVSPropertyOp8
 70
     1
102
RTVSPropertyOp9
 70
     1
102
RTVSPropertyOp10
 70
     1
102
RTVSPropertyOp11
 70
     1
102
RTVSPropertyOp12
 70
     1
102
RTVSPropertyOp13
 70
     1
102
RTVSPropertyOp14
 70
     1
102
RTVSPropertyOp15
 70
     1
102
RTVSPropertyOp16
 70
     1
102
RTVSPropertyOp17
 70
     1
102
RTVSPropertyOp18
 70
     1
102
RTVSPropertyOp19
 70
     1
102
RTVSPropertyOp20
 70
     1
102
RTVSPropertyOp21
 70
     1
102
RTVSPropertyOp22
 70
     1
102
RTVSPropertyOp23
 70
     1
102
RTVSPropertyOp24
 70
     1
102
RTVSPropertyOp25
 70
     1
102
RTVSPropertyOp26
 70
     1
102
RTVSPropertyOp27
 70
     1
  0
XRECORD
  5
C1
102
{ACAD_REACTORS
330
C0
102
}
330
C0
100
AcDbXrecord
280
     1
102
RTVSPropertyOp0
 70
     1
102
RTVSPropertyOp1
 70
     1
102
RTVSPropertyOp2
 70
     1
102
RTVSPropertyOp3
 70
     1
102
RTVSPropertyOp4
 70
     1
102
RTVSPropertyOp5
 70
     1
102
RTVSPropertyOp6
 70
     1
102
RTVSPropertyOp7
 70
     1
102
RTVSPropertyOp8
 70
     1
102
RTVSPropertyOp9
 70
     1
102
RTVSPropertyOp10
 70
     1
102
RTVSPropertyOp11
 70
     1
102
RTVSPropertyOp12
 70
     1
102
RTVSPropertyOp13
 70
     1
102
RTVSPropertyOp14
 70
     1
102
RTVSPropertyOp15
 70
     1
102
RTVSPropertyOp16
 70
     1
102
RTVSPropertyOp17
 70
     1
102
RTVSPropertyOp18
 70
     1
102
RTVSPropertyOp19
 70
     1
102
RTVSPropertyOp20
 70
     1
102
RTVSPropertyOp21
 70
     1
102
RTVSPropertyOp22
 70
     1
102
RTVSPropertyOp23
 70
     1
102
RTVSPropertyOp24
 70
     1
102
RTVSPropertyOp25
 70
     1
102
RTVSPropertyOp26
 70
     1
102
RTVSPropertyOp27
 70
     1
  0
XRECORD
  5
C3
102
{ACAD_REACTORS
330
C2
102
}
330
C2
100
AcDbXrecord
280
     1
102
RTVSPropertyOp0
 70
     1
102
RTVSPropertyOp1
 70
     1
102
RTVSPropertyOp2
 70
     1
102
RTVSPropertyOp3
 70
     1
102
RTVSPropertyOp4
 70
     1
102
RTVSPropertyOp5
 70
     1
102
RTVSPropertyOp6
 70
     1
102
RTVSPropertyOp7
 70
     1
102
RTVSPropertyOp8
 70
     1
102
RTVSPropertyOp9
 70
     1
102
RTVSPropertyOp10
 70
     1
102
RTVSPropertyOp11
 70
     1
102
RTVSPropertyOp12
 70
     1
102
RTVSPropertyOp13
 70
     1
102
RTVSPropertyOp14
 70
     1
102
RTVSPropertyOp15
 70
     1
102
RTVSPropertyOp16
 70
     1
102
RTVSPropertyOp17
 70
     1
102
RTVSPropertyOp18
 70
     1
102
RTVSPropertyOp19
 70
     1
102
RTVSPropertyOp20
 70
     1
102
RTVSPropertyOp21
 70
     1
102
RTVSPropertyOp22
 70
     1
102
RTVSPropertyOp23
 70
     1
102
RTVSPropertyOp24
 70
     1
102
RTVSPropertyOp25
 70
     1
102
RTVSPropertyOp26
 70
     1
102
RTVSPropertyOp27
 70
     1
  0
XRECORD
  5
C5
102
{ACAD_REACTORS
330
C4
102
}
330
C4
100
AcDbXrecord
280
     1
102
RTVSPropertyOp0
 70
     1
102
RTVSPropertyOp1
 70
     1
102
RTVSPropertyOp2
 70
     1
102
RTVSPropertyOp3
 70
     1
102
RTVSPropertyOp4
 70
     1
102
RTVSPropertyOp5
 70
     1
102
RTVSPropertyOp6
 70
     1
102
RTVSPropertyOp7
 70
     1
102
RTVSPropertyOp8
 70
     1
102
RTVSPropertyOp9
 70
     1
102
RTVSPropertyOp10
 70
     1
102
RTVSPropertyOp11
 70
     1
102
RTVSPropertyOp12
 70
     1
102
RTVSPropertyOp13
 70
     1
102
RTVSPropertyOp14
 70
     1
102
RTVSPropertyOp15
 70
     1
102
RTVSPropertyOp16
 70
     1
102
RTVSPropertyOp17
 70
     1
102
RTVSPropertyOp18
 70
     1
102
RTVSPropertyOp19
 70
     1
102
RTVSPropertyOp20
 70
     1
102
RTVSPropertyOp21
 70
     1
102
RTVSPropertyOp22
 70
     1
102
RTVSPropertyOp23
 70
     1
102
RTVSPropertyOp24
 70
     1
102
RTVSPropertyOp25
 70
     1
102
RTVSPropertyOp26
 70
     1
102
RTVSPropertyOp27
 70
     1
  0
XRECORD
  5
D9
102
{ACAD_REACTORS
330
D8
102
}
330
D8
100
AcDbXrecord
280
     1
102
RTVSPropertyOp0
 70
     1
102
RTVSPropertyOp1
 70
     1
102
RTVSPropertyOp2
 70
     1
102
RTVSPropertyOp3
 70
     1
102
RTVSPropertyOp4
 70
     1
102
RTVSPropertyOp5
 70
     1
102
RTVSPropertyOp6
 70
     1
102
RTVSPropertyOp7
 70
     1
102
RTVSPropertyOp8
 70
     1
102
RTVSPropertyOp9
 70
     1
102
RTVSPropertyOp10
 70
     1
102
RTVSPropertyOp11
 70
     1
102
RTVSPropertyOp12
 70
     1
102
RTVSPropertyOp13
 70
     1
102
RTVSPropertyOp14
 70
     1
102
RTVSPropertyOp15
 70
     1
102
RTVSPropertyOp16
 70
     1
102
RTVSPropertyOp17
 70
     1
102
RTVSPropertyOp18
 70
     1
102
RTVSPropertyOp19
 70
     1
102
RTVSPropertyOp20
 70
     1
102
RTVSPropertyOp21
 70
     1
102
RTVSPropertyOp22
 70
     1
102
RTVSPropertyOp23
 70
     1
102
RTVSPropertyOp24
 70
     1
102
RTVSPropertyOp25
 70
     1
102
RTVSPropertyOp26
 70
     1
102
RTVSPropertyOp27
 70
     1
  0
XRECORD
  5
CF
102
{ACAD_REACTORS
330
CE
102
}
330
CE
100
AcDbXrecord
280
     1
102
RTVSPropertyOp0
 70
     1
102
RTVSPropertyOp1
 70
     1
102
RTVSPropertyOp2
 70
     1
102
RTVSPropertyOp3
 70
     1
102
RTVSPropertyOp4
 70
     1
102
RTVSPropertyOp5
 70
     1
102
RTVSPropertyOp6
 70
     1
102
RTVSPropertyOp7
 70
     1
102
RTVSPropertyOp8
 70
     1
102
RTVSPropertyOp9
 70
     1
102
RTVSPropertyOp10
 70
     1
102
RTVSPropertyOp11
 70
     1
102
RTVSPropertyOp12
 70
     1
102
RTVSPropertyOp13
 70
     1
102
RTVSPropertyOp14
 70
     1
102
RTVSPropertyOp15
 70
     1
102
RTVSPropertyOp16
 70
     1
102
RTVSPropertyOp17
 70
     1
102
RTVSPropertyOp18
 70
     1
102
RTVSPropertyOp19
 70
     1
102
RTVSPropertyOp20
 70
     1
102
RTVSPropertyOp21
 70
     1
102
RTVSPropertyOp22
 70
     1
102
RTVSPropertyOp23
 70
     1
102
RTVSPropertyOp24
 70
     1
102
RTVSPropertyOp25
 70
     1
102
RTVSPropertyOp26
 70
     1
102
RTVSPropertyOp27
 70
     1
  0
XRECORD
  5
D7
102
{ACAD_REACTORS
330
D6
102
}
330
D6
100
AcDbXrecord
280
     1
102
RTVSPropertyOp0
 70
     1
102
RTVSPropertyOp1
 70
     1
102
RTVSPropertyOp2
 70
     1
102
RTVSPropertyOp3
 70
     1
102
RTVSPropertyOp4
 70
     1
102
RTVSPropertyOp5
 70
     1
102
RTVSPropertyOp6
 70
     1
102
RTVSPropertyOp7
 70
     1
102
RTVSPropertyOp8
 70
     1
102
RTVSPropertyOp9
 70
     1
102
RTVSPropertyOp10
 70
     1
102
RTVSPropertyOp11
 70
     1
102
RTVSPropertyOp12
 70
     1
102
RTVSPropertyOp13
 70
     1
102
RTVSPropertyOp14
 70
     1
102
RTVSPropertyOp15
 70
     1
102
RTVSPropertyOp16
 70
     1
102
RTVSPropertyOp17
 70
     1
102
RTVSPropertyOp18
 70
     1
102
RTVSPropertyOp19
 70
     1
102
RTVSPropertyOp20
 70
     1
102
RTVSPropertyOp21
 70
     1
102
RTVSPropertyOp22
 70
     1
102
RTVSPropertyOp23
 70
     1
102
RTVSPropertyOp24
 70
     1
102
RTVSPropertyOp25
 70
     1
102
RTVSPropertyOp26
 70
     1
102
RTVSPropertyOp27
 70
     1
  0
ENDSEC
  0
EOF
