  0
SECTION
  2
HEADER
  9
$ACADVER
  1
AC1015
  9
$ACADMAINTVER
 70
     6
  9
$DWGCODEPAGE
  3
ANSI_1250
  9
$INSBASE
 10
0.0
 20
0.0
 30
0.0
  9
$EXTMIN
 10
-71.9719
 20
-70.6625
 30
0.0
  9
$EXTMAX
 10
71.9431
 20
70.5889
 30
0.0
  9
$LIMMIN
 10
0.0
 20
0.0
  9
$LIMMAX
 10
12.0
 20
9.0
  9
$ORTHOMODE
 70
     0
  9
$REGENMODE
 70
     1
  9
$FILLMODE
 70
     1
  9
$QTEXTMODE
 70
     0
  9
$MIRRTEXT
 70
     1
  9
$LTSCALE
 40
1.0
  9
$ATTMODE
 70
     1
  9
$TEXTSIZE
 40
0.2
  9
$TRACEWID
 40
0.05
  9
$TEXTSTYLE
  7
Standard
  9
$CLAYER
  8
0
  9
$CELTYPE
  6
ByLayer
  9
$CECOLOR
 62
   256
  9
$CELTSCALE
 40
1.0
  9
$DISPSILH
 70
     0
  9
$DIMSCALE
 40
1.0
  9
$DIMASZ
 40
0.18
  9
$DIMEXO
 40
0.0625
  9
$DIMDLI
 40
0.38
  9
$DIMRND
 40
0.0
  9
$DIMDLE
 40
0.0
  9
$DIMEXE
 40
0.18
  9
$DIMTP
 40
0.0
  9
$DIMTM
 40
0.0
  9
$DIMTXT
 40
0.18
  9
$DIMCEN
 40
0.09
  9
$DIMTSZ
 40
0.0
  9
$DIMTOL
 70
     0
  9
$DIMLIM
 70
     0
  9
$DIMTIH
 70
     1
  9
$DIMTOH
 70
     1
  9
$DIMSE1
 70
     0
  9
$DIMSE2
 70
     0
  9
$DIMTAD
 70
     0
  9
$DIMZIN
 70
     0
  9
$DIMBLK
  1

  9
$DIMASO
 70
     1
  9
$DIMSHO
 70
     1
  9
$DIMPOST
  1

  9
$DIMAPOST
  1

  9
$DIMALT
 70
     0
  9
$DIMALTD
 70
     2
  9
$DIMALTF
 40
25.4
  9
$DIMLFAC
 40
1.0
  9
$DIMTOFL
 70
     0
  9
$DIMTVP
 40
0.0
  9
$DIMTIX
 70
     0
  9
$DIMSOXD
 70
     0
  9
$DIMSAH
 70
     0
  9
$DIMBLK1
  1

  9
$DIMBLK2
  1

  9
$DIMSTYLE
  2
Standard
  9
$DIMCLRD
 70
     0
  9
$DIMCLRE
 70
     0
  9
$DIMCLRT
 70
     0
  9
$DIMTFAC
 40
1.0
  9
$DIMGAP
 40
0.09
  9
$DIMJUST
 70
     0
  9
$DIMSD1
 70
     0
  9
$DIMSD2
 70
     0
  9
$DIMTOLJ
 70
     1
  9
$DIMTZIN
 70
     0
  9
$DIMALTZ
 70
     0
  9
$DIMALTTZ
 70
     0
  9
$DIMUPT
 70
     0
  9
$DIMDEC
 70
     4
  9
$DIMTDEC
 70
     4
  9
$DIMALTU
 70
     2
  9
$DIMALTTD
 70
     2
  9
$DIMTXSTY
  7
Standard
  9
$DIMAUNIT
 70
     0
  9
$DIMADEC
 70
     0
  9
$DIMALTRND
 40
0.0
  9
$DIMAZIN
 70
     0
  9
$DIMDSEP
 70
    46
  9
$DIMATFIT
 70
     3
  9
$DIMFRAC
 70
     0
  9
$DIMLDRBLK
  1

  9
$DIMLUNIT
 70
     2
  9
$DIMLWD
 70
    -2
  9
$DIMLWE
 70
    -2
  9
$DIMTMOVE
 70
     0
  9
$LUNITS
 70
     2
  9
$LUPREC
 70
     4
  9
$SKETCHINC
 40
0.1
  9
$FILLETRAD
 40
0.5
  9
$AUNITS
 70
     0
  9
$AUPREC
 70
     0
  9
$MENU
  1
.
  9
$ELEVATION
 40
0.0
  9
$PELEVATION
 40
0.0
  9
$THICKNESS
 40
0.0
  9
$LIMCHECK
 70
     0
  9
$CHAMFERA
 40
0.5
  9
$CHAMFERB
 40
0.5
  9
$CHAMFERC
 40
1.0
  9
$CHAMFERD
 40
0.0
  9
$SKPOLY
 70
     0
  9
$TDCREATE
 40
2458492.388775463
  9
$TDUCREATE
 40
2458492.347108796
  9
$TDUPDATE
 40
2458492.388775474
  9
$TDUUPDATE
 40
2458492.347108808
  9
$TDINDWG
 40
0.0000000116
  9
$TDUSRTIMER
 40
0.0000000116
  9
$USRTIMER
 70
     1
  9
$ANGBASE
 50
0.0
  9
$ANGDIR
 70
     0
  9
$PDMODE
 70
     0
  9
$PDSIZE
 40
0.0
  9
$PLINEWID
 40
0.0
  9
$SPLFRAME
 70
     0
  9
$SPLINETYPE
 70
     6
  9
$SPLINESEGS
 70
     8
  9
$HANDSEED
  5
F7
  9
$SURFTAB1
 70
     6
  9
$SURFTAB2
 70
     6
  9
$SURFTYPE
 70
     6
  9
$SURFU
 70
     6
  9
$SURFV
 70
     6
  9
$UCSBASE
  2

  9
$UCSNAME
  2

  9
$UCSORG
 10
0.0
 20
0.0
 30
0.0
  9
$UCSXDIR
 10
1.0
 20
0.0
 30
0.0
  9
$UCSYDIR
 10
0.0
 20
1.0
 30
0.0
  9
$UCSORTHOREF
  2

  9
$UCSORTHOVIEW
 70
     0
  9
$UCSORGTOP
 10
0.0
 20
0.0
 30
0.0
  9
$UCSORGBOTTOM
 10
0.0
 20
0.0
 30
0.0
  9
$UCSORGLEFT
 10
0.0
 20
0.0
 30
0.0
  9
$UCSORGRIGHT
 10
0.0
 20
0.0
 30
0.0
  9
$UCSORGFRONT
 10
0.0
 20
0.0
 30
0.0
  9
$UCSORGBACK
 10
0.0
 20
0.0
 30
0.0
  9
$PUCSBASE
  2

  9
$PUCSNAME
  2

  9
$PUCSORG
 10
0.0
 20
0.0
 30
0.0
  9
$PUCSXDIR
 10
1.0
 20
0.0
 30
0.0
  9
$PUCSYDIR
 10
0.0
 20
1.0
 30
0.0
  9
$PUCSORTHOREF
  2

  9
$PUCSORTHOVIEW
 70
     0
  9
$PUCSORGTOP
 10
0.0
 20
0.0
 30
0.0
  9
$PUCSORGBOTTOM
 10
0.0
 20
0.0
 30
0.0
  9
$PUCSORGLEFT
 10
0.0
 20
0.0
 30
0.0
  9
$PUCSORGRIGHT
 10
0.0
 20
0.0
 30
0.0
  9
$PUCSORGFRONT
 10
0.0
 20
0.0
 30
0.0
  9
$PUCSORGBACK
 10
0.0
 20
0.0
 30
0.0
  9
$USERI1
 70
     0
  9
$USERI2
 70
     0
  9
$USERI3
 70
     0
  9
$USERI4
 70
     0
  9
$USERI5
 70
     0
  9
$USERR1
 40
0.0
  9
$USERR2
 40
0.0
  9
$USERR3
 40
0.0
  9
$USERR4
 40
0.0
  9
$USERR5
 40
0.0
  9
$WORLDVIEW
 70
     1
  9
$SHADEDGE
 70
     3
  9
$SHADEDIF
 70
    70
  9
$TILEMODE
 70
     1
  9
$MAXACTVP
 70
    64
  9
$PINSBASE
 10
0.0
 20
0.0
 30
0.0
  9
$PLIMCHECK
 70
     0
  9
$PEXTMIN
 10
1.000000000000000E+20
 20
1.000000000000000E+20
 30
1.000000000000000E+20
  9
$PEXTMAX
 10
-1.000000000000000E+20
 20
-1.000000000000000E+20
 30
-1.000000000000000E+20
  9
$PLIMMIN
 10
0.0
 20
0.0
  9
$PLIMMAX
 10
12.0
 20
9.0
  9
$UNITMODE
 70
     0
  9
$VISRETAIN
 70
     1
  9
$PLINEGEN
 70
     0
  9
$PSLTSCALE
 70
     1
  9
$TREEDEPTH
 70
  3020
  9
$CMLSTYLE
  2
Standard
  9
$CMLJUST
 70
     0
  9
$CMLSCALE
 40
1.0
  9
$PROXYGRAPHICS
 70
     1
  9
$MEASUREMENT
 70
     0
  9
$CELWEIGHT
370
    -1
  9
$ENDCAPS
280
     0
  9
$JOINSTYLE
280
     0
  9
$LWDISPLAY
290
     0
  9
$INSUNITS
 70
     4
  9
$HYPERLINKBASE
  1

  9
$STYLESHEET
  1

  9
$XEDIT
290
     1
  9
$CEPSNTYPE
380
     0
  9
$PSTYLEMODE
290
     1
  9
$FINGERPRINTGUID
  2
{BE24F72C-7D66-436E-8275-6272C339E353}
  9
$VERSIONGUID
  2
{FAEB1C32-E019-11D5-929B-00C0DF256EC4}
  9
$EXTNAMES
290
     1
  9
$PSVPSCALE
 40
0.0
  9
$OLESTARTUP
290
     0
  0
ENDSEC
  0
SECTION
  2
CLASSES
  0
CLASS
  1
ACDBDICTIONARYWDFLT
  2
AcDbDictionaryWithDefault
  3
ObjectDBX Classes
 90
        0
280
     0
281
     0
  0
CLASS
  1
VISUALSTYLE
  2
AcDbVisualStyle
  3
ObjectDBX Classes
 90
     4095
280
     0
281
     0
  0
CLASS
  1
MATERIAL
  2
AcDbMaterial
  3
ObjectDBX Classes
 90
     1153
280
     0
281
     0
  0
CLASS
  1
DICTIONARYVAR
  2
AcDbDictionaryVar
  3
ObjectDBX Classes
 90
        0
280
     0
281
     0
  0
CLASS
  1
ACDBPLACEHOLDER
  2
AcDbPlaceHolder
  3
ObjectDBX Classes
 90
        0
280
     0
281
     0
  0
CLASS
  1
LAYOUT
  2
AcDbLayout
  3
ObjectDBX Classes
 90
        0
280
     0
281
     0
  0
ENDSEC
  0
SECTION
  2
TABLES
  0
TABLE
  2
VPORT
  5
8
330
0
100
AcDbSymbolTable
 70
     1
  0
VPORT
  5
29
330
8
100
AcDbSymbolTableRecord
100
AcDbViewportTableRecord
  2
*Active
 70
     0
 10
0.0
 20
0.0
 11
1.0
 21
1.0
 12
10.42990654205607
 22
4.5
 13
0.0
 23
0.0
 14
0.5
 24
0.5
 15
0.5
 25
0.5
 16
0.0
 26
0.0
 36
1.0
 17
0.0
 27
0.0
 37
0.0
 40
9.0
 41
1.972972972850329
 42
50.0
 43
0.0
 44
0.0
 50
0.0
 51
0.0
 71
     0
 72
   100
 73
     1
 74
     3
 75
     0
 76
     0
 77
     0
 78
     0
281
     0
 65
     1
110
0.0
120
0.0
130
0.0
111
1.0
121
0.0
131
0.0
112
0.0
122
1.0
132
0.0
 79
     0
146
0.0
  0
ENDTAB
  0
TABLE
  2
LTYPE
  5
5
330
0
100
AcDbSymbolTable
 70
     2
  0
LTYPE
  5
14
330
5
100
AcDbSymbolTableRecord
100
AcDbLinetypeTableRecord
  2
ByBlock
 70
     0
  3

 72
    65
 73
     0
 40
0.0
  0
LTYPE
  5
15
330
5
100
AcDbSymbolTableRecord
100
AcDbLinetypeTableRecord
  2
ByLayer
 70
     0
  3

 72
    65
 73
     0
 40
0.0
  0
LTYPE
  5
16
330
5
100
AcDbSymbolTableRecord
100
AcDbLinetypeTableRecord
  2
Continuous
 70
     0
  3
Solid line
 72
    65
 73
     0
 40
0.0
  0
LTYPE
  5
CB
330
5
100
AcDbSymbolTableRecord
100
AcDbLinetypeTableRecord
  2
New Line1
 70
     0
  3

 72
    65
 73
     4
 40
1.2
 49
0.5
 74
     4
 75
     0
340
0
 46
1.0
 50
0.0
 44
0.0
 45
0.0
 49
-0.3
 74
     4
 75
     0
340
0
 46
1.0
 50
0.0
 44
0.0
 45
0.0
 49
0.1
 74
     4
 75
     0
340
0
 46
1.0
 50
0.0
 44
0.0
 45
0.0
 49
-0.3
 74
     4
 75
     0
340
0
 46
1.0
 50
0.0
 44
0.0
 45
0.0
  0
ENDTAB
  0
TABLE
  2
LAYER
  5
2
330
0
100
AcDbSymbolTable
 70
     2
  0
LAYER
  5
10
330
2
100
AcDbSymbolTableRecord
100
AcDbLayerTableRecord
  2
0
 70
     0
 62
     7
  6
Continuous
370
    -3
390
F
  0
LAYER
  5
40
330
2
100
AcDbSymbolTableRecord
100
AcDbLayerTableRecord
  2
Vrstva 1
 70
     0
 62
     7
  6
Continuous
370
    -3
390
F
  0
ENDTAB
  0
TABLE
  2
STYLE
  5
3
330
0
100
AcDbSymbolTable
 70
     1
  0
STYLE
  5
11
330
3
100
AcDbSymbolTableRecord
100
AcDbTextStyleTableRecord
  2
Standard
 70
     0
 40
0.0
 41
1.0
 50
0.0
 71
     0
 42
0.2
  3
txt
  4

  0
ENDTAB
  0
TABLE
  2
VIEW
  5
6
330
0
100
AcDbSymbolTable
 70
     0
  0
ENDTAB
  0
TABLE
  2
UCS
  5
7
330
0
100
AcDbSymbolTable
 70
     0
  0
ENDTAB
  0
TABLE
  2
APPID
  5
9
330
0
100
AcDbSymbolTable
 70
     2
  0
APPID
  5
12
330
9
100
AcDbSymbolTableRecord
100
AcDbRegAppTableRecord
  2
ACAD
 70
     0
  0
APPID
  5
3F
330
9
100
AcDbSymbolTableRecord
100
AcDbRegAppTableRecord
  2
ODA
 70
     0
  0
ENDTAB
  0
TABLE
  2
DIMSTYLE
  5
A
330
0
100
AcDbSymbolTable
 70
     1
100
AcDbDimStyleTable
  0
DIMSTYLE
105
27
330
A
100
AcDbSymbolTableRecord
100
AcDbDimStyleTableRecord
  2
Standard
 70
     0
340
11
  0
ENDTAB
  0
TABLE
  2
BLOCK_RECORD
  5
1
330
0
100
AcDbSymbolTable
 70
     1
  0
BLOCK_RECORD
  5
1F
330
1
100
AcDbSymbolTableRecord
100
AcDbBlockTableRecord
  2
*Model_Space
340
22
  0
BLOCK_RECORD
  5
1B
330
1
100
AcDbSymbolTableRecord
100
AcDbBlockTableRecord
  2
*Paper_Space
340
1E
  0
BLOCK_RECORD
  5
23
330
1
100
AcDbSymbolTableRecord
100
AcDbBlockTableRecord
  2
*Paper_Space0
340
26
  0
ENDTAB
  0
ENDSEC
  0
SECTION
  2
BLOCKS
  0
BLOCK
  5
20
330
1F
100
AcDbEntity
  8
0
100
AcDbBlockBegin
  2
*Model_Space
 70
     0
 10
0.0
 20
0.0
 30
0.0
  3
*Model_Space
  1

  0
ENDBLK
  5
21
330
1F
100
AcDbEntity
  8
0
100
AcDbBlockEnd
  0
BLOCK
  5
1C
330
1B
100
AcDbEntity
 67
     1
  8
0
100
AcDbBlockBegin
  2
*Paper_Space
 70
     0
 10
0.0
 20
0.0
 30
0.0
  3
*Paper_Space
  1

  0
ENDBLK
  5
1D
330
1B
100
AcDbEntity
 67
     1
  8
0
100
AcDbBlockEnd
  0
BLOCK
  5
24
330
23
100
AcDbEntity
  8
0
100
AcDbBlockBegin
  2
*Paper_Space0
 70
     0
 10
0.0
 20
0.0
 30
0.0
  3
*Paper_Space0
  1

  0
ENDBLK
  5
25
330
23
100
AcDbEntity
  8
0
100
AcDbBlockEnd
  0
ENDSEC
  0
SECTION
  2
ENTITIES
  0
SPLINE
  5
41
330
1F
100
AcDbEntity
  8
Vrstva 1
 62
   252
100
AcDbSpline
210
0.0
220
0.0
230
1.0
 70
    11
 71
     3
 72
    80
 73
    76
 74
     0
 42
0.0000000001
 43
0.0000000001
 40
0.0
 40
0.0
 40
0.0
 40
0.0
 40
0.05
 40
0.05
 40
0.05
 40
0.05
 40
0.1
 40
0.1
 40
0.1
 40
0.1
 40
0.15
 40
0.15
 40
0.15
 40
0.15
 40
0.2
 40
0.2
 40
0.2
 40
0.2
 40
0.25
 40
0.25
 40
0.25
 40
0.25
 40
0.3
 40
0.3
 40
0.3
 40
0.3
 40
0.35
 40
0.35
 40
0.35
 40
0.35
 40
0.4
 40
0.4
 40
0.4
 40
0.4
 40
0.45
 40
0.45
 40
0.45
 40
0.45
 40
0.5
 40
0.5
 40
0.5
 40
0.5
 40
0.55
 40
0.55
 40
0.55
 40
0.55
 40
0.6
 40
0.6
 40
0.6
 40
0.6
 40
0.65
 40
0.65
 40
0.65
 40
0.65
 40
0.7
 40
0.7
 40
0.7
 40
0.7
 40
0.75
 40
0.75
 40
0.75
 40
0.75
 40
0.8
 40
0.8
 40
0.8
 40
0.8
 40
0.85
 40
0.85
 40
0.85
 40
0.85
 40
0.9
 40
0.9
 40
0.9
 40
0.9
 40
1.0
 40
1.0
 40
1.0
 40
1.0
 10
21.9295
 20
-16.7964
 30
0.0
 10
21.9295
 20
-16.7964
 30
0.0
 10
59.9152
 20
-16.7964
 30
0.0
 10
59.9152
 20
-16.7964
 30
0.0
 10
59.9152
 20
-16.7964
 30
0.0
 10
59.9152
 20
-16.7964
 30
0.0
 10
61.3335
 20
-17.5916
 30
0.0
 10
61.3335
 20
-17.5916
 30
0.0
 10
61.3335
 20
-17.5916
 30
0.0
 10
61.3335
 20
-17.5916
 30
0.0
 10
61.3799
 20
-18.8762
 30
0.0
 10
61.3799
 20
-18.8762
 30
0.0
 10
61.3799
 20
-18.8762
 30
0.0
 10
61.3799
 20
-18.8762
 30
0.0
 10
61.3335
 20
-50.3961
 30
0.0
 10
61.3335
 20
-50.3961
 30
0.0
 10
61.3335
 20
-50.3961
 30
0.0
 10
61.3335
 20
-50.3961
 30
0.0
 10
59.9567
 20
-51.2165
 30
0.0
 10
59.9567
 20
-51.2165
 30
0.0
 10
59.9567
 20
-51.2165
 30
0.0
 10
59.9567
 20
-51.2165
 30
0.0
 10
21.9295
 20
-51.2063
 30
0.0
 10
21.9295
 20
-51.2063
 30
0.0
 10
21.9295
 20
-51.2063
 30
0.0
 10
21.9295
 20
-51.2063
 30
0.0
 10
23.1396
 20
-50.0909
 30
0.0
 10
23.1396
 20
-50.0909
 30
0.0
 10
23.1396
 20
-50.0909
 30
0.0
 10
23.1396
 20
-50.0909
 30
0.0
 10
25.3619
 20
-46.9193
 30
0.0
 10
25.3619
 20
-46.9193
 30
0.0
 10
25.3619
 20
-46.9193
 30
0.0
 10
25.3619
 20
-46.9193
 30
0.0
 10
26.707
 20
-44.6149
 30
0.0
 10
26.707
 20
-44.6149
 30
0.0
 10
26.707
 20
-44.6149
 30
0.0
 10
26.707
 20
-44.6149
 30
0.0
 10
27.5245
 20
-42.3723
 30
0.0
 10
27.5245
 20
-42.3723
 30
0.0
 10
27.5245
 20
-42.3723
 30
0.0
 10
27.5245
 20
-42.3723
 30
0.0
 10
28.1297
 20
-40.4858
 30
0.0
 10
28.1297
 20
-40.4858
 30
0.0
 10
28.1297
 20
-40.4858
 30
0.0
 10
28.1297
 20
-40.4858
 30
0.0
 10
28.882
 20
-37.0539
 30
0.0
 10
28.882
 20
-37.0539
 30
0.0
 10
28.882
 20
-37.0539
 30
0.0
 10
28.882
 20
-37.0539
 30
0.0
 10
29.0071
 20
-33.957
 30
0.0
 10
29.0071
 20
-33.957
 30
0.0
 10
29.0071
 20
-33.957
 30
0.0
 10
29.0071
 20
-33.957
 30
0.0
 10
28.7501
 20
-30.4718
 30
0.0
 10
28.7501
 20
-30.4718
 30
0.0
 10
28.7501
 20
-30.4718
 30
0.0
 10
28.7501
 20
-30.4718
 30
0.0
 10
28.1085
 20
-27.4558
 30
0.0
 10
28.1085
 20
-27.4558
 30
0.0
 10
28.1085
 20
-27.4558
 30
0.0
 10
28.1085
 20
-27.4558
 30
0.0
 10
27.2227
 20
-24.8516
 30
0.0
 10
27.2227
 20
-24.8516
 30
0.0
 10
27.2227
 20
-24.8516
 30
0.0
 10
27.2227
 20
-24.8516
 30
0.0
 10
26.239
 20
-22.7076
 30
0.0
 10
26.239
 20
-22.7076
 30
0.0
 10
26.239
 20
-22.7076
 30
0.0
 10
26.239
 20
-22.7076
 30
0.0
 10
24.3631
 20
-19.6635
 30
0.0
 10
24.3631
 20
-19.6635
 30
0.0
 10
24.3631
 20
-19.6635
 30
0.0
 10
24.3631
 20
-19.6635
 30
0.0
 10
21.9295
 20
-16.7964
 30
0.0
 10
21.9295
 20
-16.7964
 30
0.0
  0
SPLINE
  5
42
330
1F
100
AcDbEntity
  8
Vrstva 1
 62
   252
100
AcDbSpline
210
0.0
220
0.0
230
1.0
 70
    11
 71
     3
 72
    36
 73
    32
 74
     0
 42
0.0000000001
 43
0.0000000001
 40
0.0
 40
0.0
 40
0.0
 40
0.0
 40
0.1111111111111111
 40
0.1111111111111111
 40
0.1111111111111111
 40
0.1111111111111111
 40
0.2222222222222222
 40
0.2222222222222222
 40
0.2222222222222222
 40
0.2222222222222222
 40
0.3333333333333333
 40
0.3333333333333333
 40
0.3333333333333333
 40
0.3333333333333333
 40
0.4444444444444444
 40
0.4444444444444444
 40
0.4444444444444444
 40
0.4444444444444444
 40
0.5555555555555556
 40
0.5555555555555556
 40
0.5555555555555556
 40
0.5555555555555556
 40
0.6666666666666666
 40
0.6666666666666666
 40
0.6666666666666666
 40
0.6666666666666666
 40
0.7777777777777778
 40
0.7777777777777778
 40
0.7777777777777778
 40
0.7777777777777778
 40
1.0
 40
1.0
 40
1.0
 40
1.0
 10
-56.4133
 20
-34.0066
 30
0.0
 10
-56.4133
 20
-54.1731
 30
0.0
 10
-39.9308
 20
-71.8206
 30
0.0
 10
-20.12
 20
-70.5214
 30
0.0
 10
-20.12
 20
-70.5214
 30
0.0
 10
-3.4788
 20
-69.4299
 30
0.0
 10
-2.5765
 20
-65.1653
 30
0.0
 10
9.517
 20
-59.3008
 30
0.0
 10
9.517
 20
-59.3008
 30
0.0
 10
12.8012
 20
-57.7083
 30
0.0
 10
20.0871
 20
-53.1702
 30
0.0
 10
21.9295
 20
-51.2165
 30
0.0
 10
21.9295
 20
-51.2165
 30
0.0
 10
26.4677
 20
-46.4043
 30
0.0
 10
28.9411
 20
-41.2643
 30
0.0
 10
28.9357
 20
-35.5988
 30
0.0
 10
28.9357
 20
-35.5988
 30
0.0
 10
28.9286
 20
-28.1101
 30
0.0
 10
27.1916
 20
-21.6222
 30
0.0
 10
22.079
 20
-16.9673
 30
0.0
 10
22.079
 20
-16.9673
 30
0.0
 10
19.8059
 20
-14.8976
 30
0.0
 10
22.3125
 20
-15.7396
 30
0.0
 10
8.6769
 20
-8.259
 30
0.0
 10
8.6769
 20
-8.259
 30
0.0
 10
1.3005
 20
-4.2124
 30
0.0
 10
-6.1129
 20
2.343
 30
0.0
 10
-20.12
 20
2.5083
 30
0.0
 10
-20.12
 20
2.5083
 30
0.0
 10
-39.972
 20
2.7428
 30
0.0
 10
-56.4133
 20
-13.84
 30
0.0
 10
-56.4133
 20
-34.0066
 30
0.0
  0
SPLINE
  5
43
330
1F
100
AcDbEntity
  8
Vrstva 1
 62
   252
100
AcDbSpline
210
0.0
220
0.0
230
1.0
 70
    11
 71
     3
 72
   152
 73
   148
 74
     0
 42
0.0000000001
 43
0.0000000001
 40
0.0
 40
0.0
 40
0.0
 40
0.0
 40
0.0263157894736842
 40
0.0263157894736842
 40
0.0263157894736842
 40
0.0263157894736842
 40
0.0526315789473684
 40
0.0526315789473684
 40
0.0526315789473684
 40
0.0526315789473684
 40
0.0789473684210526
 40
0.0789473684210526
 40
0.0789473684210526
 40
0.0789473684210526
 40
0.1052631578947368
 40
0.1052631578947368
 40
0.1052631578947368
 40
0.1052631578947368
 40
0.131578947368421
 40
0.131578947368421
 40
0.131578947368421
 40
0.131578947368421
 40
0.1578947368421053
 40
0.1578947368421053
 40
0.1578947368421053
 40
0.1578947368421053
 40
0.1842105263157895
 40
0.1842105263157895
 40
0.1842105263157895
 40
0.1842105263157895
 40
0.2105263157894737
 40
0.2105263157894737
 40
0.2105263157894737
 40
0.2105263157894737
 40
0.2368421052631579
 40
0.2368421052631579
 40
0.2368421052631579
 40
0.2368421052631579
 40
0.2631578947368421
 40
0.2631578947368421
 40
0.2631578947368421
 40
0.2631578947368421
 40
0.2894736842105263
 40
0.2894736842105263
 40
0.2894736842105263
 40
0.2894736842105263
 40
0.3157894736842105
 40
0.3157894736842105
 40
0.3157894736842105
 40
0.3157894736842105
 40
0.3421052631578947
 40
0.3421052631578947
 40
0.3421052631578947
 40
0.3421052631578947
 40
0.3684210526315789
 40
0.3684210526315789
 40
0.3684210526315789
 40
0.3684210526315789
 40
0.3947368421052632
 40
0.3947368421052632
 40
0.3947368421052632
 40
0.3947368421052632
 40
0.4210526315789473
 40
0.4210526315789473
 40
0.4210526315789473
 40
0.4210526315789473
 40
0.4473684210526316
 40
0.4473684210526316
 40
0.4473684210526316
 40
0.4473684210526316
 40
0.4736842105263158
 40
0.4736842105263158
 40
0.4736842105263158
 40
0.4736842105263158
 40
0.5
 40
0.5
 40
0.5
 40
0.5
 40
0.5263157894736842
 40
0.5263157894736842
 40
0.5263157894736842
 40
0.5263157894736842
 40
0.5526315789473685
 40
0.5526315789473685
 40
0.5526315789473685
 40
0.5526315789473685
 40
0.5789473684210527
 40
0.5789473684210527
 40
0.5789473684210527
 40
0.5789473684210527
 40
0.6052631578947368
 40
0.6052631578947368
 40
0.6052631578947368
 40
0.6052631578947368
 40
0.631578947368421
 40
0.631578947368421
 40
0.631578947368421
 40
0.631578947368421
 40
0.6578947368421053
 40
0.6578947368421053
 40
0.6578947368421053
 40
0.6578947368421053
 40
0.6842105263157895
 40
0.6842105263157895
 40
0.6842105263157895
 40
0.6842105263157895
 40
0.7105263157894737
 40
0.7105263157894737
 40
0.7105263157894737
 40
0.7105263157894737
 40
0.7368421052631579
 40
0.7368421052631579
 40
0.7368421052631579
 40
0.7368421052631579
 40
0.7631578947368421
 40
0.7631578947368421
 40
0.7631578947368421
 40
0.7631578947368421
 40
0.7894736842105263
 40
0.7894736842105263
 40
0.7894736842105263
 40
0.7894736842105263
 40
0.8157894736842105
 40
0.8157894736842105
 40
0.8157894736842105
 40
0.8157894736842105
 40
0.8421052631578947
 40
0.8421052631578947
 40
0.8421052631578947
 40
0.8421052631578947
 40
0.868421052631579
 40
0.868421052631579
 40
0.868421052631579
 40
0.868421052631579
 40
0.8947368421052632
 40
0.8947368421052632
 40
0.8947368421052632
 40
0.8947368421052632
 40
0.9210526315789473
 40
0.9210526315789473
 40
0.9210526315789473
 40
0.9210526315789473
 40
0.9473684210526315
 40
0.9473684210526315
 40
0.9473684210526315
 40
0.9473684210526315
 40
1.0
 40
1.0
 40
1.0
 40
1.0
 10
-56.4133
 20
57.6965
 30
0.0
 10
-56.4133
 20
57.6965
 30
0.0
 10
29.0079
 20
57.6965
 30
0.0
 10
29.0079
 20
57.6965
 30
0.0
 10
29.0079
 20
57.6965
 30
0.0
 10
29.0079
 20
57.6965
 30
0.0
 10
29.0075
 20
54.8667
 30
0.0
 10
29.0075
 20
54.8667
 30
0.0
 10
29.0075
 20
54.8667
 30
0.0
 10
29.0075
 20
54.8667
 30
0.0
 10
28.9517
 20
54.4658
 30
0.0
 10
28.9517
 20
54.4658
 30
0.0
 10
28.9517
 20
54.4658
 30
0.0
 10
28.9517
 20
54.4658
 30
0.0
 10
28.7426
 20
54.2659
 30
0.0
 10
28.7426
 20
54.2659
 30
0.0
 10
28.7426
 20
54.2659
 30
0.0
 10
28.7426
 20
54.2659
 30
0.0
 10
25.2177
 20
54.1885
 30
0.0
 10
25.2177
 20
54.1885
 30
0.0
 10
25.2177
 20
54.1885
 30
0.0
 10
25.2177
 20
54.1885
 30
0.0
 10
24.8239
 20
53.9363
 30
0.0
 10
24.8239
 20
53.9363
 30
0.0
 10
24.8239
 20
53.9363
 30
0.0
 10
24.8239
 20
53.9363
 30
0.0
 10
24.7701
 20
51.5067
 30
0.0
 10
24.7701
 20
51.5067
 30
0.0
 10
24.7701
 20
51.5067
 30
0.0
 10
24.7701
 20
51.5067
 30
0.0
 10
25.0021
 20
51.1774
 30
0.0
 10
25.0021
 20
51.1774
 30
0.0
 10
25.0021
 20
51.1774
 30
0.0
 10
25.0021
 20
51.1774
 30
0.0
 10
59.9567
 20
51.1565
 30
0.0
 10
59.9567
 20
51.1565
 30
0.0
 10
59.9567
 20
51.1565
 30
0.0
 10
59.9567
 20
51.1565
 30
0.0
 10
61.3335
 20
50.3614
 30
0.0
 10
61.3335
 20
50.3614
 30
0.0
 10
61.3335
 20
50.3614
 30
0.0
 10
61.3335
 20
50.3614
 30
0.0
 10
61.3335
 20
17.531
 30
0.0
 10
61.3335
 20
17.531
 30
0.0
 10
61.3335
 20
17.531
 30
0.0
 10
61.3335
 20
17.531
 30
0.0
 10
59.9567
 20
16.7364
 30
0.0
 10
59.9567
 20
16.7364
 30
0.0
 10
59.9567
 20
16.7364
 30
0.0
 10
59.9567
 20
16.7364
 30
0.0
 10
27.32
 20
16.7364
 30
0.0
 10
27.32
 20
16.7364
 30
0.0
 10
27.32
 20
16.7364
 30
0.0
 10
27.32
 20
16.7364
 30
0.0
 10
23.8596
 20
16.6767
 30
0.0
 10
23.8596
 20
16.6767
 30
0.0
 10
23.8596
 20
16.6767
 30
0.0
 10
23.8596
 20
16.6767
 30
0.0
 10
23.1698
 20
15.8585
 30
0.0
 10
23.1698
 20
15.8585
 30
0.0
 10
23.1698
 20
15.8585
 30
0.0
 10
23.1698
 20
15.8585
 30
0.0
 10
22.4164
 20
15.2283
 30
0.0
 10
22.4164
 20
15.2283
 30
0.0
 10
22.4164
 20
15.2283
 30
0.0
 10
22.4164
 20
15.2283
 30
0.0
 10
21.4069
 20
14.9167
 30
0.0
 10
21.4069
 20
14.9167
 30
0.0
 10
21.4069
 20
14.9167
 30
0.0
 10
21.4069
 20
14.9167
 30
0.0
 10
4.1526
 20
15.7181
 30
0.0
 10
4.1526
 20
15.7181
 30
0.0
 10
4.1526
 20
15.7181
 30
0.0
 10
4.1526
 20
15.7181
 30
0.0
 10
4.1331
 20
14.5343
 30
0.0
 10
4.1331
 20
14.5343
 30
0.0
 10
4.1331
 20
14.5343
 30
0.0
 10
4.1331
 20
14.5343
 30
0.0
 10
3.9612
 20
13.8433
 30
0.0
 10
3.9612
 20
13.8433
 30
0.0
 10
3.9612
 20
13.8433
 30
0.0
 10
3.9612
 20
13.8433
 30
0.0
 10
3.4246
 20
13.1223
 30
0.0
 10
3.4246
 20
13.1223
 30
0.0
 10
3.4246
 20
13.1223
 30
0.0
 10
3.4246
 20
13.1223
 30
0.0
 10
2.7215
 20
12.7269
 30
0.0
 10
2.7215
 20
12.7269
 30
0.0
 10
2.7215
 20
12.7269
 30
0.0
 10
2.7215
 20
12.7269
 30
0.0
 10
1.7216
 20
12.6507
 30
0.0
 10
1.7216
 20
12.6507
 30
0.0
 10
1.7216
 20
12.6507
 30
0.0
 10
1.7216
 20
12.6507
 30
0.0
 10
-42.2681
 20
12.6541
 30
0.0
 10
-42.2681
 20
12.6541
 30
0.0
 10
-42.2681
 20
12.6541
 30
0.0
 10
-42.2681
 20
12.6541
 30
0.0
 10
-43.0793
 20
12.9627
 30
0.0
 10
-43.0793
 20
12.9627
 30
0.0
 10
-43.0793
 20
12.9627
 30
0.0
 10
-43.0793
 20
12.9627
 30
0.0
 10
-43.6522
 20
13.5421
 30
0.0
 10
-43.6522
 20
13.5421
 30
0.0
 10
-43.6522
 20
13.5421
 30
0.0
 10
-43.6522
 20
13.5421
 30
0.0
 10
-43.9652
 20
14.3633
 30
0.0
 10
-43.9652
 20
14.3633
 30
0.0
 10
-43.9652
 20
14.3633
 30
0.0
 10
-43.9652
 20
14.3633
 30
0.0
 10
-44.0957
 20
15.689
 30
0.0
 10
-44.0957
 20
15.689
 30
0.0
 10
-44.0957
 20
15.689
 30
0.0
 10
-44.0957
 20
15.689
 30
0.0
 10
-44.051
 20
18.2443
 30
0.0
 10
-44.051
 20
18.2443
 30
0.0
 10
-44.051
 20
18.2443
 30
0.0
 10
-44.051
 20
18.2443
 30
0.0
 10
-49.4305
 20
18.5588
 30
0.0
 10
-49.4305
 20
18.5588
 30
0.0
 10
-49.4305
 20
18.5588
 30
0.0
 10
-49.4305
 20
18.5588
 30
0.0
 10
-50.3314
 20
18.913
 30
0.0
 10
-50.3314
 20
18.913
 30
0.0
 10
-50.3314
 20
18.913
 30
0.0
 10
-50.3314
 20
18.913
 30
0.0
 10
-50.9343
 20
19.421
 30
0.0
 10
-50.9343
 20
19.421
 30
0.0
 10
-50.9343
 20
19.421
 30
0.0
 10
-50.9343
 20
19.421
 30
0.0
 10
-51.3832
 20
20.0809
 30
0.0
 10
-51.3832
 20
20.0809
 30
0.0
 10
-51.3832
 20
20.0809
 30
0.0
 10
-51.3832
 20
20.0809
 30
0.0
 10
-51.6463
 20
21.207
 30
0.0
 10
-51.6463
 20
21.207
 30
0.0
 10
-51.6463
 20
21.207
 30
0.0
 10
-51.6463
 20
21.207
 30
0.0
 10
-52.3347
 20
54.1035
 30
0.0
 10
-52.3347
 20
54.1035
 30
0.0
 10
-52.3347
 20
54.1035
 30
0.0
 10
-52.3347
 20
54.1035
 30
0.0
 10
-56.3653
 20
54.3736
 30
0.0
 10
-56.3653
 20
54.3736
 30
0.0
 10
-56.3653
 20
54.3736
 30
0.0
 10
-56.3653
 20
54.3736
 30
0.0
 10
-56.4133
 20
57.6965
 30
0.0
 10
-56.4133
 20
57.6965
 30
0.0
  0
SPLINE
  5
44
330
1F
100
AcDbEntity
  8
Vrstva 1
 62
   250
370
    30
100
AcDbSpline
210
0.0
220
0.0
230
1.0
 70
    24
 71
     3
 72
     8
 73
     4
 74
     0
 42
0.0000000001
 43
0.0000000001
 40
0.0
 40
0.0
 40
0.0
 40
0.0
 40
1.0
 40
1.0
 40
1.0
 40
1.0
 10
61.3335
 20
-17.5916
 30
0.0
 10
61.3335
 20
-17.5916
 30
0.0
 10
61.3335
 20
-50.4221
 30
0.0
 10
61.3335
 20
-50.4221
 30
0.0
  0
SPLINE
  5
45
330
1F
100
AcDbEntity
  8
Vrstva 1
 62
   250
370
    30
100
AcDbSpline
210
0.0
220
0.0
230
1.0
 70
    24
 71
     3
 72
     8
 73
     4
 74
     0
 42
0.0000000001
 43
0.0000000001
 40
0.0
 40
0.0
 40
0.0
 40
0.0
 40
1.0
 40
1.0
 40
1.0
 40
1.0
 10
61.3335
 20
-21.7669
 30
0.0
 10
61.3335
 20
-21.7669
 30
0.0
 10
61.3335
 20
-50.3961
 30
0.0
 10
61.3335
 20
-50.3961
 30
0.0
  0
SPLINE
  5
46
330
1F
100
AcDbEntity
  8
Vrstva 1
 62
   250
370
    30
100
AcDbSpline
210
0.0
220
0.0
230
1.0
 70
    24
 71
     3
 72
     8
 73
     4
 74
     0
 42
0.0000000001
 43
0.0000000001
 40
0.0
 40
0.0
 40
0.0
 40
0.0
 40
1.0
 40
1.0
 40
1.0
 40
1.0
 10
59.9567
 20
-51.2165
 30
0.0
 10
59.9567
 20
-51.2165
 30
0.0
 10
59.9567
 20
-16.7964
 30
0.0
 10
59.9567
 20
-16.7964
 30
0.0
  0
SPLINE
  5
47
330
1F
100
AcDbEntity
  8
Vrstva 1
 62
   250
370
    30
100
AcDbSpline
210
0.0
220
0.0
230
1.0
 70
     8
 71
     3
 72
    12
 73
     8
 74
     0
 42
0.0000000001
 43
0.0000000001
 40
0.0
 40
0.0
 40
0.0
 40
0.0
 40
0.3333333333333333
 40
0.3333333333333333
 40
0.3333333333333333
 40
0.3333333333333333
 40
1.0
 40
1.0
 40
1.0
 40
1.0
 10
61.3335
 20
-50.4221
 30
0.0
 10
61.3335
 20
-50.4221
 30
0.0
 10
59.9567
 20
-51.2165
 30
0.0
 10
59.9567
 20
-51.2165
 30
0.0
 10
59.9567
 20
-51.2165
 30
0.0
 10
59.9567
 20
-51.2165
 30
0.0
 10
21.9295
 20
-51.2165
 30
0.0
 10
21.9295
 20
-51.2165
 30
0.0
  0
SPLINE
  5
48
330
1F
100
AcDbEntity
  8
Vrstva 1
 62
   250
370
    30
100
AcDbSpline
210
0.0
220
0.0
230
1.0
 70
     8
 71
     3
 72
    20
 73
    16
 74
     0
 42
0.0000000001
 43
0.0000000001
 40
0.0
 40
0.0
 40
0.0
 40
0.0
 40
0.2
 40
0.2
 40
0.2
 40
0.2
 40
0.4
 40
0.4
 40
0.4
 40
0.4
 40
0.6
 40
0.6
 40
0.6
 40
0.6
 40
1.0
 40
1.0
 40
1.0
 40
1.0
 10
21.9295
 20
-16.7964
 30
0.0
 10
21.9295
 20
-16.7964
 30
0.0
 10
23.3064
 20
-16.7964
 30
0.0
 10
23.3064
 20
-16.7964
 30
0.0
 10
23.3064
 20
-16.7964
 30
0.0
 10
23.3064
 20
-16.7964
 30
0.0
 10
58.58
 20
-16.7964
 30
0.0
 10
58.58
 20
-16.7964
 30
0.0
 10
58.58
 20
-16.7964
 30
0.0
 10
58.58
 20
-16.7964
 30
0.0
 10
59.9567
 20
-16.7964
 30
0.0
 10
59.9567
 20
-16.7964
 30
0.0
 10
59.9567
 20
-16.7964
 30
0.0
 10
59.9567
 20
-16.7964
 30
0.0
 10
61.3335
 20
-17.5916
 30
0.0
 10
61.3335
 20
-17.5916
 30
0.0
  0
SPLINE
  5
49
330
1F
100
AcDbEntity
  8
Vrstva 1
 62
   250
370
    30
100
AcDbSpline
210
0.0
220
0.0
230
1.0
 70
    11
 71
     3
 72
    64
 73
    60
 74
     0
 42
0.0000000001
 43
0.0000000001
 40
0.0
 40
0.0
 40
0.0
 40
0.0
 40
0.0625
 40
0.0625
 40
0.0625
 40
0.0625
 40
0.125
 40
0.125
 40
0.125
 40
0.125
 40
0.1875
 40
0.1875
 40
0.1875
 40
0.1875
 40
0.25
 40
0.25
 40
0.25
 40
0.25
 40
0.3125
 40
0.3125
 40
0.3125
 40
0.3125
 40
0.375
 40
0.375
 40
0.375
 40
0.375
 40
0.4375
 40
0.4375
 40
0.4375
 40
0.4375
 40
0.5
 40
0.5
 40
0.5
 40
0.5
 40
0.5625
 40
0.5625
 40
0.5625
 40
0.5625
 40
0.625
 40
0.625
 40
0.625
 40
0.625
 40
0.6875
 40
0.6875
 40
0.6875
 40
0.6875
 40
0.75
 40
0.75
 40
0.75
 40
0.75
 40
0.8125
 40
0.8125
 40
0.8125
 40
0.8125
 40
0.875
 40
0.875
 40
0.875
 40
0.875
 40
1.0
 40
1.0
 40
1.0
 40
1.0
 10
-3.514
 20
-34.0066
 30
0.0
 10
-3.573
 20
-32.2014
 30
0.0
 10
-3.8001
 20
-30.4587
 30
0.0
 10
-4.3834
 20
-28.7403
 30
0.0
 10
-4.3834
 20
-28.7403
 30
0.0
 10
-6.0074
 20
-23.9567
 30
0.0
 10
-9.848
 20
-20.1156
 30
0.0
 10
-14.6313
 20
-18.4919
 30
0.0
 10
-14.6313
 20
-18.4919
 30
0.0
 10
-16.3499
 20
-17.9087
 30
0.0
 10
-18.0926
 20
-17.6817
 30
0.0
 10
-19.8978
 20
-17.6226
 30
0.0
 10
-19.8978
 20
-17.6226
 30
0.0
 10
-20.9787
 20
-17.6576
 30
0.0
 10
-22.0307
 20
-17.7258
 30
0.0
 10
-23.0944
 20
-17.9375
 30
0.0
 10
-23.0944
 20
-17.9375
 30
0.0
 10
-25.199
 20
-18.3559
 30
0.0
 10
-27.2162
 20
-19.1912
 30
0.0
 10
-29.0004
 20
-20.3839
 30
0.0
 10
-29.0004
 20
-20.3839
 30
0.0
 10
-31.0829
 20
-21.7752
 30
0.0
 10
-32.8348
 20
-23.6454
 30
0.0
 10
-34.0869
 20
-25.8144
 30
0.0
 10
-34.0869
 20
-25.8144
 30
0.0
 10
-35.1599
 20
-27.6729
 30
0.0
 10
-35.862
 20
-29.7404
 30
0.0
 10
-36.142
 20
-31.8682
 30
0.0
 10
-36.142
 20
-31.8682
 30
0.0
 10
-36.4218
 20
-33.9958
 30
0.0
 10
-36.2794
 20
-36.1745
 30
0.0
 10
-35.724
 20
-38.247
 30
0.0
 10
-35.724
 20
-38.247
 30
0.0
 10
-35.261
 20
-39.9739
 30
0.0
 10
-34.5142
 20
-41.623
 30
0.0
 10
-33.5207
 20
-43.1095
 30
0.0
 10
-33.5207
 20
-43.1095
 30
0.0
 10
-32.7265
 20
-44.2979
 30
0.0
 10
-31.7758
 20
-45.3821
 30
0.0
 10
-30.7009
 20
-46.3248
 30
0.0
 10
-30.7009
 20
-46.3248
 30
0.0
 10
-26.3414
 20
-50.1478
 30
0.0
 10
-20.1217
 20
-51.3851
 30
0.0
 10
-14.6313
 20
-49.5216
 30
0.0
 10
-14.6313
 20
-49.5216
 30
0.0
 10
-12.9386
 20
-48.9467
 30
0.0
 10
-11.342
 20
-48.0935
 30
0.0
 10
-9.924
 20
-47.005
 30
0.0
 10
-9.924
 20
-47.005
 30
0.0
 10
-8.2216
 20
-45.6985
 30
0.0
 10
-6.782
 20
-44.0573
 30
0.0
 10
-5.7092
 20
-42.1987
 30
0.0
 10
-5.7092
 20
-42.1987
 30
0.0
 10
-4.6357
 20
-40.3402
 30
0.0
 10
-3.9344
 20
-38.2727
 30
0.0
 10
-3.6541
 20
-36.1451
 30
0.0
 10
-3.6541
 20
-36.1451
 30
0.0
 10
-3.5293
 20
-35.199
 30
0.0
 10
-3.5451
 20
-34.9592
 30
0.0
 10
-3.514
 20
-34.0066
 30
0.0
  0
SPLINE
  5
4A
330
1F
100
AcDbEntity
  8
Vrstva 1
 62
   250
370
    30
100
AcDbSpline
210
0.0
220
0.0
230
1.0
 70
     8
 71
     3
 72
    24
 73
    20
 74
     0
 42
0.0000000001
 43
0.0000000001
 40
0.0
 40
0.0
 40
0.0
 40
0.0
 40
0.1666666666666667
 40
0.1666666666666667
 40
0.1666666666666667
 40
0.1666666666666667
 40
0.3333333333333333
 40
0.3333333333333333
 40
0.3333333333333333
 40
0.3333333333333333
 40
0.5
 40
0.5
 40
0.5
 40
0.5
 40
0.6666666666666666
 40
0.6666666666666666
 40
0.6666666666666666
 40
0.6666666666666666
 40
1.0
 40
1.0
 40
1.0
 40
1.0
 10
16.6022
 20
-12.7178
 30
0.0
 10
19.8616
 20
-14.6482
 30
0.0
 10
22.6755
 20
-17.1461
 30
0.0
 10
24.8063
 20
-20.2957
 30
0.0
 10
24.8063
 20
-20.2957
 30
0.0
 10
29.4217
 20
-27.1179
 30
0.0
 10
30.2788
 20
-36.0242
 30
0.0
 10
27.0491
 20
-43.6012
 30
0.0
 10
27.0491
 20
-43.6012
 30
0.0
 10
26.1899
 20
-45.6172
 30
0.0
 10
25.0586
 20
-47.5156
 30
0.0
 10
23.6953
 20
-49.231
 30
0.0
 10
23.6953
 20
-49.231
 30
0.0
 10
22.3321
 20
-50.9464
 30
0.0
 10
20.7378
 20
-52.4767
 30
0.0
 10
18.9678
 20
-53.769
 30
0.0
 10
18.9678
 20
-53.769
 30
0.0
 10
17.8335
 20
-54.5969
 30
0.0
 10
16.6241
 20
-55.2829
 30
0.0
 10
15.4038
 20
-55.9732
 30
0.0
  0
SPLINE
  5
4B
330
1F
100
AcDbEntity
  8
Vrstva 1
 62
   250
370
    30
100
AcDbSpline
210
0.0
220
0.0
230
1.0
 70
    24
 71
     3
 72
     8
 73
     4
 74
     0
 42
0.0000000001
 43
0.0000000001
 40
0.0
 40
0.0
 40
0.0
 40
0.0
 40
1.0
 40
1.0
 40
1.0
 40
1.0
 10
15.4038
 20
-55.9732
 30
0.0
 10
15.4038
 20
-55.9732
 30
0.0
 10
-1.8142
 20
-65.7063
 30
0.0
 10
-1.8142
 20
-65.7063
 30
0.0
  0
SPLINE
  5
4C
330
1F
100
AcDbEntity
  8
Vrstva 1
 62
   250
370
    30
100
AcDbSpline
210
0.0
220
0.0
230
1.0
 70
     8
 71
     3
 72
    56
 73
    52
 74
     0
 42
0.0000000001
 43
0.0000000001
 40
0.0
 40
0.0
 40
0.0
 40
0.0
 40
0.0714285714285714
 40
0.0714285714285714
 40
0.0714285714285714
 40
0.0714285714285714
 40
0.1428571428571428
 40
0.1428571428571428
 40
0.1428571428571428
 40
0.1428571428571428
 40
0.2142857142857143
 40
0.2142857142857143
 40
0.2142857142857143
 40
0.2142857142857143
 40
0.2857142857142857
 40
0.2857142857142857
 40
0.2857142857142857
 40
0.2857142857142857
 40
0.3571428571428572
 40
0.3571428571428572
 40
0.3571428571428572
 40
0.3571428571428572
 40
0.4285714285714285
 40
0.4285714285714285
 40
0.4285714285714285
 40
0.4285714285714285
 40
0.5
 40
0.5
 40
0.5
 40
0.5
 40
0.5714285714285714
 40
0.5714285714285714
 40
0.5714285714285714
 40
0.5714285714285714
 40
0.6428571428571429
 40
0.6428571428571429
 40
0.6428571428571429
 40
0.6428571428571429
 40
0.7142857142857143
 40
0.7142857142857143
 40
0.7142857142857143
 40
0.7142857142857143
 40
0.7857142857142857
 40
0.7857142857142857
 40
0.7857142857142857
 40
0.7857142857142857
 40
0.8571428571428571
 40
0.8571428571428571
 40
0.8571428571428571
 40
0.8571428571428571
 40
1.0
 40
1.0
 40
1.0
 40
1.0
 10
-1.8142
 20
-65.7063
 30
0.0
 10
-4.8055
 20
-67.3967
 30
0.0
 10
-7.9688
 20
-68.6897
 30
0.0
 10
-11.3134
 20
-69.4984
 30
0.0
 10
-11.3134
 20
-69.4984
 30
0.0
 10
-14.2116
 20
-70.1996
 30
0.0
 10
-17.1443
 20
-70.4877
 30
0.0
 10
-20.12
 20
-70.5214
 30
0.0
 10
-20.12
 20
-70.5214
 30
0.0
 10
-21.817
 20
-70.4815
 30
0.0
 10
-23.4985
 20
-70.3838
 30
0.0
 10
-25.1803
 20
-70.1381
 30
0.0
 10
-25.1803
 20
-70.1381
 30
0.0
 10
-28.9504
 20
-69.5867
 30
0.0
 10
-32.6299
 20
-68.4418
 30
0.0
 10
-36.047
 20
-66.757
 30
0.0
 10
-36.047
 20
-66.757
 30
0.0
 10
-40.2246
 20
-64.697
 30
0.0
 10
-43.9964
 20
-61.8337
 30
0.0
 10
-47.1037
 20
-58.363
 30
0.0
 10
-47.1037
 20
-58.363
 30
0.0
 10
-50.1284
 20
-54.9846
 30
0.0
 10
-52.4824
 20
-51.0573
 30
0.0
 10
-54.0726
 20
-46.8147
 30
0.0
 10
-54.0726
 20
-46.8147
 30
0.0
 10
-55.6094
 20
-42.7148
 30
0.0
 10
-56.3836
 20
-38.3845
 30
0.0
 10
-56.4133
 20
-34.0066
 30
0.0
 10
-56.4133
 20
-34.0066
 30
0.0
 10
-56.4363
 20
-30.6274
 30
0.0
 10
-55.9368
 20
-27.2264
 30
0.0
 10
-55.0095
 20
-23.9793
 30
0.0
 10
-55.0095
 20
-23.9793
 30
0.0
 10
-53.3246
 20
-18.0797
 30
0.0
 10
-50.1228
 20
-12.618
 30
0.0
 10
-45.7969
 20
-8.265
 30
0.0
 10
-45.7969
 20
-8.265
 30
0.0
 10
-41.326
 20
-3.7672
 30
0.0
 10
-35.6452
 20
-0.4561
 30
0.0
 10
-29.5274
 20
1.2158
 30
0.0
 10
-29.5274
 20
1.2158
 30
0.0
 10
-26.0813
 20
2.1581
 30
0.0
 10
-22.498
 20
2.5711
 30
0.0
 10
-18.9302
 20
2.4762
 30
0.0
 10
-18.9302
 20
2.4762
 30
0.0
 10
-14.5688
 20
2.3607
 30
0.0
 10
-10.2288
 20
1.4751
 30
0.0
 10
-6.1813
 20
-0.1656
 30
0.0
 10
-6.1813
 20
-0.1656
 30
0.0
 10
-4.7062
 20
-0.7635
 30
0.0
 10
-3.3051
 20
-1.4983
 30
0.0
 10
-1.8975
 20
-2.2365
 30
0.0
  0
SPLINE
  5
4D
330
1F
100
AcDbEntity
  8
Vrstva 1
 62
   250
370
    30
100
AcDbSpline
210
0.0
220
0.0
230
1.0
 70
     8
 71
     3
 72
    28
 73
    24
 74
     0
 42
0.0000000001
 43
0.0000000001
 40
0.0
 40
0.0
 40
0.0
 40
0.0
 40
0.1428571428571428
 40
0.1428571428571428
 40
0.1428571428571428
 40
0.1428571428571428
 40
0.2857142857142857
 40
0.2857142857142857
 40
0.2857142857142857
 40
0.2857142857142857
 40
0.4285714285714285
 40
0.4285714285714285
 40
0.4285714285714285
 40
0.4285714285714285
 40
0.5714285714285714
 40
0.5714285714285714
 40
0.5714285714285714
 40
0.5714285714285714
 40
0.7142857142857143
 40
0.7142857142857143
 40
0.7142857142857143
 40
0.7142857142857143
 40
1.0
 40
1.0
 40
1.0
 40
1.0
 10
16.6022
 20
-55.2955
 30
0.0
 10
17.5217
 20
-54.7336
 30
0.0
 10
18.4367
 20
-54.1748
 30
0.0
 10
19.2977
 20
-53.5237
 30
0.0
 10
19.2977
 20
-53.5237
 30
0.0
 10
21.4367
 20
-51.9065
 30
0.0
 10
23.3228
 20
-49.9165
 30
0.0
 10
24.8226
 20
-47.6932
 30
0.0
 10
24.8226
 20
-47.6932
 30
0.0
 10
27.8355
 20
-43.2292
 30
0.0
 10
29.3103
 20
-37.7682
 30
0.0
 10
28.9552
 20
-32.3939
 30
0.0
 10
28.9552
 20
-32.3939
 30
0.0
 10
28.6363
 20
-27.5631
 30
0.0
 10
26.8431
 20
-22.8391
 30
0.0
 10
23.8764
 20
-19.0133
 30
0.0
 10
23.8764
 20
-19.0133
 30
0.0
 10
22.5621
 20
-17.3184
 30
0.0
 10
21.0081
 20
-15.7831
 30
0.0
 10
19.2977
 20
-14.4895
 30
0.0
 10
19.2977
 20
-14.4895
 30
0.0
 10
18.07
 20
-13.5612
 30
0.0
 10
16.7407
 20
-12.7959
 30
0.0
 10
15.4038
 20
-12.0405
 30
0.0
  0
SPLINE
  5
4E
330
1F
100
AcDbEntity
  8
Vrstva 1
 62
   250
370
    30
100
AcDbSpline
210
0.0
220
0.0
230
1.0
 70
    24
 71
     3
 72
     8
 73
     4
 74
     0
 42
0.0000000001
 43
0.0000000001
 40
0.0
 40
0.0
 40
0.0
 40
0.0
 40
1.0
 40
1.0
 40
1.0
 40
1.0
 10
15.4038
 20
-12.0405
 30
0.0
 10
15.4038
 20
-12.0405
 30
0.0
 10
-1.8142
 20
-2.3072
 30
0.0
 10
-1.8142
 20
-2.3072
 30
0.0
  0
SPLINE
  5
4F
330
1F
100
AcDbEntity
  8
Vrstva 1
 62
   250
370
    30
100
AcDbSpline
210
0.0
220
0.0
230
1.0
 70
     8
 71
     3
 72
    56
 73
    52
 74
     0
 42
0.0000000001
 43
0.0000000001
 40
0.0
 40
0.0
 40
0.0
 40
0.0
 40
0.0714285714285714
 40
0.0714285714285714
 40
0.0714285714285714
 40
0.0714285714285714
 40
0.1428571428571428
 40
0.1428571428571428
 40
0.1428571428571428
 40
0.1428571428571428
 40
0.2142857142857143
 40
0.2142857142857143
 40
0.2142857142857143
 40
0.2142857142857143
 40
0.2857142857142857
 40
0.2857142857142857
 40
0.2857142857142857
 40
0.2857142857142857
 40
0.3571428571428572
 40
0.3571428571428572
 40
0.3571428571428572
 40
0.3571428571428572
 40
0.4285714285714285
 40
0.4285714285714285
 40
0.4285714285714285
 40
0.4285714285714285
 40
0.5
 40
0.5
 40
0.5
 40
0.5
 40
0.5714285714285714
 40
0.5714285714285714
 40
0.5714285714285714
 40
0.5714285714285714
 40
0.6428571428571429
 40
0.6428571428571429
 40
0.6428571428571429
 40
0.6428571428571429
 40
0.7142857142857143
 40
0.7142857142857143
 40
0.7142857142857143
 40
0.7142857142857143
 40
0.7857142857142857
 40
0.7857142857142857
 40
0.7857142857142857
 40
0.7857142857142857
 40
0.8571428571428571
 40
0.8571428571428571
 40
0.8571428571428571
 40
0.8571428571428571
 40
1.0
 40
1.0
 40
1.0
 40
1.0
 10
-1.8142
 20
-2.3072
 30
0.0
 10
-4.8055
 20
-0.6164
 30
0.0
 10
-7.9688
 20
0.6766
 30
0.0
 10
-11.3134
 20
1.4851
 30
0.0
 10
-11.3134
 20
1.4851
 30
0.0
 10
-14.2116
 20
2.186
 30
0.0
 10
-17.1443
 20
2.4741
 30
0.0
 10
-20.12
 20
2.5083
 30
0.0
 10
-20.12
 20
2.5083
 30
0.0
 10
-21.817
 20
2.4681
 30
0.0
 10
-23.4985
 20
2.3707
 30
0.0
 10
-25.1803
 20
2.1243
 30
0.0
 10
-25.1803
 20
2.1243
 30
0.0
 10
-28.9504
 20
1.5733
 30
0.0
 10
-32.6299
 20
0.4286
 30
0.0
 10
-36.047
 20
-1.2563
 30
0.0
 10
-36.047
 20
-1.2563
 30
0.0
 10
-40.2246
 20
-3.3163
 30
0.0
 10
-43.9964
 20
-6.1798
 30
0.0
 10
-47.1037
 20
-9.6499
 30
0.0
 10
-47.1037
 20
-9.6499
 30
0.0
 10
-50.1284
 20
-13.0288
 30
0.0
 10
-52.4824
 20
-16.9559
 30
0.0
 10
-54.0726
 20
-21.1984
 30
0.0
 10
-54.0726
 20
-21.1984
 30
0.0
 10
-55.6094
 20
-25.2983
 30
0.0
 10
-56.3836
 20
-29.6287
 30
0.0
 10
-56.4133
 20
-34.0066
 30
0.0
 10
-56.4133
 20
-34.0066
 30
0.0
 10
-56.4363
 20
-37.3854
 30
0.0
 10
-55.9368
 20
-40.787
 30
0.0
 10
-55.0095
 20
-44.0336
 30
0.0
 10
-55.0095
 20
-44.0336
 30
0.0
 10
-53.3246
 20
-49.9338
 30
0.0
 10
-50.1228
 20
-55.3954
 30
0.0
 10
-45.7969
 20
-59.7481
 30
0.0
 10
-45.7969
 20
-59.7481
 30
0.0
 10
-41.326
 20
-64.2465
 30
0.0
 10
-35.6452
 20
-67.557
 30
0.0
 10
-29.5274
 20
-69.2296
 30
0.0
 10
-29.5274
 20
-69.2296
 30
0.0
 10
-26.0813
 20
-70.1714
 30
0.0
 10
-22.498
 20
-70.5843
 30
0.0
 10
-18.9302
 20
-70.49
 30
0.0
 10
-18.9302
 20
-70.49
 30
0.0
 10
-14.5688
 20
-70.3745
 30
0.0
 10
-10.2288
 20
-69.4885
 30
0.0
 10
-6.1813
 20
-67.8478
 30
0.0
 10
-6.1813
 20
-67.8478
 30
0.0
 10
-4.7062
 20
-67.2498
 30
0.0
 10
-3.3051
 20
-66.515
 30
0.0
 10
-1.8975
 20
-65.7772
 30
0.0
  0
SPLINE
  5
50
330
1F
100
AcDbEntity
  8
Vrstva 1
 62
   250
370
    30
100
AcDbSpline
210
0.0
220
0.0
230
1.0
 70
     8
 71
     3
 72
    48
 73
    44
 74
     0
 42
0.0000000001
 43
0.0000000001
 40
0.0
 40
0.0
 40
0.0
 40
0.0
 40
0.0833333333333333
 40
0.0833333333333333
 40
0.0833333333333333
 40
0.0833333333333333
 40
0.1666666666666667
 40
0.1666666666666667
 40
0.1666666666666667
 40
0.1666666666666667
 40
0.25
 40
0.25
 40
0.25
 40
0.25
 40
0.3333333333333333
 40
0.3333333333333333
 40
0.3333333333333333
 40
0.3333333333333333
 40
0.4166666666666667
 40
0.4166666666666667
 40
0.4166666666666667
 40
0.4166666666666667
 40
0.5
 40
0.5
 40
0.5
 40
0.5
 40
0.5833333333333334
 40
0.5833333333333334
 40
0.5833333333333334
 40
0.5833333333333334
 40
0.6666666666666666
 40
0.6666666666666666
 40
0.6666666666666666
 40
0.6666666666666666
 40
0.75
 40
0.75
 40
0.75
 40
0.75
 40
0.8333333333333334
 40
0.8333333333333334
 40
0.8333333333333334
 40
0.8333333333333334
 40
1.0
 40
1.0
 40
1.0
 40
1.0
 10
-14.3434
 20
-14.831
 30
0.0
 10
-11.5351
 20
-15.706
 30
0.0
 10
-8.9596
 20
-17.0463
 30
0.0
 10
-6.735
 20
-18.997
 30
0.0
 10
-6.735
 20
-18.997
 30
0.0
 10
-1.7664
 20
-23.3543
 30
0.0
 10
0.7574
 20
-30.0606
 30
0.0
 10
-0.1053
 20
-36.6126
 30
0.0
 10
-0.1053
 20
-36.6126
 30
0.0
 10
-0.3326
 20
-38.3401
 30
0.0
 10
-0.7872
 20
-40.0363
 30
0.0
 10
-1.4539
 20
-41.6465
 30
0.0
 10
-1.4539
 20
-41.6465
 30
0.0
 10
-2.2876
 20
-43.6587
 30
0.0
 10
-3.4523
 20
-45.5318
 30
0.0
 10
-4.8883
 20
-47.1698
 30
0.0
 10
-4.8883
 20
-47.1698
 30
0.0
 10
-6.6123
 20
-49.1357
 30
0.0
 10
-8.7231
 20
-50.7549
 30
0.0
 10
-11.0681
 20
-51.9114
 30
0.0
 10
-11.0681
 20
-51.9114
 30
0.0
 10
-13.0221
 20
-52.8751
 30
0.0
 10
-15.1325
 20
-53.515
 30
0.0
 10
-17.2922
 20
-53.7993
 30
0.0
 10
-17.2922
 20
-53.7993
 30
0.0
 10
-18.445
 20
-53.9511
 30
0.0
 10
-18.7374
 20
-53.9323
 30
0.0
 10
-19.8978
 20
-53.97
 30
0.0
 10
-19.8978
 20
-53.97
 30
0.0
 10
-21.0583
 20
-53.9323
 30
0.0
 10
-21.3505
 20
-53.9511
 30
0.0
 10
-22.5036
 20
-53.7993
 30
0.0
 10
-22.5036
 20
-53.7993
 30
0.0
 10
-24.2313
 20
-53.5724
 30
0.0
 10
-25.9281
 20
-53.1175
 30
0.0
 10
-27.5375
 20
-52.4506
 30
0.0
 10
-27.5375
 20
-52.4506
 30
0.0
 10
-33.6431
 20
-49.922
 30
0.0
 10
-38.189
 20
-44.3827
 30
0.0
 10
-39.4778
 20
-37.9013
 30
0.0
 10
-39.4778
 20
-37.9013
 30
0.0
 10
-39.9475
 20
-35.5403
 30
0.0
 10
-39.9398
 20
-33.1763
 30
0.0
 10
-39.6031
 20
-30.804
 30
0.0
  0
SPLINE
  5
51
330
1F
100
AcDbEntity
  8
Vrstva 1
 62
   250
370
    30
100
AcDbSpline
210
0.0
220
0.0
230
1.0
 70
     8
 71
     3
 72
    12
 73
     8
 74
     0
 42
0.0000000001
 43
0.0000000001
 40
0.0
 40
0.0
 40
0.0
 40
0.0
 40
0.3333333333333333
 40
0.3333333333333333
 40
0.3333333333333333
 40
0.3333333333333333
 40
1.0
 40
1.0
 40
1.0
 40
1.0
 10
-38.342
 20
-26.3667
 30
0.0
 10
-38.8064
 20
-27.6
 30
0.0
 10
-39.2202
 20
-28.816
 30
0.0
 10
-39.4778
 20
-30.1117
 30
0.0
 10
-39.4778
 20
-30.1117
 30
0.0
 10
-39.8938
 20
-32.2026
 30
0.0
 10
-39.9296
 20
-34.3006
 30
0.0
 10
-39.7161
 20
-36.4128
 30
0.0
  0
SPLINE
  5
52
330
1F
100
AcDbEntity
  8
Vrstva 1
 62
   250
370
    30
100
AcDbSpline
210
0.0
220
0.0
230
1.0
 70
     8
 71
     3
 72
    16
 73
    12
 74
     0
 42
0.0000000001
 43
0.0000000001
 40
0.0
 40
0.0
 40
0.0
 40
0.0
 40
0.25
 40
0.25
 40
0.25
 40
0.25
 40
0.5
 40
0.5
 40
0.5
 40
0.5
 40
1.0
 40
1.0
 40
1.0
 40
1.0
 10
-37.8029
 20
-25.1769
 30
0.0
 10
-36.7654
 20
-23.2358
 30
0.0
 10
-35.5781
 20
-21.454
 30
0.0
 10
-34.0146
 20
-19.8899
 30
0.0
 10
-34.0146
 20
-19.8899
 30
0.0
 10
-30.6113
 20
-16.4871
 30
0.0
 10
-26.006
 20
-14.4002
 30
0.0
 10
-21.2038
 20
-14.0856
 30
0.0
 10
-21.2038
 20
-14.0856
 30
0.0
 10
-19.686
 20
-13.9861
 30
0.0
 10
-18.1973
 20
-14.0884
 30
0.0
 10
-16.6955
 20
-14.3015
 30
0.0
  0
SPLINE
  5
53
330
1F
100
AcDbEntity
  8
Vrstva 1
 62
   250
370
    30
100
AcDbSpline
210
0.0
220
0.0
230
1.0
 70
    24
 71
     3
 72
     8
 73
     4
 74
     0
 42
0.0000000001
 43
0.0000000001
 40
0.0
 40
0.0
 40
0.0
 40
0.0
 40
1.0
 40
1.0
 40
1.0
 40
1.0
 10
-39.4584
 20
-37.9998
 30
0.0
 10
-39.4584
 20
-37.9998
 30
0.0
 10
-39.7161
 20
-36.4128
 30
0.0
 10
-39.7161
 20
-36.4128
 30
0.0
  0
SPLINE
  5
54
330
1F
100
AcDbEntity
  8
Vrstva 1
 62
   250
370
    30
100
AcDbSpline
210
0.0
220
0.0
230
1.0
 70
     8
 71
     3
 72
     8
 73
     4
 74
     0
 42
0.0000000001
 43
0.0000000001
 40
0.0
 40
0.0
 40
0.0
 40
0.0
 40
1.0
 40
1.0
 40
1.0
 40
1.0
 10
-38.5643
 20
-41.0858
 30
0.0
 10
-38.8358
 20
-40.324
 30
0.0
 10
-39.0723
 20
-39.566
 30
0.0
 10
-39.2816
 20
-38.7842
 30
0.0
  0
SPLINE
  5
55
330
1F
100
AcDbEntity
  8
Vrstva 1
 62
   250
370
    30
100
AcDbSpline
210
0.0
220
0.0
230
1.0
 70
     8
 71
     3
 72
     8
 73
     4
 74
     0
 42
0.0000000001
 43
0.0000000001
 40
0.0
 40
0.0
 40
0.0
 40
0.0
 40
1.0
 40
1.0
 40
1.0
 40
1.0
 10
-39.0735
 20
-28.4525
 30
0.0
 10
-39.2826
 20
-29.2339
 30
0.0
 10
-39.4572
 20
-30.0083
 30
0.0
 10
-39.6031
 20
-30.804
 30
0.0
  0
SPLINE
  5
56
330
1F
100
AcDbEntity
  8
Vrstva 1
 62
   250
370
    30
100
AcDbSpline
210
0.0
220
0.0
230
1.0
 70
     8
 71
     3
 72
     8
 73
     4
 74
     0
 42
0.0000000001
 43
0.0000000001
 40
0.0
 40
0.0
 40
0.0
 40
0.0
 40
1.0
 40
1.0
 40
1.0
 40
1.0
 10
-37.5748
 20
-24.729
 30
0.0
 10
-37.9362
 20
-25.4529
 30
0.0
 10
-38.2621
 20
-26.1768
 30
0.0
 10
-38.5643
 20
-26.9277
 30
0.0
  0
SPLINE
  5
57
330
1F
100
AcDbEntity
  8
Vrstva 1
 62
   250
370
    30
100
AcDbSpline
210
0.0
220
0.0
230
1.0
 70
     8
 71
     3
 72
    12
 73
     8
 74
     0
 42
0.0000000001
 43
0.0000000001
 40
0.0
 40
0.0
 40
0.0
 40
0.0
 40
0.3333333333333333
 40
0.3333333333333333
 40
0.3333333333333333
 40
0.3333333333333333
 40
1.0
 40
1.0
 40
1.0
 40
1.0
 10
-31.8911
 20
-49.9667
 30
0.0
 10
-32.9507
 20
-49.136
 30
0.0
 10
-33.9466
 20
-48.2543
 30
0.0
 10
-34.841
 20
-47.2453
 30
0.0
 10
-34.841
 20
-47.2453
 30
0.0
 10
-35.5555
 20
-46.4385
 30
0.0
 10
-36.178
 20
-45.5741
 30
0.0
 10
-36.7712
 20
-44.6764
 30
0.0
  0
SPLINE
  5
58
330
1F
100
AcDbEntity
  8
Vrstva 1
 62
   250
370
    30
100
AcDbSpline
210
0.0
220
0.0
230
1.0
 70
     8
 71
     3
 72
     8
 73
     4
 74
     0
 42
0.0000000001
 43
0.0000000001
 40
0.0
 40
0.0
 40
0.0
 40
0.0
 40
1.0
 40
1.0
 40
1.0
 40
1.0
 10
-32.524
 20
-18.5425
 30
0.0
 10
-33.1401
 20
-19.067
 30
0.0
 10
-33.7239
 20
-19.605
 30
0.0
 10
-34.2958
 20
-20.1773
 30
0.0
  0
SPLINE
  5
59
330
1F
100
AcDbEntity
  8
Vrstva 1
 62
   250
370
    30
100
AcDbSpline
210
0.0
220
0.0
230
1.0
 70
     8
 71
     3
 72
     8
 73
     4
 74
     0
 42
0.0000000001
 43
0.0000000001
 40
0.0
 40
0.0
 40
0.0
 40
0.0
 40
1.0
 40
1.0
 40
1.0
 40
1.0
 10
-24.6757
 20
-14.6232
 30
0.0
 10
-26.2467
 20
-15.0441
 30
0.0
 10
-27.7203
 20
-15.6029
 30
0.0
 10
-29.1757
 20
-16.3294
 30
0.0
  0
SPLINE
  5
5A
330
1F
100
AcDbEntity
  8
Vrstva 1
 62
   250
370
    30
100
AcDbSpline
210
0.0
220
0.0
230
1.0
 70
     8
 71
     3
 72
     8
 73
     4
 74
     0
 42
0.0000000001
 43
0.0000000001
 40
0.0
 40
0.0
 40
0.0
 40
0.0
 40
1.0
 40
1.0
 40
1.0
 40
1.0
 10
-23.1005
 20
-53.7117
 30
0.0
 10
-23.8961
 20
-53.5658
 30
0.0
 10
-24.6705
 20
-53.3917
 30
0.0
 10
-25.4523
 20
-53.182
 30
0.0
  0
SPLINE
  5
5B
330
1F
100
AcDbEntity
  8
Vrstva 1
 62
   250
370
    30
100
AcDbSpline
210
0.0
220
0.0
230
1.0
 70
     8
 71
     3
 72
    16
 73
    12
 74
     0
 42
0.0000000001
 43
0.0000000001
 40
0.0
 40
0.0
 40
0.0
 40
0.0
 40
0.25
 40
0.25
 40
0.25
 40
0.25
 40
0.5
 40
0.5
 40
0.5
 40
0.5
 40
1.0
 40
1.0
 40
1.0
 40
1.0
 10
-7.9047
 20
-18.047
 30
0.0
 10
-10.3424
 20
-16.2907
 30
0.0
 10
-13.0425
 20
-15.0154
 30
0.0
 10
-16.0031
 20
-14.4264
 30
0.0
 10
-16.0031
 20
-14.4264
 30
0.0
 10
-17.2995
 20
-14.1686
 30
0.0
 10
-18.5808
 20
-14.0859
 30
0.0
 10
-19.8978
 20
-14.0428
 30
0.0
 10
-19.8978
 20
-14.0428
 30
0.0
 10
-21.5244
 20
-14.0755
 30
0.0
 10
-23.0889
 20
-14.2654
 30
0.0
 10
-24.6757
 20
-14.6232
 30
0.0
  0
SPLINE
  5
5C
330
1F
100
AcDbEntity
  8
Vrstva 1
 62
   250
370
    30
100
AcDbSpline
210
0.0
220
0.0
230
1.0
 70
     8
 71
     3
 72
     8
 73
     4
 74
     0
 42
0.0000000001
 43
0.0000000001
 40
0.0
 40
0.0
 40
0.0
 40
0.0
 40
1.0
 40
1.0
 40
1.0
 40
1.0
 10
-14.3434
 20
-14.831
 30
0.0
 10
-15.1252
 20
-14.622
 30
0.0
 10
-15.8999
 20
-14.4474
 30
0.0
 10
-16.6955
 20
-14.3015
 30
0.0
  0
SPLINE
  5
5D
330
1F
100
AcDbEntity
  8
Vrstva 1
 62
   250
370
    30
100
AcDbSpline
210
0.0
220
0.0
230
1.0
 70
     8
 71
     3
 72
     8
 73
     4
 74
     0
 42
0.0000000001
 43
0.0000000001
 40
0.0
 40
0.0
 40
0.0
 40
0.0
 40
1.0
 40
1.0
 40
1.0
 40
1.0
 10
-12.8188
 20
-52.6731
 30
0.0
 10
-13.5806
 20
-52.9447
 30
0.0
 10
-14.3388
 20
-53.1808
 30
0.0
 10
-15.1201
 20
-53.3902
 30
0.0
  0
SPLINE
  5
5E
330
1F
100
AcDbEntity
  8
Vrstva 1
 62
   250
370
    30
100
AcDbSpline
210
0.0
220
0.0
230
1.0
 70
    24
 71
     3
 72
     8
 73
     4
 74
     0
 42
0.0000000001
 43
0.0000000001
 40
0.0
 40
0.0
 40
0.0
 40
0.0
 40
1.0
 40
1.0
 40
1.0
 40
1.0
 10
-6.6594
 20
-19.0636
 30
0.0
 10
-6.6594
 20
-19.0636
 30
0.0
 10
-7.9047
 20
-18.047
 30
0.0
 10
-7.9047
 20
-18.047
 30
0.0
  0
SPLINE
  5
5F
330
1F
100
AcDbEntity
  8
Vrstva 1
 62
   250
370
    30
100
AcDbSpline
210
0.0
220
0.0
230
1.0
 70
     8
 71
     3
 72
     8
 73
     4
 74
     0
 42
0.0000000001
 43
0.0000000001
 40
0.0
 40
0.0
 40
0.0
 40
0.0
 40
1.0
 40
1.0
 40
1.0
 40
1.0
 10
-4.4342
 20
-21.3806
 30
0.0
 10
-4.9583
 20
-20.7644
 30
0.0
 10
-5.4967
 20
-20.181
 30
0.0
 10
-6.0688
 20
-19.6088
 30
0.0
  0
SPLINE
  5
60
330
1F
100
AcDbEntity
  8
Vrstva 1
 62
   250
370
    30
100
AcDbSpline
210
0.0
220
0.0
230
1.0
 70
     8
 71
     3
 72
     8
 73
     4
 74
     0
 42
0.0000000001
 43
0.0000000001
 40
0.0
 40
0.0
 40
0.0
 40
0.0
 40
1.0
 40
1.0
 40
1.0
 40
1.0
 10
-1.8619
 20
-25.4481
 30
0.0
 10
-2.3447
 20
-24.4821
 30
0.0
 10
-2.8726
 20
-23.5672
 30
0.0
 10
-3.4681
 20
-22.666
 30
0.0
  0
SPLINE
  5
61
330
1F
100
AcDbEntity
  8
Vrstva 1
 62
   250
370
    30
100
AcDbSpline
210
0.0
220
0.0
230
1.0
 70
     8
 71
     3
 72
     8
 73
     4
 74
     0
 42
0.0000000001
 43
0.0000000001
 40
0.0
 40
0.0
 40
0.0
 40
0.0
 40
1.0
 40
1.0
 40
1.0
 40
1.0
 10
-0.5145
 20
-29.2289
 30
0.0
 10
-0.7938
 20
-28.1857
 30
0.0
 10
-1.1287
 20
-27.1838
 30
0.0
 10
-1.5316
 20
-26.1816
 30
0.0
  0
SPLINE
  5
62
330
1F
100
AcDbEntity
  8
Vrstva 1
 62
   250
370
    30
100
AcDbSpline
210
0.0
220
0.0
230
1.0
 70
     8
 71
     3
 72
     8
 73
     4
 74
     0
 42
0.0000000001
 43
0.0000000001
 40
0.0
 40
0.0
 40
0.0
 40
0.0
 40
1.0
 40
1.0
 40
1.0
 40
1.0
 10
-3.938
 20
-45.9997
 30
0.0
 10
-4.9415
 20
-47.2799
 30
0.0
 10
-6.0331
 20
-48.4165
 30
0.0
 10
-7.2718
 20
-49.4708
 30
0.0
  0
SPLINE
  5
63
330
1F
100
AcDbEntity
  8
Vrstva 1
 62
   250
370
    30
100
AcDbSpline
210
0.0
220
0.0
230
1.0
 70
    24
 71
     3
 72
     8
 73
     4
 74
     0
 42
0.0000000001
 43
0.0000000001
 40
0.0
 40
0.0
 40
0.0
 40
0.0
 40
1.0
 40
1.0
 40
1.0
 40
1.0
 10
-2.6091
 20
-43.9883
 30
0.0
 10
-2.6091
 20
-43.9883
 30
0.0
 10
-3.4681
 20
-45.3471
 30
0.0
 10
-3.4681
 20
-45.3471
 30
0.0
  0
SPLINE
  5
64
330
1F
100
AcDbEntity
  8
Vrstva 1
 62
   250
370
    30
100
AcDbSpline
210
0.0
220
0.0
230
1.0
 70
     8
 71
     3
 72
     8
 73
     4
 74
     0
 42
0.0000000001
 43
0.0000000001
 40
0.0
 40
0.0
 40
0.0
 40
0.0
 40
1.0
 40
1.0
 40
1.0
 40
1.0
 10
-0.193
 20
-37.2088
 30
0.0
 10
-0.3384
 20
-38.0048
 30
0.0
 10
-0.513
 20
-38.7796
 30
0.0
 10
-0.7224
 20
-39.5608
 30
0.0
  0
SPLINE
  5
65
330
1F
100
AcDbEntity
  8
Vrstva 1
 62
   250
370
    30
100
AcDbSpline
210
0.0
220
0.0
230
1.0
 70
     8
 71
     3
 72
     8
 73
     4
 74
     0
 42
0.0000000001
 43
0.0000000001
 40
0.0
 40
0.0
 40
0.0
 40
0.0
 40
1.0
 40
1.0
 40
1.0
 40
1.0
 10
23.8213
 20
16.6747
 30
0.0
 10
11.1105
 20
33.5911
 30
0.0
 10
10.9674
 20
35.7543
 30
0.0
 10
24.8947
 20
51.1681
 30
0.0
  0
SPLINE
  5
66
330
1F
100
AcDbEntity
  8
Vrstva 1
 62
   250
370
    30
100
AcDbSpline
210
0.0
220
0.0
230
1.0
 70
    24
 71
     3
 72
     8
 73
     4
 74
     0
 42
0.0000000001
 43
0.0000000001
 40
0.0
 40
0.0
 40
0.0
 40
0.0
 40
1.0
 40
1.0
 40
1.0
 40
1.0
 10
28.9786
 20
55.9754
 30
0.0
 10
28.9786
 20
55.9754
 30
0.0
 10
-56.3834
 20
55.9754
 30
0.0
 10
-56.3834
 20
55.9754
 30
0.0
  0
SPLINE
  5
67
330
1F
100
AcDbEntity
  8
Vrstva 1
 62
   250
370
    30
100
AcDbSpline
210
0.0
220
0.0
230
1.0
 70
    24
 71
     3
 72
     8
 73
     4
 74
     0
 42
0.0000000001
 43
0.0000000001
 40
0.0
 40
0.0
 40
0.0
 40
0.0
 40
1.0
 40
1.0
 40
1.0
 40
1.0
 10
61.3335
 20
17.5572
 30
0.0
 10
61.3335
 20
17.5572
 30
0.0
 10
61.3335
 20
50.3614
 30
0.0
 10
61.3335
 20
50.3614
 30
0.0
  0
SPLINE
  5
68
330
1F
100
AcDbEntity
  8
Vrstva 1
 62
   250
370
    30
100
AcDbSpline
210
0.0
220
0.0
230
1.0
 70
    24
 71
     3
 72
     8
 73
     4
 74
     0
 42
0.0000000001
 43
0.0000000001
 40
0.0
 40
0.0
 40
0.0
 40
0.0
 40
1.0
 40
1.0
 40
1.0
 40
1.0
 10
61.3335
 20
17.531
 30
0.0
 10
61.3335
 20
17.531
 30
0.0
 10
61.3335
 20
46.1863
 30
0.0
 10
61.3335
 20
46.1863
 30
0.0
  0
SPLINE
  5
69
330
1F
100
AcDbEntity
  8
Vrstva 1
 62
   250
370
    30
100
AcDbSpline
210
0.0
220
0.0
230
1.0
 70
    24
 71
     3
 72
     8
 73
     4
 74
     0
 42
0.0000000001
 43
0.0000000001
 40
0.0
 40
0.0
 40
0.0
 40
0.0
 40
1.0
 40
1.0
 40
1.0
 40
1.0
 10
-49.6913
 20
18.6203
 30
0.0
 10
-49.6913
 20
18.6203
 30
0.0
 10
21.4069
 20
14.9167
 30
0.0
 10
21.4069
 20
14.9167
 30
0.0
  0
SPLINE
  5
6A
330
1F
100
AcDbEntity
  8
Vrstva 1
 62
   250
370
    30
100
AcDbSpline
210
0.0
220
0.0
230
1.0
 70
    24
 71
     3
 72
     8
 73
     4
 74
     0
 42
0.0000000001
 43
0.0000000001
 40
0.0
 40
0.0
 40
0.0
 40
0.0
 40
1.0
 40
1.0
 40
1.0
 40
1.0
 10
59.9567
 20
51.1565
 30
0.0
 10
59.9567
 20
51.1565
 30
0.0
 10
59.9567
 20
16.7364
 30
0.0
 10
59.9567
 20
16.7364
 30
0.0
  0
SPLINE
  5
6B
330
1F
100
AcDbEntity
  8
Vrstva 1
 62
   250
370
    30
100
AcDbSpline
210
0.0
220
0.0
230
1.0
 70
     8
 71
     3
 72
    12
 73
     8
 74
     0
 42
0.0000000001
 43
0.0000000001
 40
0.0
 40
0.0
 40
0.0
 40
0.0
 40
0.3333333333333333
 40
0.3333333333333333
 40
0.3333333333333333
 40
0.3333333333333333
 40
1.0
 40
1.0
 40
1.0
 40
1.0
 10
61.3335
 20
17.531
 30
0.0
 10
61.3335
 20
17.531
 30
0.0
 10
59.9567
 20
16.7364
 30
0.0
 10
59.9567
 20
16.7364
 30
0.0
 10
59.9567
 20
16.7364
 30
0.0
 10
59.9567
 20
16.7364
 30
0.0
 10
24.0211
 20
16.7364
 30
0.0
 10
24.0211
 20
16.7364
 30
0.0
  0
SPLINE
  5
6C
330
1F
100
AcDbEntity
  8
Vrstva 1
 62
   250
370
    30
100
AcDbSpline
210
0.0
220
0.0
230
1.0
 70
     8
 71
     3
 72
     8
 73
     4
 74
     0
 42
0.0000000001
 43
0.0000000001
 40
0.0
 40
0.0
 40
0.0
 40
0.0
 40
1.0
 40
1.0
 40
1.0
 40
1.0
 10
24.0211
 20
16.7364
 30
0.0
 10
23.6843
 20
16.662
 30
0.0
 10
23.6504
 20
16.4124
 30
0.0
 10
23.4349
 20
16.1438
 30
0.0
  0
SPLINE
  5
6D
330
1F
100
AcDbEntity
  8
Vrstva 1
 62
   250
370
    30
100
AcDbSpline
210
0.0
220
0.0
230
1.0
 70
    24
 71
     3
 72
     8
 73
     4
 74
     0
 42
0.0000000001
 43
0.0000000001
 40
0.0
 40
0.0
 40
0.0
 40
0.0
 40
1.0
 40
1.0
 40
1.0
 40
1.0
 10
23.4349
 20
16.1438
 30
0.0
 10
23.4349
 20
16.1438
 30
0.0
 10
23.0906
 20
15.7732
 30
0.0
 10
23.0906
 20
15.7732
 30
0.0
  0
SPLINE
  5
6E
330
1F
100
AcDbEntity
  8
Vrstva 1
 62
   250
370
    30
100
AcDbSpline
210
0.0
220
0.0
230
1.0
 70
     8
 71
     3
 72
     8
 73
     4
 74
     0
 42
0.0000000001
 43
0.0000000001
 40
0.0
 40
0.0
 40
0.0
 40
0.0
 40
1.0
 40
1.0
 40
1.0
 40
1.0
 10
23.0906
 20
15.7732
 30
0.0
 10
22.6189
 20
15.3354
 30
0.0
 10
22.0397
 20
15.046
 30
0.0
 10
21.4069
 20
14.9167
 30
0.0
  0
SPLINE
  5
6F
330
1F
100
AcDbEntity
  8
Vrstva 1
 62
   250
370
    30
100
AcDbSpline
210
0.0
220
0.0
230
1.0
 70
     8
 71
     3
 72
    16
 73
    12
 74
     0
 42
0.0000000001
 43
0.0000000001
 40
0.0
 40
0.0
 40
0.0
 40
0.0
 40
0.25
 40
0.25
 40
0.25
 40
0.25
 40
0.5
 40
0.5
 40
0.5
 40
0.5
 40
1.0
 40
1.0
 40
1.0
 40
1.0
 10
21.4069
 20
14.9167
 30
0.0
 10
21.4069
 20
14.9167
 30
0.0
 10
20.5676
 20
14.8578
 30
0.0
 10
20.5676
 20
14.8578
 30
0.0
 10
20.5676
 20
14.8578
 30
0.0
 10
20.5676
 20
14.8578
 30
0.0
 10
19.1928
 20
14.9295
 30
0.0
 10
19.1928
 20
14.9295
 30
0.0
 10
19.1928
 20
14.9295
 30
0.0
 10
19.1928
 20
14.9295
 30
0.0
 10
-47.6588
 20
18.4334
 30
0.0
 10
-47.6588
 20
18.4334
 30
0.0
  0
SPLINE
  5
70
330
1F
100
AcDbEntity
  8
Vrstva 1
 62
   250
370
    30
100
AcDbSpline
210
0.0
220
0.0
230
1.0
 70
     8
 71
     3
 72
    12
 73
     8
 74
     0
 42
0.0000000001
 43
0.0000000001
 40
0.0
 40
0.0
 40
0.0
 40
0.0
 40
0.3333333333333333
 40
0.3333333333333333
 40
0.3333333333333333
 40
0.3333333333333333
 40
1.0
 40
1.0
 40
1.0
 40
1.0
 10
-47.6588
 20
18.4334
 30
0.0
 10
-48.0433
 20
18.4534
 30
0.0
 10
-49.1699
 20
18.4572
 30
0.0
 10
-49.6913
 20
18.6203
 30
0.0
 10
-49.6913
 20
18.6203
 30
0.0
 10
-50.8388
 20
18.9783
 30
0.0
 10
-51.6013
 20
20.0179
 30
0.0
 10
-51.6463
 20
21.207
 30
0.0
  0
SPLINE
  5
71
330
1F
100
AcDbEntity
  8
Vrstva 1
 62
   250
370
    30
100
AcDbSpline
210
0.0
220
0.0
230
1.0
 70
     8
 71
     3
 72
    16
 73
    12
 74
     0
 42
0.0000000001
 43
0.0000000001
 40
0.0
 40
0.0
 40
0.0
 40
0.0
 40
0.25
 40
0.25
 40
0.25
 40
0.25
 40
0.5
 40
0.5
 40
0.5
 40
0.5
 40
1.0
 40
1.0
 40
1.0
 40
1.0
 10
-51.6463
 20
21.207
 30
0.0
 10
-51.6463
 20
21.207
 30
0.0
 10
-51.6701
 20
22.5835
 30
0.0
 10
-51.6701
 20
22.5835
 30
0.0
 10
-51.6701
 20
22.5835
 30
0.0
 10
-51.6701
 20
22.5835
 30
0.0
 10
-52.192
 20
52.4728
 30
0.0
 10
-52.192
 20
52.4728
 30
0.0
 10
-52.192
 20
52.4728
 30
0.0
 10
-52.192
 20
52.4728
 30
0.0
 10
-52.216
 20
53.8495
 30
0.0
 10
-52.216
 20
53.8495
 30
0.0
  0
SPLINE
  5
72
330
1F
100
AcDbEntity
  8
Vrstva 1
 62
   250
370
    30
100
AcDbSpline
210
0.0
220
0.0
230
1.0
 70
     8
 71
     3
 72
    12
 73
     8
 74
     0
 42
0.0000000001
 43
0.0000000001
 40
0.0
 40
0.0
 40
0.0
 40
0.0
 40
0.3333333333333333
 40
0.3333333333333333
 40
0.3333333333333333
 40
0.3333333333333333
 40
1.0
 40
1.0
 40
1.0
 40
1.0
 10
-52.216
 20
53.8495
 30
0.0
 10
-52.2172
 20
53.9183
 30
0.0
 10
-52.2391
 20
53.9855
 30
0.0
 10
-52.2789
 20
54.042
 30
0.0
 10
-52.2789
 20
54.042
 30
0.0
 10
-52.3416
 20
54.1309
 30
0.0
 10
-52.445
 20
54.1857
 30
0.0
 10
-52.5541
 20
54.1873
 30
0.0
  0
SPLINE
  5
73
330
1F
100
AcDbEntity
  8
Vrstva 1
 62
   250
370
    30
100
AcDbSpline
210
0.0
220
0.0
230
1.0
 70
     8
 71
     3
 72
    16
 73
    12
 74
     0
 42
0.0000000001
 43
0.0000000001
 40
0.0
 40
0.0
 40
0.0
 40
0.0
 40
0.25
 40
0.25
 40
0.25
 40
0.25
 40
0.5
 40
0.5
 40
0.5
 40
0.5
 40
1.0
 40
1.0
 40
1.0
 40
1.0
 10
-52.5541
 20
54.1873
 30
0.0
 10
-52.5541
 20
54.1873
 30
0.0
 10
-53.9305
 20
54.2116
 30
0.0
 10
-53.9305
 20
54.2116
 30
0.0
 10
-53.9305
 20
54.2116
 30
0.0
 10
-53.9305
 20
54.2116
 30
0.0
 10
-54.6684
 20
54.2244
 30
0.0
 10
-54.6684
 20
54.2244
 30
0.0
 10
-54.6684
 20
54.2244
 30
0.0
 10
-54.6684
 20
54.2244
 30
0.0
 10
-56.0451
 20
54.2482
 30
0.0
 10
-56.0451
 20
54.2482
 30
0.0
  0
SPLINE
  5
74
330
1F
100
AcDbEntity
  8
Vrstva 1
 62
   250
370
    30
100
AcDbSpline
210
0.0
220
0.0
230
1.0
 70
     8
 71
     3
 72
     8
 73
     4
 74
     0
 42
0.0000000001
 43
0.0000000001
 40
0.0
 40
0.0
 40
0.0
 40
0.0
 40
1.0
 40
1.0
 40
1.0
 40
1.0
 10
-56.0451
 20
54.2482
 30
0.0
 10
-56.5412
 20
54.2576
 30
0.0
 10
-56.3834
 20
55.0465
 30
0.0
 10
-56.3834
 20
55.2838
 30
0.0
  0
SPLINE
  5
75
330
1F
100
AcDbEntity
  8
Vrstva 1
 62
   250
370
    30
100
AcDbSpline
210
0.0
220
0.0
230
1.0
 70
    24
 71
     3
 72
     8
 73
     4
 74
     0
 42
0.0000000001
 43
0.0000000001
 40
0.0
 40
0.0
 40
0.0
 40
0.0
 40
1.0
 40
1.0
 40
1.0
 40
1.0
 10
-56.3834
 20
55.2838
 30
0.0
 10
-56.3834
 20
55.2838
 30
0.0
 10
-56.3834
 20
55.9754
 30
0.0
 10
-56.3834
 20
55.9754
 30
0.0
  0
SPLINE
  5
76
330
1F
100
AcDbEntity
  8
Vrstva 1
 62
   250
370
    30
100
AcDbSpline
210
0.0
220
0.0
230
1.0
 70
    24
 71
     3
 72
     8
 73
     4
 74
     0
 42
0.0000000001
 43
0.0000000001
 40
0.0
 40
0.0
 40
0.0
 40
0.0
 40
1.0
 40
1.0
 40
1.0
 40
1.0
 10
28.9786
 20
55.9754
 30
0.0
 10
28.9786
 20
55.9754
 30
0.0
 10
28.9786
 20
55.2838
 30
0.0
 10
28.9786
 20
55.2838
 30
0.0
  0
SPLINE
  5
77
330
1F
100
AcDbEntity
  8
Vrstva 1
 62
   250
370
    30
100
AcDbSpline
210
0.0
220
0.0
230
1.0
 70
     8
 71
     3
 72
    12
 73
     8
 74
     0
 42
0.0000000001
 43
0.0000000001
 40
0.0
 40
0.0
 40
0.0
 40
0.0
 40
0.3333333333333333
 40
0.3333333333333333
 40
0.3333333333333333
 40
0.3333333333333333
 40
1.0
 40
1.0
 40
1.0
 40
1.0
 10
28.9786
 20
55.2838
 30
0.0
 10
28.9786
 20
55.0988
 30
0.0
 10
29.1046
 20
54.506
 30
0.0
 10
28.835
 20
54.3128
 30
0.0
 10
28.835
 20
54.3128
 30
0.0
 10
28.7784
 20
54.2723
 30
0.0
 10
28.7099
 20
54.2494
 30
0.0
 10
28.6405
 20
54.2482
 30
0.0
  0
SPLINE
  5
78
330
1F
100
AcDbEntity
  8
Vrstva 1
 62
   250
370
    30
100
AcDbSpline
210
0.0
220
0.0
230
1.0
 70
     8
 71
     3
 72
    16
 73
    12
 74
     0
 42
0.0000000001
 43
0.0000000001
 40
0.0
 40
0.0
 40
0.0
 40
0.0
 40
0.25
 40
0.25
 40
0.25
 40
0.25
 40
0.5
 40
0.5
 40
0.5
 40
0.5
 40
1.0
 40
1.0
 40
1.0
 40
1.0
 10
28.6405
 20
54.2482
 30
0.0
 10
28.6405
 20
54.2482
 30
0.0
 10
27.264
 20
54.2244
 30
0.0
 10
27.264
 20
54.2244
 30
0.0
 10
27.264
 20
54.2244
 30
0.0
 10
27.264
 20
54.2244
 30
0.0
 10
26.526
 20
54.2116
 30
0.0
 10
26.526
 20
54.2116
 30
0.0
 10
26.526
 20
54.2116
 30
0.0
 10
26.526
 20
54.2116
 30
0.0
 10
25.149
 20
54.1873
 30
0.0
 10
25.149
 20
54.1873
 30
0.0
  0
SPLINE
  5
79
330
1F
100
AcDbEntity
  8
Vrstva 1
 62
   250
370
    30
100
AcDbSpline
210
0.0
220
0.0
230
1.0
 70
     8
 71
     3
 72
    12
 73
     8
 74
     0
 42
0.0000000001
 43
0.0000000001
 40
0.0
 40
0.0
 40
0.0
 40
0.0
 40
0.3333333333333333
 40
0.3333333333333333
 40
0.3333333333333333
 40
0.3333333333333333
 40
1.0
 40
1.0
 40
1.0
 40
1.0
 10
25.149
 20
54.1873
 30
0.0
 10
25.03
 20
54.1851
 30
0.0
 10
24.9183
 20
54.1198
 30
0.0
 10
24.8583
 20
54.017
 30
0.0
 10
24.8583
 20
54.017
 30
0.0
 10
24.8284
 20
53.9666
 30
0.0
 10
24.8121
 20
53.908
 30
0.0
 10
24.811
 20
53.8495
 30
0.0
  0
SPLINE
  5
7A
330
1F
100
AcDbEntity
  8
Vrstva 1
 62
   250
370
    30
100
AcDbSpline
210
0.0
220
0.0
230
1.0
 70
     8
 71
     3
 72
    12
 73
     8
 74
     0
 42
0.0000000001
 43
0.0000000001
 40
0.0
 40
0.0
 40
0.0
 40
0.0
 40
0.3333333333333333
 40
0.3333333333333333
 40
0.3333333333333333
 40
0.3333333333333333
 40
1.0
 40
1.0
 40
1.0
 40
1.0
 10
24.811
 20
53.8495
 30
0.0
 10
24.811
 20
53.8495
 30
0.0
 10
24.7905
 20
52.6782
 30
0.0
 10
24.7905
 20
52.6782
 30
0.0
 10
24.7905
 20
52.6782
 30
0.0
 10
24.7905
 20
52.6782
 30
0.0
 10
24.7701
 20
51.5067
 30
0.0
 10
24.7701
 20
51.5067
 30
0.0
  0
SPLINE
  5
7B
330
1F
100
AcDbEntity
  8
Vrstva 1
 62
   250
370
    30
100
AcDbSpline
210
0.0
220
0.0
230
1.0
 70
     8
 71
     3
 72
     8
 73
     4
 74
     0
 42
0.0000000001
 43
0.0000000001
 40
0.0
 40
0.0
 40
0.0
 40
0.0
 40
1.0
 40
1.0
 40
1.0
 40
1.0
 10
24.7701
 20
51.5067
 30
0.0
 10
24.773
 20
51.3137
 30
0.0
 10
24.9207
 20
51.1619
 30
0.0
 10
25.1145
 20
51.1565
 30
0.0
  0
SPLINE
  5
7C
330
1F
100
AcDbEntity
  8
Vrstva 1
 62
   250
370
    30
100
AcDbSpline
210
0.0
220
0.0
230
1.0
 70
     8
 71
     3
 72
    20
 73
    16
 74
     0
 42
0.0000000001
 43
0.0000000001
 40
0.0
 40
0.0
 40
0.0
 40
0.0
 40
0.2
 40
0.2
 40
0.2
 40
0.2
 40
0.4
 40
0.4
 40
0.4
 40
0.4
 40
0.6
 40
0.6
 40
0.6
 40
0.6
 40
1.0
 40
1.0
 40
1.0
 40
1.0
 10
25.1145
 20
51.1565
 30
0.0
 10
25.1145
 20
51.1565
 30
0.0
 10
26.491
 20
51.1565
 30
0.0
 10
26.491
 20
51.1565
 30
0.0
 10
26.491
 20
51.1565
 30
0.0
 10
26.491
 20
51.1565
 30
0.0
 10
58.58
 20
51.1565
 30
0.0
 10
58.58
 20
51.1565
 30
0.0
 10
58.58
 20
51.1565
 30
0.0
 10
58.58
 20
51.1565
 30
0.0
 10
59.9567
 20
51.1565
 30
0.0
 10
59.9567
 20
51.1565
 30
0.0
 10
59.9567
 20
51.1565
 30
0.0
 10
59.9567
 20
51.1565
 30
0.0
 10
61.3335
 20
50.3614
 30
0.0
 10
61.3335
 20
50.3614
 30
0.0
  0
SPLINE
  5
7D
330
1F
100
AcDbEntity
  8
Vrstva 1
 62
   250
370
    30
100
AcDbSpline
210
0.0
220
0.0
230
1.0
 70
    24
 71
     3
 72
     8
 73
     4
 74
     0
 42
0.0000000001
 43
0.0000000001
 40
0.0
 40
0.0
 40
0.0
 40
0.0
 40
1.0
 40
1.0
 40
1.0
 40
1.0
 10
-51.5944
 20
20.7589
 30
0.0
 10
-51.5944
 20
20.7589
 30
0.0
 10
-51.6016
 20
20.7593
 30
0.0
 10
-51.6016
 20
20.7593
 30
0.0
  0
SPLINE
  5
7E
330
1F
100
AcDbEntity
  8
Vrstva 1
 62
   250
370
    30
100
AcDbSpline
210
0.0
220
0.0
230
1.0
 70
    24
 71
     3
 72
     8
 73
     4
 74
     0
 42
0.0000000001
 43
0.0000000001
 40
0.0
 40
0.0
 40
0.0
 40
0.0
 40
1.0
 40
1.0
 40
1.0
 40
1.0
 10
-51.3711
 20
20.0803
 30
0.0
 10
-51.3711
 20
20.0803
 30
0.0
 10
-51.3832
 20
20.0809
 30
0.0
 10
-51.3832
 20
20.0809
 30
0.0
  0
SPLINE
  5
7F
330
1F
100
AcDbEntity
  8
Vrstva 1
 62
   250
370
    30
100
AcDbSpline
210
0.0
220
0.0
230
1.0
 70
     8
 71
     3
 72
     8
 73
     4
 74
     0
 42
0.0000000001
 43
0.0000000001
 40
0.0
 40
0.0
 40
0.0
 40
0.0
 40
1.0
 40
1.0
 40
1.0
 40
1.0
 10
-50.9343
 20
19.421
 30
0.0
 10
-50.9385
 20
19.4211
 30
0.0
 10
-50.9427
 20
19.4215
 30
0.0
 10
-50.9469
 20
19.4216
 30
0.0
  0
SPLINE
  5
80
330
1F
100
AcDbEntity
  8
Vrstva 1
 62
   250
370
    30
100
AcDbSpline
210
0.0
220
0.0
230
1.0
 70
     8
 71
     3
 72
     8
 73
     4
 74
     0
 42
0.0000000001
 43
0.0000000001
 40
0.0
 40
0.0
 40
0.0
 40
0.0
 40
1.0
 40
1.0
 40
1.0
 40
1.0
 10
-50.3314
 20
18.913
 30
0.0
 10
-50.3345
 20
18.913
 30
0.0
 10
-50.3378
 20
18.9132
 30
0.0
 10
-50.3409
 20
18.9134
 30
0.0
  0
SPLINE
  5
81
330
1F
100
AcDbEntity
  8
Vrstva 1
 62
   250
370
    30
100
AcDbSpline
210
0.0
220
0.0
230
1.0
 70
     8
 71
     3
 72
    12
 73
     8
 74
     0
 42
0.0000000001
 43
0.0000000001
 40
0.0
 40
0.0
 40
0.0
 40
0.0
 40
0.3333333333333333
 40
0.3333333333333333
 40
0.3333333333333333
 40
0.3333333333333333
 40
1.0
 40
1.0
 40
1.0
 40
1.0
 10
4.1526
 20
15.7181
 30
0.0
 10
4.1446
 20
15.2366
 30
0.0
 10
4.1983
 20
14.6102
 30
0.0
 10
4.0557
 20
14.1075
 30
0.0
 10
4.0557
 20
14.1075
 30
0.0
 10
3.7987
 20
13.201
 30
0.0
 10
2.9869
 20
12.6458
 30
0.0
 10
2.0692
 20
12.6059
 30
0.0
  0
SPLINE
  5
82
330
1F
100
AcDbEntity
  8
Vrstva 1
 62
   250
370
    30
100
AcDbSpline
210
0.0
220
0.0
230
1.0
 70
    24
 71
     3
 72
    12
 73
     8
 74
     0
 42
0.0000000001
 43
0.0000000001
 40
0.0
 40
0.0
 40
0.0
 40
0.0
 40
0.3333333333333333
 40
0.3333333333333333
 40
0.3333333333333333
 40
0.3333333333333333
 40
1.0
 40
1.0
 40
1.0
 40
1.0
 10
2.0692
 20
12.6059
 30
0.0
 10
2.0692
 20
12.6059
 30
0.0
 10
0.6925
 20
12.6059
 30
0.0
 10
0.6925
 20
12.6059
 30
0.0
 10
0.6925
 20
12.6059
 30
0.0
 10
0.6925
 20
12.6059
 30
0.0
 10
-40.5459
 20
12.6059
 30
0.0
 10
-40.5459
 20
12.6059
 30
0.0
  0
SPLINE
  5
83
330
1F
100
AcDbEntity
  8
Vrstva 1
 62
   250
370
    30
100
AcDbSpline
210
0.0
220
0.0
230
1.0
 70
     8
 71
     3
 72
    16
 73
    12
 74
     0
 42
0.0000000001
 43
0.0000000001
 40
0.0
 40
0.0
 40
0.0
 40
0.0
 40
0.25
 40
0.25
 40
0.25
 40
0.25
 40
0.5
 40
0.5
 40
0.5
 40
0.5
 40
1.0
 40
1.0
 40
1.0
 40
1.0
 10
-40.5459
 20
12.6059
 30
0.0
 10
-41.6138
 20
12.6059
 30
0.0
 10
-42.7295
 20
12.437
 30
0.0
 10
-43.492
 20
13.3282
 30
0.0
 10
-43.492
 20
13.3282
 30
0.0
 10
-43.6079
 20
13.4636
 30
0.0
 10
-43.706
 20
13.6144
 30
0.0
 10
-43.7837
 20
13.7748
 30
0.0
 10
-43.7837
 20
13.7748
 30
0.0
 10
-43.8866
 20
13.989
 30
0.0
 10
-43.9527
 20
14.221
 30
0.0
 10
-43.9772
 20
14.4572
 30
0.0
  0
SPLINE
  5
84
330
1F
100
AcDbEntity
  8
Vrstva 1
 62
   250
370
    30
100
AcDbSpline
210
0.0
220
0.0
230
1.0
 70
     8
 71
     3
 72
    20
 73
    16
 74
     0
 42
0.0000000001
 43
0.0000000001
 40
0.0
 40
0.0
 40
0.0
 40
0.0
 40
0.2
 40
0.2
 40
0.2
 40
0.2
 40
0.4
 40
0.4
 40
0.4
 40
0.4
 40
0.6
 40
0.6
 40
0.6
 40
0.6
 40
1.0
 40
1.0
 40
1.0
 40
1.0
 10
-43.9772
 20
14.4572
 30
0.0
 10
-43.9772
 20
14.4572
 30
0.0
 10
-43.9876
 20
14.6353
 30
0.0
 10
-43.9876
 20
14.6353
 30
0.0
 10
-43.9876
 20
14.6353
 30
0.0
 10
-43.9876
 20
14.6353
 30
0.0
 10
-44.0119
 20
16.0114
 30
0.0
 10
-44.0119
 20
16.0114
 30
0.0
 10
-44.0119
 20
16.0114
 30
0.0
 10
-44.0119
 20
16.0114
 30
0.0
 10
-44.0267
 20
16.8677
 30
0.0
 10
-44.0267
 20
16.8677
 30
0.0
 10
-44.0267
 20
16.8677
 30
0.0
 10
-44.0267
 20
16.8677
 30
0.0
 10
-44.051
 20
18.2443
 30
0.0
 10
-44.051
 20
18.2443
 30
0.0
  0
SPLINE
  5
85
330
1F
100
AcDbEntity
  8
Vrstva 1
 62
   250
370
    30
100
AcDbSpline
210
0.0
220
0.0
230
1.0
 70
    24
 71
     3
 72
     8
 73
     4
 74
     0
 42
0.0000000001
 43
0.0000000001
 40
0.0
 40
0.0
 40
0.0
 40
0.0
 40
1.0
 40
1.0
 40
1.0
 40
1.0
 10
-56.3834
 20
55.9754
 30
0.0
 10
-56.3834
 20
55.9754
 30
0.0
 10
-56.4133
 20
57.6965
 30
0.0
 10
-56.4133
 20
57.6965
 30
0.0
  0
SPLINE
  5
86
330
1F
100
AcDbEntity
  8
Vrstva 1
 62
   250
370
    30
100
AcDbSpline
210
0.0
220
0.0
230
1.0
 70
    24
 71
     3
 72
     8
 73
     4
 74
     0
 42
0.0000000001
 43
0.0000000001
 40
0.0
 40
0.0
 40
0.0
 40
0.0
 40
1.0
 40
1.0
 40
1.0
 40
1.0
 10
29.0084
 20
57.6965
 30
0.0
 10
29.0084
 20
57.6965
 30
0.0
 10
-56.4133
 20
57.6965
 30
0.0
 10
-56.4133
 20
57.6965
 30
0.0
  0
SPLINE
  5
87
330
1F
100
AcDbEntity
  8
Vrstva 1
 62
   250
370
    30
100
AcDbSpline
210
0.0
220
0.0
230
1.0
 70
    24
 71
     3
 72
     8
 73
     4
 74
     0
 42
0.0000000001
 43
0.0000000001
 40
0.0
 40
0.0
 40
0.0
 40
0.0
 40
1.0
 40
1.0
 40
1.0
 40
1.0
 10
28.9786
 20
55.9754
 30
0.0
 10
28.9786
 20
55.9754
 30
0.0
 10
29.0084
 20
57.6965
 30
0.0
 10
29.0084
 20
57.6965
 30
0.0
  0
SPLINE
  5
88
330
1F
100
AcDbEntity
  8
Vrstva 1
 62
   250
370
    30
100
AcDbSpline
210
0.0
220
0.0
230
1.0
 70
    24
 71
     3
 72
     8
 73
     4
 74
     0
 42
0.0000000001
 43
0.0000000001
 40
0.0
 40
0.0
 40
0.0
 40
0.0
 40
1.0
 40
1.0
 40
1.0
 40
1.0
 10
16.6022
 20
57.6965
 30
0.0
 10
16.6022
 20
57.6965
 30
0.0
 10
29.0079
 20
57.6965
 30
0.0
 10
29.0079
 20
57.6965
 30
0.0
  0
SPLINE
  5
89
330
1F
100
AcDbEntity
  8
Vrstva 1
 62
   250
370
    30
100
AcDbSpline
210
0.0
220
0.0
230
1.0
 70
    24
 71
     3
 72
     8
 73
     4
 74
     0
 42
0.0000000001
 43
0.0000000001
 40
0.0
 40
0.0
 40
0.0
 40
0.0
 40
1.0
 40
1.0
 40
1.0
 40
1.0
 10
28.9681
 20
57.6965
 30
0.0
 10
28.9681
 20
57.6965
 30
0.0
 10
29.0079
 20
57.6965
 30
0.0
 10
29.0079
 20
57.6965
 30
0.0
  0
SPLINE
  5
8A
330
1F
100
AcDbEntity
  8
Vrstva 1
 62
   250
370
    30
100
AcDbSpline
210
0.0
220
0.0
230
1.0
 70
    24
 71
     3
 72
     8
 73
     4
 74
     0
 42
0.0000000001
 43
0.0000000001
 40
0.0
 40
0.0
 40
0.0
 40
0.0
 40
1.0
 40
1.0
 40
1.0
 40
1.0
 10
28.9382
 20
55.9754
 30
0.0
 10
28.9382
 20
55.9754
 30
0.0
 10
28.9781
 20
55.9754
 30
0.0
 10
28.9781
 20
55.9754
 30
0.0
  0
SPLINE
  5
8B
330
1F
100
AcDbEntity
  8
Vrstva 1
 62
   250
370
    30
100
AcDbSpline
210
0.0
220
0.0
230
1.0
 70
    24
 71
     3
 72
     8
 73
     4
 74
     0
 42
0.0000000001
 43
0.0000000001
 40
0.0
 40
0.0
 40
0.0
 40
0.0
 40
1.0
 40
1.0
 40
1.0
 40
1.0
 10
16.5872
 20
55.9754
 30
0.0
 10
16.5872
 20
55.9754
 30
0.0
 10
28.9781
 20
55.9754
 30
0.0
 10
28.9781
 20
55.9754
 30
0.0
  0
SPLINE
  5
8C
330
1F
100
AcDbEntity
  8
Vrstva 1
 62
   250
370
    30
100
AcDbSpline
210
0.0
220
0.0
230
1.0
 70
    24
 71
     3
 72
     8
 73
     4
 74
     0
 42
0.0000000001
 43
0.0000000001
 40
0.0
 40
0.0
 40
0.0
 40
0.0
 40
1.0
 40
1.0
 40
1.0
 40
1.0
 10
-56.3834
 20
55.9754
 30
0.0
 10
-56.3834
 20
55.9754
 30
0.0
 10
28.9786
 20
55.9754
 30
0.0
 10
28.9786
 20
55.9754
 30
0.0
  0
SPLINE
  5
8D
330
1F
100
AcDbEntity
  8
Vrstva 1
 62
   250
370
    15
100
AcDbSpline
210
0.0
220
0.0
230
1.0
 70
    24
 71
     3
 72
     8
 73
     4
 74
     0
 42
0.0000000001
 43
0.0000000001
 40
0.0
 40
0.0
 40
0.0
 40
0.0
 40
1.0
 40
1.0
 40
1.0
 40
1.0
 10
-61.6868
 20
16.3363
 30
0.0
 10
-61.6868
 20
16.3363
 30
0.0
 10
-61.6868
 20
56.4778
 30
0.0
 10
-61.6868
 20
56.4778
 30
0.0
  0
SPLINE
  5
8E
330
1F
100
AcDbEntity
  8
Vrstva 1
 62
   250
370
    15
100
AcDbSpline
210
0.0
220
0.0
230
1.0
 70
    24
 71
     3
 72
     8
 73
     4
 74
     0
 42
0.0000000001
 43
0.0000000001
 40
0.0
 40
0.0
 40
0.0
 40
0.0
 40
1.0
 40
1.0
 40
1.0
 40
1.0
 10
-57.7194
 20
-68.5072
 30
0.0
 10
-57.7194
 20
-68.5072
 30
0.0
 10
-6.1032
 20
-21.3514
 30
0.0
 10
-6.1032
 20
-21.3514
 30
0.0
  0
SPLINE
  5
8F
330
1F
100
AcDbEntity
  8
Vrstva 1
 62
   250
370
    15
100
AcDbSpline
210
0.0
220
0.0
230
1.0
 70
    24
 71
     3
 72
     8
 73
     4
 74
     0
 42
0.0000000001
 43
0.0000000001
 40
0.0
 40
0.0
 40
0.0
 40
0.0
 40
1.0
 40
1.0
 40
1.0
 40
1.0
 10
-71.9431
 20
-10.9458
 30
0.0
 10
-71.9431
 20
-10.9458
 30
0.0
 10
-6.2351
 20
-40.3656
 30
0.0
 10
-6.2351
 20
-40.3656
 30
0.0
  0
SPLINE
  5
90
330
1F
100
AcDbEntity
  8
Vrstva 1
 62
   250
370
    15
100
AcDbSpline
210
0.0
220
0.0
230
1.0
 70
    24
 71
     3
 72
     8
 73
     4
 74
     0
 42
0.0000000001
 43
0.0000000001
 40
0.0
 40
0.0
 40
0.0
 40
0.0
 40
1.0
 40
1.0
 40
1.0
 40
1.0
 10
70.1941
 20
21.1113
 30
0.0
 10
70.1941
 20
21.1113
 30
0.0
 10
70.1941
 20
46.5762
 30
0.0
 10
70.1941
 20
46.5762
 30
0.0
  0
SPLINE
  5
91
330
1F
100
AcDbEntity
  8
Vrstva 1
 62
   250
370
    15
100
AcDbSpline
210
0.0
220
0.0
230
1.0
 70
    24
 71
     3
 72
     8
 73
     4
 74
     0
 42
0.0000000001
 43
0.0000000001
 40
0.0
 40
0.0
 40
0.0
 40
0.0
 40
1.0
 40
1.0
 40
1.0
 40
1.0
 10
35.0764
 20
3.6538
 30
0.0
 10
35.0764
 20
3.6538
 30
0.0
 10
35.0764
 20
29.3512
 30
0.0
 10
35.0764
 20
29.3512
 30
0.0
  0
SPLINE
  5
92
330
1F
100
AcDbEntity
  8
Vrstva 1
 62
   250
370
    15
100
AcDbSpline
210
0.0
220
0.0
230
1.0
 70
    24
 71
     3
 72
     8
 73
     4
 74
     0
 42
0.0000000001
 43
0.0000000001
 40
0.0
 40
0.0
 40
0.0
 40
0.0
 40
1.0
 40
1.0
 40
1.0
 40
1.0
 10
24.3872
 20
66.8478
 30
0.0
 10
24.3872
 20
66.8478
 30
0.0
 10
-54.1955
 20
66.8478
 30
0.0
 10
-54.1955
 20
66.8478
 30
0.0
  0
SPLINE
  5
93
330
1F
100
AcDbEntity
  8
Vrstva 1
 62
   250
370
    15
100
AcDbSpline
210
0.0
220
0.0
230
1.0
 70
    24
 71
     3
 72
     8
 73
     4
 74
     0
 42
0.0000000001
 43
0.0000000001
 40
0.0
 40
0.0
 40
0.0
 40
0.0
 40
1.0
 40
1.0
 40
1.0
 40
1.0
 10
-56.987
 20
57.6137
 30
0.0
 10
-56.987
 20
57.6137
 30
0.0
 10
-63.4129
 20
57.6137
 30
0.0
 10
-63.4129
 20
57.6137
 30
0.0
  0
SPLINE
  5
94
330
1F
100
AcDbEntity
  8
Vrstva 1
 62
   250
370
    15
100
AcDbSpline
210
0.0
220
0.0
230
1.0
 70
    24
 71
     3
 72
     8
 73
     4
 74
     0
 42
0.0000000001
 43
0.0000000001
 40
0.0
 40
0.0
 40
0.0
 40
0.0
 40
1.0
 40
1.0
 40
1.0
 40
1.0
 10
71.8802
 20
51.1869
 30
0.0
 10
71.8802
 20
51.1869
 30
0.0
 10
60.4799
 20
51.1869
 30
0.0
 10
60.4799
 20
51.1869
 30
0.0
  0
SPLINE
  5
95
330
1F
100
AcDbEntity
  8
Vrstva 1
 62
   250
370
    15
100
AcDbSpline
210
0.0
220
0.0
230
1.0
 70
    24
 71
     3
 72
     8
 73
     4
 74
     0
 42
0.0000000001
 43
0.0000000001
 40
0.0
 40
0.0
 40
0.0
 40
0.0
 40
1.0
 40
1.0
 40
1.0
 40
1.0
 10
-56.4249
 20
68.4807
 30
0.0
 10
-56.4249
 20
68.4807
 30
0.0
 10
-56.4249
 20
58.2916
 30
0.0
 10
-56.4249
 20
58.2916
 30
0.0
  0
SPLINE
  5
96
330
1F
100
AcDbEntity
  8
Vrstva 1
 62
   250
370
    15
100
AcDbSpline
210
0.0
220
0.0
230
1.0
 70
    24
 71
     3
 72
     8
 73
     4
 74
     0
 42
0.0000000001
 43
0.0000000001
 40
0.0
 40
0.0
 40
0.0
 40
0.0
 40
1.0
 40
1.0
 40
1.0
 40
1.0
 10
28.9371
 20
68.4807
 30
0.0
 10
28.9371
 20
68.4807
 30
0.0
 10
28.9371
 20
58.2916
 30
0.0
 10
28.9371
 20
58.2916
 30
0.0
  0
SPLINE
  5
97
330
1F
100
AcDbEntity
  8
Vrstva 1
 62
   250
370
    15
100
AcDbSpline
210
0.0
220
0.0
230
1.0
 70
    24
 71
     3
 72
     8
 73
     4
 74
     0
 42
0.0000000001
 43
0.0000000001
 40
0.0
 40
0.0
 40
0.0
 40
0.0
 40
1.0
 40
1.0
 40
1.0
 40
1.0
 10
-40.8289
 20
12.6028
 30
0.0
 10
-40.8289
 20
12.6028
 30
0.0
 10
-63.3137
 20
12.6028
 30
0.0
 10
-63.3137
 20
12.6028
 30
0.0
  0
SPLINE
  5
98
330
1F
100
AcDbEntity
  8
Vrstva 1
 62
   250
370
    15
100
AcDbSpline
210
0.0
220
0.0
230
1.0
 70
    24
 71
     3
 72
     8
 73
     4
 74
     0
 42
0.0000000001
 43
0.0000000001
 40
0.0
 40
0.0
 40
0.0
 40
0.0
 40
1.0
 40
1.0
 40
1.0
 40
1.0
 10
71.9431
 20
16.6947
 30
0.0
 10
71.9431
 20
16.6947
 30
0.0
 10
60.4993
 20
16.6947
 30
0.0
 10
60.4993
 20
16.6947
 30
0.0
  0
SPLINE
  5
99
330
1F
100
AcDbEntity
  8
Vrstva 1
 62
   250
370
    15
100
AcDbSpline
210
0.0
220
0.0
230
1.0
 70
    24
 71
     3
 72
     8
 73
     4
 74
     0
 42
0.0000000001
 43
0.0000000001
 40
0.0
 40
0.0
 40
0.0
 40
0.0
 40
1.0
 40
1.0
 40
1.0
 40
1.0
 10
36.8255
 20
12.6059
 30
0.0
 10
36.8255
 20
12.6059
 30
0.0
 10
-13.0255
 20
12.6059
 30
0.0
 10
-13.0255
 20
12.6059
 30
0.0
  0
SPLINE
  5
9A
330
1F
100
AcDbEntity
  8
Vrstva 1
 62
   250
100
AcDbSpline
210
0.0
220
0.0
230
1.0
 70
    11
 71
     3
 72
    28
 73
    24
 74
     0
 42
0.0000000001
 43
0.0000000001
 40
0.0
 40
0.0
 40
0.0
 40
0.0
 40
0.1428571428571428
 40
0.1428571428571428
 40
0.1428571428571428
 40
0.1428571428571428
 40
0.2857142857142857
 40
0.2857142857142857
 40
0.2857142857142857
 40
0.2857142857142857
 40
0.4285714285714285
 40
0.4285714285714285
 40
0.4285714285714285
 40
0.4285714285714285
 40
0.5714285714285714
 40
0.5714285714285714
 40
0.5714285714285714
 40
0.5714285714285714
 40
0.7142857142857143
 40
0.7142857142857143
 40
0.7142857142857143
 40
0.7142857142857143
 40
1.0
 40
1.0
 40
1.0
 40
1.0
 10
-59.7149
 20
-65.2262
 30
0.0
 10
-59.6946
 20
-65.6332
 30
0.0
 10
-59.5745
 20
-66.1843
 30
0.0
 10
-59.0911
 20
-66.7716
 30
0.0
 10
-59.0911
 20
-66.7716
 30
0.0
 10
-58.6074
 20
-67.3534
 30
0.0
 10
-58.0869
 20
-67.5668
 30
0.0
 10
-57.693
 20
-67.6582
 30
0.0
 10
-57.693
 20
-67.6582
 30
0.0
 10
-57.693
 20
-67.6582
 30
0.0
 10
-57.4901
 20
-67.4894
 30
0.0
 10
-57.4901
 20
-67.4894
 30
0.0
 10
-57.4901
 20
-67.4894
 30
0.0
 10
-57.947
 20
-67.3647
 30
0.0
 10
-58.4262
 20
-67.1222
 30
0.0
 10
-58.8679
 20
-66.5911
 30
0.0
 10
-58.8679
 20
-66.5911
 30
0.0
 10
-59.3194
 20
-66.048
 30
0.0
 10
-59.4843
 20
-65.5341
 30
0.0
 10
-59.512
 20
-65.0575
 30
0.0
 10
-59.512
 20
-65.0575
 30
0.0
 10
-59.512
 20
-65.0575
 30
0.0
 10
-59.7149
 20
-65.2262
 30
0.0
 10
-59.7149
 20
-65.2262
 30
0.0
  0
SPLINE
  5
9B
330
1F
100
AcDbEntity
  8
Vrstva 1
 62
   250
100
AcDbSpline
210
0.0
220
0.0
230
1.0
 70
    11
 71
     3
 72
    56
 73
    52
 74
     0
 42
0.0000000001
 43
0.0000000001
 40
0.0
 40
0.0
 40
0.0
 40
0.0
 40
0.0714285714285714
 40
0.0714285714285714
 40
0.0714285714285714
 40
0.0714285714285714
 40
0.1428571428571428
 40
0.1428571428571428
 40
0.1428571428571428
 40
0.1428571428571428
 40
0.2142857142857143
 40
0.2142857142857143
 40
0.2142857142857143
 40
0.2142857142857143
 40
0.2857142857142857
 40
0.2857142857142857
 40
0.2857142857142857
 40
0.2857142857142857
 40
0.3571428571428572
 40
0.3571428571428572
 40
0.3571428571428572
 40
0.3571428571428572
 40
0.4285714285714285
 40
0.4285714285714285
 40
0.4285714285714285
 40
0.4285714285714285
 40
0.5
 40
0.5
 40
0.5
 40
0.5
 40
0.5714285714285714
 40
0.5714285714285714
 40
0.5714285714285714
 40
0.5714285714285714
 40
0.6428571428571429
 40
0.6428571428571429
 40
0.6428571428571429
 40
0.6428571428571429
 40
0.7142857142857143
 40
0.7142857142857143
 40
0.7142857142857143
 40
0.7142857142857143
 40
0.7857142857142857
 40
0.7857142857142857
 40
0.7857142857142857
 40
0.7857142857142857
 40
0.8571428571428571
 40
0.8571428571428571
 40
0.8571428571428571
 40
0.8571428571428571
 40
1.0
 40
1.0
 40
1.0
 40
1.0
 10
-57.3225
 20
-66.9565
 30
0.0
 10
-57.3225
 20
-66.9565
 30
0.0
 10
-57.3225
 20
-66.9565
 30
0.0
 10
-57.3225
 20
-66.9565
 30
0.0
 10
-57.3225
 20
-66.9565
 30
0.0
 10
-57.3225
 20
-66.9565
 30
0.0
 10
-57.568
 20
-66.9587
 30
0.0
 10
-57.568
 20
-66.9587
 30
0.0
 10
-57.568
 20
-66.9587
 30
0.0
 10
-57.568
 20
-66.9587
 30
0.0
 10
-57.5988
 20
-66.5452
 30
0.0
 10
-57.5988
 20
-66.5452
 30
0.0
 10
-57.5988
 20
-66.5452
 30
0.0
 10
-57.9172
 20
-66.5022
 30
0.0
 10
-58.2341
 20
-66.3215
 30
0.0
 10
-58.4846
 20
-66.0202
 30
0.0
 10
-58.4846
 20
-66.0202
 30
0.0
 10
-59.0131
 20
-65.3846
 30
0.0
 10
-58.9581
 20
-64.6373
 30
0.0
 10
-58.4299
 20
-64.1981
 30
0.0
 10
-58.4299
 20
-64.1981
 30
0.0
 10
-58.2449
 20
-64.0444
 30
0.0
 10
-58.0272
 20
-63.9543
 30
0.0
 10
-57.7946
 20
-63.9425
 30
0.0
 10
-57.7946
 20
-63.9425
 30
0.0
 10
-57.7946
 20
-63.9425
 30
0.0
 10
-57.8195
 20
-63.5545
 30
0.0
 10
-57.8195
 20
-63.5545
 30
0.0
 10
-57.8195
 20
-63.5545
 30
0.0
 10
-57.8195
 20
-63.5545
 30
0.0
 10
-57.5721
 20
-63.5304
 30
0.0
 10
-57.5721
 20
-63.5304
 30
0.0
 10
-57.5721
 20
-63.5304
 30
0.0
 10
-57.5721
 20
-63.5304
 30
0.0
 10
-57.5437
 20
-63.9409
 30
0.0
 10
-57.5437
 20
-63.9409
 30
0.0
 10
-57.5437
 20
-63.9409
 30
0.0
 10
-57.2252
 20
-63.984
 30
0.0
 10
-56.9144
 20
-64.1697
 30
0.0
 10
-56.6688
 20
-64.465
 30
0.0
 10
-56.6688
 20
-64.465
 30
0.0
 10
-56.0858
 20
-65.1663
 30
0.0
 10
-56.2232
 20
-65.8811
 30
0.0
 10
-56.7067
 20
-66.283
 30
0.0
 10
-56.7067
 20
-66.283
 30
0.0
 10
-56.8947
 20
-66.4394
 30
0.0
 10
-57.1178
 20
-66.5289
 30
0.0
 10
-57.3479
 20
-66.5435
 30
0.0
 10
-57.3479
 20
-66.5435
 30
0.0
 10
-57.3479
 20
-66.5435
 30
0.0
 10
-57.3225
 20
-66.9565
 30
0.0
 10
-57.3225
 20
-66.9565
 30
0.0
  0
SPLINE
  5
9C
330
1F
100
AcDbEntity
  8
Vrstva 1
 62
   250
100
AcDbSpline
210
0.0
220
0.0
230
1.0
 70
    11
 71
     3
 72
    28
 73
    24
 74
     0
 42
0.0000000001
 43
0.0000000001
 40
0.0
 40
0.0
 40
0.0
 40
0.0
 40
0.1428571428571428
 40
0.1428571428571428
 40
0.1428571428571428
 40
0.1428571428571428
 40
0.2857142857142857
 40
0.2857142857142857
 40
0.2857142857142857
 40
0.2857142857142857
 40
0.4285714285714285
 40
0.4285714285714285
 40
0.4285714285714285
 40
0.4285714285714285
 40
0.5714285714285714
 40
0.5714285714285714
 40
0.5714285714285714
 40
0.5714285714285714
 40
0.7142857142857143
 40
0.7142857142857143
 40
0.7142857142857143
 40
0.7142857142857143
 40
1.0
 40
1.0
 40
1.0
 40
1.0
 10
-57.6302
 20
-66.198
 30
0.0
 10
-57.6302
 20
-66.198
 30
0.0
 10
-57.6302
 20
-66.198
 30
0.0
 10
-57.6302
 20
-66.198
 30
0.0
 10
-57.6302
 20
-66.198
 30
0.0
 10
-57.6302
 20
-66.198
 30
0.0
 10
-57.6338
 20
-66.2059
 30
0.0
 10
-57.6338
 20
-66.2059
 30
0.0
 10
-57.6338
 20
-66.2059
 30
0.0
 10
-57.8522
 20
-66.1253
 30
0.0
 10
-58.0429
 20
-66.0112
 30
0.0
 10
-58.2289
 20
-65.7874
 30
0.0
 10
-58.2289
 20
-65.7874
 30
0.0
 10
-58.5813
 20
-65.3636
 30
0.0
 10
-58.6978
 20
-64.7744
 30
0.0
 10
-58.2622
 20
-64.4121
 30
0.0
 10
-58.2622
 20
-64.4121
 30
0.0
 10
-58.11
 20
-64.2856
 30
0.0
 10
-57.94
 20
-64.235
 30
0.0
 10
-57.7667
 20
-64.2373
 30
0.0
 10
-57.7667
 20
-64.2373
 30
0.0
 10
-57.7667
 20
-64.2373
 30
0.0
 10
-57.6302
 20
-66.198
 30
0.0
 10
-57.6302
 20
-66.198
 30
0.0
  0
SPLINE
  5
9D
330
1F
100
AcDbEntity
  8
Vrstva 1
 62
   250
100
AcDbSpline
210
0.0
220
0.0
230
1.0
 70
    11
 71
     3
 72
    28
 73
    24
 74
     0
 42
0.0000000001
 43
0.0000000001
 40
0.0
 40
0.0
 40
0.0
 40
0.0
 40
0.1428571428571428
 40
0.1428571428571428
 40
0.1428571428571428
 40
0.1428571428571428
 40
0.2857142857142857
 40
0.2857142857142857
 40
0.2857142857142857
 40
0.2857142857142857
 40
0.4285714285714285
 40
0.4285714285714285
 40
0.4285714285714285
 40
0.4285714285714285
 40
0.5714285714285714
 40
0.5714285714285714
 40
0.5714285714285714
 40
0.5714285714285714
 40
0.7142857142857143
 40
0.7142857142857143
 40
0.7142857142857143
 40
0.7142857142857143
 40
1.0
 40
1.0
 40
1.0
 40
1.0
 10
-57.5128
 20
-64.2937
 30
0.0
 10
-57.5128
 20
-64.2937
 30
0.0
 10
-57.5128
 20
-64.2937
 30
0.0
 10
-57.5128
 20
-64.2937
 30
0.0
 10
-57.5128
 20
-64.2937
 30
0.0
 10
-57.5128
 20
-64.2937
 30
0.0
 10
-57.5038
 20
-64.2862
 30
0.0
 10
-57.5038
 20
-64.2862
 30
0.0
 10
-57.5038
 20
-64.2862
 30
0.0
 10
-57.2555
 20
-64.3724
 30
0.0
 10
-57.0708
 20
-64.5217
 30
0.0
 10
-56.9269
 20
-64.6947
 30
0.0
 10
-56.9269
 20
-64.6947
 30
0.0
 10
-56.5523
 20
-65.1453
 30
0.0
 10
-56.4656
 20
-65.7293
 30
0.0
 10
-56.8834
 20
-66.0765
 30
0.0
 10
-56.8834
 20
-66.0765
 30
0.0
 10
-57.0475
 20
-66.2131
 30
0.0
 10
-57.203
 20
-66.2567
 30
0.0
 10
-57.3783
 20
-66.2459
 30
0.0
 10
-57.3783
 20
-66.2459
 30
0.0
 10
-57.3783
 20
-66.2459
 30
0.0
 10
-57.5128
 20
-64.2937
 30
0.0
 10
-57.5128
 20
-64.2937
 30
0.0
  0
SPLINE
  5
9E
330
1F
100
AcDbEntity
  8
Vrstva 1
 62
   250
100
AcDbSpline
210
0.0
220
0.0
230
1.0
 70
    11
 71
     3
 72
    68
 73
    64
 74
     0
 42
0.0000000001
 43
0.0000000001
 40
0.0
 40
0.0
 40
0.0
 40
0.0
 40
0.0588235294117647
 40
0.0588235294117647
 40
0.0588235294117647
 40
0.0588235294117647
 40
0.1176470588235294
 40
0.1176470588235294
 40
0.1176470588235294
 40
0.1176470588235294
 40
0.1764705882352941
 40
0.1764705882352941
 40
0.1764705882352941
 40
0.1764705882352941
 40
0.2352941176470588
 40
0.2352941176470588
 40
0.2352941176470588
 40
0.2352941176470588
 40
0.2941176470588235
 40
0.2941176470588235
 40
0.2941176470588235
 40
0.2941176470588235
 40
0.3529411764705883
 40
0.3529411764705883
 40
0.3529411764705883
 40
0.3529411764705883
 40
0.4117647058823529
 40
0.4117647058823529
 40
0.4117647058823529
 40
0.4117647058823529
 40
0.4705882352941176
 40
0.4705882352941176
 40
0.4705882352941176
 40
0.4705882352941176
 40
0.5294117647058824
 40
0.5294117647058824
 40
0.5294117647058824
 40
0.5294117647058824
 40
0.5882352941176471
 40
0.5882352941176471
 40
0.5882352941176471
 40
0.5882352941176471
 40
0.6470588235294118
 40
0.6470588235294118
 40
0.6470588235294118
 40
0.6470588235294118
 40
0.7058823529411765
 40
0.7058823529411765
 40
0.7058823529411765
 40
0.7058823529411765
 40
0.7647058823529411
 40
0.7647058823529411
 40
0.7647058823529411
 40
0.7647058823529411
 40
0.8235294117647058
 40
0.8235294117647058
 40
0.8235294117647058
 40
0.8235294117647058
 40
0.8823529411764706
 40
0.8823529411764706
 40
0.8823529411764706
 40
0.8823529411764706
 40
1.0
 40
1.0
 40
1.0
 40
1.0
 10
-56.028
 20
-62.3829
 30
0.0
 10
-56.028
 20
-62.3829
 30
0.0
 10
-56.028
 20
-62.3829
 30
0.0
 10
-56.028
 20
-62.3829
 30
0.0
 10
-56.028
 20
-62.3829
 30
0.0
 10
-56.028
 20
-62.3829
 30
0.0
 10
-56.9561
 20
-63.1545
 30
0.0
 10
-56.9561
 20
-63.1545
 30
0.0
 10
-56.9561
 20
-63.1545
 30
0.0
 10
-56.9561
 20
-63.1545
 30
0.0
 10
-56.3073
 20
-64.1897
 30
0.0
 10
-56.3073
 20
-64.1897
 30
0.0
 10
-56.3073
 20
-64.1897
 30
0.0
 10
-56.2431
 20
-64.1212
 30
0.0
 10
-56.164
 20
-64.0403
 30
0.0
 10
-56.0506
 20
-63.946
 30
0.0
 10
-56.0506
 20
-63.946
 30
0.0
 10
-55.6657
 20
-63.626
 30
0.0
 10
-55.3493
 20
-63.6606
 30
0.0
 10
-55.1408
 20
-63.9113
 30
0.0
 10
-55.1408
 20
-63.9113
 30
0.0
 10
-54.922
 20
-64.1684
 30
0.0
 10
-55.0029
 20
-64.5082
 30
0.0
 10
-55.2476
 20
-64.7116
 30
0.0
 10
-55.2476
 20
-64.7116
 30
0.0
 10
-55.4266
 20
-64.8605
 30
0.0
 10
-55.6344
 20
-64.9323
 30
0.0
 10
-55.7546
 20
-64.9516
 30
0.0
 10
-55.7546
 20
-64.9516
 30
0.0
 10
-55.7546
 20
-64.9516
 30
0.0
 10
-55.6541
 20
-65.2061
 30
0.0
 10
-55.6541
 20
-65.2061
 30
0.0
 10
-55.6541
 20
-65.2061
 30
0.0
 10
-55.509
 20
-65.1863
 30
0.0
 10
-55.2833
 20
-65.0997
 30
0.0
 10
-55.0715
 20
-64.9235
 30
0.0
 10
-55.0715
 20
-64.9235
 30
0.0
 10
-54.6507
 20
-64.5737
 30
0.0
 10
-54.5851
 20
-64.0397
 30
0.0
 10
-54.9001
 20
-63.6607
 30
0.0
 10
-54.9001
 20
-63.6607
 30
0.0
 10
-55.1011
 20
-63.4191
 30
0.0
 10
-55.3677
 20
-63.3531
 30
0.0
 10
-55.5894
 20
-63.3961
 30
0.0
 10
-55.5894
 20
-63.3961
 30
0.0
 10
-55.7708
 20
-63.4208
 30
0.0
 10
-55.9418
 20
-63.5123
 30
0.0
 10
-56.094
 20
-63.6389
 30
0.0
 10
-56.094
 20
-63.6389
 30
0.0
 10
-56.1657
 20
-63.6986
 30
0.0
 10
-56.2049
 20
-63.7362
 30
0.0
 10
-56.2448
 20
-63.7794
 30
0.0
 10
-56.2448
 20
-63.7794
 30
0.0
 10
-56.2448
 20
-63.7794
 30
0.0
 10
-56.5844
 20
-63.219
 30
0.0
 10
-56.5844
 20
-63.219
 30
0.0
 10
-56.5844
 20
-63.219
 30
0.0
 10
-56.5844
 20
-63.219
 30
0.0
 10
-55.8444
 20
-62.6038
 30
0.0
 10
-55.8444
 20
-62.6038
 30
0.0
 10
-55.8444
 20
-62.6038
 30
0.0
 10
-55.8444
 20
-62.6038
 30
0.0
 10
-56.028
 20
-62.3829
 30
0.0
 10
-56.028
 20
-62.3829
 30
0.0
  0
SPLINE
  5
9F
330
1F
100
AcDbEntity
  8
Vrstva 1
 62
   250
100
AcDbSpline
210
0.0
220
0.0
230
1.0
 70
    11
 71
     3
 72
    52
 73
    48
 74
     0
 42
0.0000000001
 43
0.0000000001
 40
0.0
 40
0.0
 40
0.0
 40
0.0
 40
0.0769230769230769
 40
0.0769230769230769
 40
0.0769230769230769
 40
0.0769230769230769
 40
0.1538461538461539
 40
0.1538461538461539
 40
0.1538461538461539
 40
0.1538461538461539
 40
0.2307692307692308
 40
0.2307692307692308
 40
0.2307692307692308
 40
0.2307692307692308
 40
0.3076923076923077
 40
0.3076923076923077
 40
0.3076923076923077
 40
0.3076923076923077
 40
0.3846153846153846
 40
0.3846153846153846
 40
0.3846153846153846
 40
0.3846153846153846
 40
0.4615384615384616
 40
0.4615384615384616
 40
0.4615384615384616
 40
0.4615384615384616
 40
0.5384615384615384
 40
0.5384615384615384
 40
0.5384615384615384
 40
0.5384615384615384
 40
0.6153846153846154
 40
0.6153846153846154
 40
0.6153846153846154
 40
0.6153846153846154
 40
0.6923076923076923
 40
0.6923076923076923
 40
0.6923076923076923
 40
0.6923076923076923
 40
0.7692307692307693
 40
0.7692307692307693
 40
0.7692307692307693
 40
0.7692307692307693
 40
0.8461538461538461
 40
0.8461538461538461
 40
0.8461538461538461
 40
0.8461538461538461
 40
1.0
 40
1.0
 40
1.0
 40
1.0
 10
-54.5728
 20
-61.1227
 30
0.0
 10
-54.5728
 20
-61.1227
 30
0.0
 10
-54.5728
 20
-61.1227
 30
0.0
 10
-54.5728
 20
-61.1227
 30
0.0
 10
-54.5728
 20
-61.1227
 30
0.0
 10
-54.5728
 20
-61.1227
 30
0.0
 10
-54.3942
 20
-61.3375
 30
0.0
 10
-54.3942
 20
-61.3375
 30
0.0
 10
-54.3942
 20
-61.3375
 30
0.0
 10
-54.4504
 20
-61.3792
 30
0.0
 10
-54.514
 20
-61.4422
 30
0.0
 10
-54.5787
 20
-61.5161
 30
0.0
 10
-54.5787
 20
-61.5161
 30
0.0
 10
-54.9389
 20
-61.9267
 30
0.0
 10
-54.9057
 20
-62.4037
 30
0.0
 10
-54.6825
 20
-62.763
 30
0.0
 10
-54.6825
 20
-62.763
 30
0.0
 10
-54.6825
 20
-62.763
 30
0.0
 10
-54.6765
 20
-62.7581
 30
0.0
 10
-54.6765
 20
-62.7581
 30
0.0
 10
-54.6765
 20
-62.7581
 30
0.0
 10
-54.6882
 20
-62.556
 30
0.0
 10
-54.6084
 20
-62.3179
 30
0.0
 10
-54.3936
 20
-62.1394
 30
0.0
 10
-54.3936
 20
-62.1394
 30
0.0
 10
-54.0504
 20
-61.8541
 30
0.0
 10
-53.6003
 20
-61.9037
 30
0.0
 10
-53.2878
 20
-62.2798
 30
0.0
 10
-53.2878
 20
-62.2798
 30
0.0
 10
-52.99
 20
-62.6379
 30
0.0
 10
-52.9588
 20
-63.167
 30
0.0
 10
-53.3647
 20
-63.5045
 30
0.0
 10
-53.3647
 20
-63.5045
 30
0.0
 10
-53.7764
 20
-63.8468
 30
0.0
 10
-54.316
 20
-63.7504
 30
0.0
 10
-54.7352
 20
-63.2461
 30
0.0
 10
-54.7352
 20
-63.2461
 30
0.0
 10
-55.0528
 20
-62.864
 30
0.0
 10
-55.169
 20
-62.451
 30
0.0
 10
-55.1339
 20
-62.0988
 30
0.0
 10
-55.1339
 20
-62.0988
 30
0.0
 10
-55.1042
 20
-61.8067
 30
0.0
 10
-54.9712
 20
-61.5295
 30
0.0
 10
-54.7513
 20
-61.2963
 30
0.0
 10
-54.7513
 20
-61.2963
 30
0.0
 10
-54.6837
 20
-61.2198
 30
0.0
 10
-54.6206
 20
-61.1623
 30
0.0
 10
-54.5728
 20
-61.1227
 30
0.0
  0
SPLINE
  5
A0
330
1F
100
AcDbEntity
  8
Vrstva 1
 62
   250
100
AcDbSpline
210
0.0
220
0.0
230
1.0
 70
    11
 71
     3
 72
    28
 73
    24
 74
     0
 42
0.0000000001
 43
0.0000000001
 40
0.0
 40
0.0
 40
0.0
 40
0.0
 40
0.1428571428571428
 40
0.1428571428571428
 40
0.1428571428571428
 40
0.1428571428571428
 40
0.2857142857142857
 40
0.2857142857142857
 40
0.2857142857142857
 40
0.2857142857142857
 40
0.4285714285714285
 40
0.4285714285714285
 40
0.4285714285714285
 40
0.4285714285714285
 40
0.5714285714285714
 40
0.5714285714285714
 40
0.5714285714285714
 40
0.5714285714285714
 40
0.7142857142857143
 40
0.7142857142857143
 40
0.7142857142857143
 40
0.7142857142857143
 40
1.0
 40
1.0
 40
1.0
 40
1.0
 10
-53.5274
 20
-63.2965
 30
0.0
 10
-53.5274
 20
-63.2965
 30
0.0
 10
-53.5274
 20
-63.2965
 30
0.0
 10
-53.5274
 20
-63.2965
 30
0.0
 10
-53.5274
 20
-63.2965
 30
0.0
 10
-53.3036
 20
-63.1106
 30
0.0
 10
-53.3077
 20
-62.7959
 30
0.0
 10
-53.5385
 20
-62.5185
 30
0.0
 10
-53.5385
 20
-62.5185
 30
0.0
 10
-53.7692
 20
-62.241
 30
0.0
 10
-54.0663
 20
-62.2054
 30
0.0
 10
-54.308
 20
-62.4062
 30
0.0
 10
-54.308
 20
-62.4062
 30
0.0
 10
-54.4661
 20
-62.5379
 30
0.0
 10
-54.5359
 20
-62.7574
 30
0.0
 10
-54.4884
 20
-62.9602
 30
0.0
 10
-54.4884
 20
-62.9602
 30
0.0
 10
-54.4785
 20
-63.0024
 30
0.0
 10
-54.4607
 20
-63.048
 30
0.0
 10
-54.421
 20
-63.0957
 30
0.0
 10
-54.421
 20
-63.0957
 30
0.0
 10
-54.1526
 20
-63.4126
 30
0.0
 10
-53.8049
 20
-63.5273
 30
0.0
 10
-53.5274
 20
-63.2965
 30
0.0
  0
SPLINE
  5
A1
330
1F
100
AcDbEntity
  8
Vrstva 1
 62
   250
100
AcDbSpline
210
0.0
220
0.0
230
1.0
 70
    11
 71
     3
 72
    32
 73
    28
 74
     0
 42
0.0000000001
 43
0.0000000001
 40
0.0
 40
0.0
 40
0.0
 40
0.0
 40
0.125
 40
0.125
 40
0.125
 40
0.125
 40
0.25
 40
0.25
 40
0.25
 40
0.25
 40
0.375
 40
0.375
 40
0.375
 40
0.375
 40
0.5
 40
0.5
 40
0.5
 40
0.5
 40
0.625
 40
0.625
 40
0.625
 40
0.625
 40
0.75
 40
0.75
 40
0.75
 40
0.75
 40
1.0
 40
1.0
 40
1.0
 40
1.0
 10
-52.0832
 20
-62.9942
 30
0.0
 10
-52.0832
 20
-62.9942
 30
0.0
 10
-52.0832
 20
-62.9942
 30
0.0
 10
-52.0832
 20
-62.9942
 30
0.0
 10
-52.0832
 20
-62.9942
 30
0.0
 10
-52.1036
 20
-62.5872
 30
0.0
 10
-52.2212
 20
-62.0391
 30
0.0
 10
-52.7045
 20
-61.4518
 30
0.0
 10
-52.7045
 20
-61.4518
 30
0.0
 10
-53.1907
 20
-60.8669
 30
0.0
 10
-53.7137
 20
-60.6506
 30
0.0
 10
-54.1051
 20
-60.5623
 30
0.0
 10
-54.1051
 20
-60.5623
 30
0.0
 10
-54.1051
 20
-60.5623
 30
0.0
 10
-54.308
 20
-60.731
 30
0.0
 10
-54.308
 20
-60.731
 30
0.0
 10
-54.308
 20
-60.731
 30
0.0
 10
-53.8481
 20
-60.8532
 30
0.0
 10
-53.3719
 20
-61.0982
 30
0.0
 10
-52.9253
 20
-61.6353
 30
0.0
 10
-52.9253
 20
-61.6353
 30
0.0
 10
-52.4787
 20
-62.1724
 30
0.0
 10
-52.3228
 20
-62.6937
 30
0.0
 10
-52.2861
 20
-63.1629
 30
0.0
 10
-52.2861
 20
-63.1629
 30
0.0
 10
-52.2861
 20
-63.1629
 30
0.0
 10
-52.0832
 20
-62.9942
 30
0.0
 10
-52.0832
 20
-62.9942
 30
0.0
  0
SPLINE
  5
A2
330
1F
100
AcDbEntity
  8
Vrstva 1
 62
   250
100
AcDbSpline
210
0.0
220
0.0
230
1.0
 70
    11
 71
     3
 72
    52
 73
    48
 74
     0
 42
0.0000000001
 43
0.0000000001
 40
0.0
 40
0.0
 40
0.0
 40
0.0
 40
0.0769230769230769
 40
0.0769230769230769
 40
0.0769230769230769
 40
0.0769230769230769
 40
0.1538461538461539
 40
0.1538461538461539
 40
0.1538461538461539
 40
0.1538461538461539
 40
0.2307692307692308
 40
0.2307692307692308
 40
0.2307692307692308
 40
0.2307692307692308
 40
0.3076923076923077
 40
0.3076923076923077
 40
0.3076923076923077
 40
0.3076923076923077
 40
0.3846153846153846
 40
0.3846153846153846
 40
0.3846153846153846
 40
0.3846153846153846
 40
0.4615384615384616
 40
0.4615384615384616
 40
0.4615384615384616
 40
0.4615384615384616
 40
0.5384615384615384
 40
0.5384615384615384
 40
0.5384615384615384
 40
0.5384615384615384
 40
0.6153846153846154
 40
0.6153846153846154
 40
0.6153846153846154
 40
0.6153846153846154
 40
0.6923076923076923
 40
0.6923076923076923
 40
0.6923076923076923
 40
0.6923076923076923
 40
0.7692307692307693
 40
0.7692307692307693
 40
0.7692307692307693
 40
0.7692307692307693
 40
0.8461538461538461
 40
0.8461538461538461
 40
0.8461538461538461
 40
0.8461538461538461
 40
1.0
 40
1.0
 40
1.0
 40
1.0
 10
-70.8279
 20
-9.9244
 30
0.0
 10
-70.8279
 20
-9.9244
 30
0.0
 10
-70.4678
 20
-9.7206
 30
0.0
 10
-70.4678
 20
-9.7206
 30
0.0
 10
-70.4678
 20
-9.7206
 30
0.0
 10
-70.3538
 20
-9.9209
 30
0.0
 10
-70.1754
 20
-10.0822
 30
0.0
 10
-69.9525
 20
-10.1826
 30
0.0
 10
-69.9525
 20
-10.1826
 30
0.0
 10
-69.3792
 20
-10.4409
 30
0.0
 10
-68.6765
 20
-10.251
 30
0.0
 10
-68.302
 20
-9.4194
 30
0.0
 10
-68.302
 20
-9.4194
 30
0.0
 10
-68.1442
 20
-9.0692
 30
0.0
 10
-68.1136
 20
-8.7084
 30
0.0
 10
-68.2146
 20
-8.4034
 30
0.0
 10
-68.2146
 20
-8.4034
 30
0.0
 10
-68.2146
 20
-8.4034
 30
0.0
 10
-67.8581
 20
-8.1978
 30
0.0
 10
-67.8581
 20
-8.1978
 30
0.0
 10
-67.8581
 20
-8.1978
 30
0.0
 10
-67.8581
 20
-8.1978
 30
0.0
 10
-67.9882
 20
-7.986
 30
0.0
 10
-67.9882
 20
-7.986
 30
0.0
 10
-67.9882
 20
-7.986
 30
0.0
 10
-67.9882
 20
-7.986
 30
0.0
 10
-68.3261
 20
-8.1785
 30
0.0
 10
-68.3261
 20
-8.1785
 30
0.0
 10
-68.3261
 20
-8.1785
 30
0.0
 10
-68.4386
 20
-7.9746
 30
0.0
 10
-68.615
 20
-7.8186
 30
0.0
 10
-68.8344
 20
-7.7198
 30
0.0
 10
-68.8344
 20
-7.7198
 30
0.0
 10
-69.4606
 20
-7.4376
 30
0.0
 10
-70.1563
 20
-7.7158
 30
0.0
 10
-70.4958
 20
-8.4694
 30
0.0
 10
-70.4958
 20
-8.4694
 30
0.0
 10
-70.6568
 20
-8.8268
 30
0.0
 10
-70.6803
 20
-9.1908
 30
0.0
 10
-70.5794
 20
-9.4957
 30
0.0
 10
-70.5794
 20
-9.4957
 30
0.0
 10
-70.5794
 20
-9.4957
 30
0.0
 10
-70.9374
 20
-9.7048
 30
0.0
 10
-70.9374
 20
-9.7048
 30
0.0
 10
-70.9374
 20
-9.7048
 30
0.0
 10
-70.9374
 20
-9.7048
 30
0.0
 10
-70.8279
 20
-9.9244
 30
0.0
 10
-70.8279
 20
-9.9244
 30
0.0
  0
SPLINE
  5
A3
330
1F
100
AcDbEntity
  8
Vrstva 1
 62
   250
100
AcDbSpline
210
0.0
220
0.0
230
1.0
 70
    11
 71
     3
 72
    28
 73
    24
 74
     0
 42
0.0000000001
 43
0.0000000001
 40
0.0
 40
0.0
 40
0.0
 40
0.0
 40
0.1428571428571428
 40
0.1428571428571428
 40
0.1428571428571428
 40
0.1428571428571428
 40
0.2857142857142857
 40
0.2857142857142857
 40
0.2857142857142857
 40
0.2857142857142857
 40
0.4285714285714285
 40
0.4285714285714285
 40
0.4285714285714285
 40
0.4285714285714285
 40
0.5714285714285714
 40
0.5714285714285714
 40
0.5714285714285714
 40
0.5714285714285714
 40
0.7142857142857143
 40
0.7142857142857143
 40
0.7142857142857143
 40
0.7142857142857143
 40
1.0
 40
1.0
 40
1.0
 40
1.0
 10
-70.281
 20
-9.3154
 30
0.0
 10
-70.281
 20
-9.3154
 30
0.0
 10
-70.281
 20
-9.3154
 30
0.0
 10
-70.281
 20
-9.3154
 30
0.0
 10
-70.281
 20
-9.3154
 30
0.0
 10
-70.281
 20
-9.3154
 30
0.0
 10
-70.2897
 20
-9.3155
 30
0.0
 10
-70.2897
 20
-9.3155
 30
0.0
 10
-70.2897
 20
-9.3155
 30
0.0
 10
-70.313
 20
-9.0838
 30
0.0
 10
-70.2941
 20
-8.8624
 30
0.0
 10
-70.1745
 20
-8.5971
 30
0.0
 10
-70.1745
 20
-8.5971
 30
0.0
 10
-69.9482
 20
-8.0948
 30
0.0
 10
-69.4697
 20
-7.7315
 30
0.0
 10
-68.9531
 20
-7.9643
 30
0.0
 10
-68.9531
 20
-7.9643
 30
0.0
 10
-68.7726
 20
-8.0455
 30
0.0
 10
-68.6527
 20
-8.1761
 30
0.0
 10
-68.5786
 20
-8.3328
 30
0.0
 10
-68.5786
 20
-8.3328
 30
0.0
 10
-68.5786
 20
-8.3328
 30
0.0
 10
-70.281
 20
-9.3154
 30
0.0
 10
-70.281
 20
-9.3154
 30
0.0
  0
SPLINE
  5
A4
330
1F
100
AcDbEntity
  8
Vrstva 1
 62
   250
100
AcDbSpline
210
0.0
220
0.0
230
1.0
 70
    11
 71
     3
 72
    28
 73
    24
 74
     0
 42
0.0000000001
 43
0.0000000001
 40
0.0
 40
0.0
 40
0.0
 40
0.0
 40
0.1428571428571428
 40
0.1428571428571428
 40
0.1428571428571428
 40
0.1428571428571428
 40
0.2857142857142857
 40
0.2857142857142857
 40
0.2857142857142857
 40
0.2857142857142857
 40
0.4285714285714285
 40
0.4285714285714285
 40
0.4285714285714285
 40
0.4285714285714285
 40
0.5714285714285714
 40
0.5714285714285714
 40
0.5714285714285714
 40
0.5714285714285714
 40
0.7142857142857143
 40
0.7142857142857143
 40
0.7142857142857143
 40
0.7142857142857143
 40
1.0
 40
1.0
 40
1.0
 40
1.0
 10
-68.5181
 20
-8.5857
 30
0.0
 10
-68.5181
 20
-8.5857
 30
0.0
 10
-68.5181
 20
-8.5857
 30
0.0
 10
-68.5181
 20
-8.5857
 30
0.0
 10
-68.5181
 20
-8.5857
 30
0.0
 10
-68.5181
 20
-8.5857
 30
0.0
 10
-68.5074
 20
-8.5905
 30
0.0
 10
-68.5074
 20
-8.5905
 30
0.0
 10
-68.5074
 20
-8.5905
 30
0.0
 10
-68.4761
 20
-8.8515
 30
0.0
 10
-68.5292
 20
-9.083
 30
0.0
 10
-68.6216
 20
-9.2882
 30
0.0
 10
-68.6216
 20
-9.2882
 30
0.0
 10
-68.8623
 20
-9.8224
 30
0.0
 10
-69.3491
 20
-10.1565
 30
0.0
 10
-69.8444
 20
-9.9333
 30
0.0
 10
-69.8444
 20
-9.9333
 30
0.0
 10
-70.039
 20
-9.8457
 30
0.0
 10
-70.1464
 20
-9.7249
 30
0.0
 10
-70.2137
 20
-9.5627
 30
0.0
 10
-70.2137
 20
-9.5627
 30
0.0
 10
-70.2137
 20
-9.5627
 30
0.0
 10
-68.5181
 20
-8.5857
 30
0.0
 10
-68.5181
 20
-8.5857
 30
0.0
  0
SPLINE
  5
A5
330
1F
100
AcDbEntity
  8
Vrstva 1
 62
   250
100
AcDbSpline
210
0.0
220
0.0
230
1.0
 70
    11
 71
     3
 72
    52
 73
    48
 74
     0
 42
0.0000000001
 43
0.0000000001
 40
0.0
 40
0.0
 40
0.0
 40
0.0
 40
0.0769230769230769
 40
0.0769230769230769
 40
0.0769230769230769
 40
0.0769230769230769
 40
0.1538461538461539
 40
0.1538461538461539
 40
0.1538461538461539
 40
0.1538461538461539
 40
0.2307692307692308
 40
0.2307692307692308
 40
0.2307692307692308
 40
0.2307692307692308
 40
0.3076923076923077
 40
0.3076923076923077
 40
0.3076923076923077
 40
0.3076923076923077
 40
0.3846153846153846
 40
0.3846153846153846
 40
0.3846153846153846
 40
0.3846153846153846
 40
0.4615384615384616
 40
0.4615384615384616
 40
0.4615384615384616
 40
0.4615384615384616
 40
0.5384615384615384
 40
0.5384615384615384
 40
0.5384615384615384
 40
0.5384615384615384
 40
0.6153846153846154
 40
0.6153846153846154
 40
0.6153846153846154
 40
0.6153846153846154
 40
0.6923076923076923
 40
0.6923076923076923
 40
0.6923076923076923
 40
0.6923076923076923
 40
0.7692307692307693
 40
0.7692307692307693
 40
0.7692307692307693
 40
0.7692307692307693
 40
0.8461538461538461
 40
0.8461538461538461
 40
0.8461538461538461
 40
0.8461538461538461
 40
1.0
 40
1.0
 40
1.0
 40
1.0
 10
-67.3026
 20
-11.3295
 30
0.0
 10
-67.3026
 20
-11.3295
 30
0.0
 10
-67.3026
 20
-11.3295
 30
0.0
 10
-67.3026
 20
-11.3295
 30
0.0
 10
-67.3026
 20
-11.3295
 30
0.0
 10
-67.3026
 20
-11.3295
 30
0.0
 10
-67.5962
 20
-11.1973
 30
0.0
 10
-67.5962
 20
-11.1973
 30
0.0
 10
-67.5962
 20
-11.1973
 30
0.0
 10
-67.5962
 20
-11.1973
 30
0.0
 10
-67.3125
 20
-10.5675
 30
0.0
 10
-67.3125
 20
-10.5675
 30
0.0
 10
-67.3125
 20
-10.5675
 30
0.0
 10
-67.3125
 20
-10.5675
 30
0.0
 10
-68.3811
 20
-10.0861
 30
0.0
 10
-68.3811
 20
-10.0861
 30
0.0
 10
-68.3811
 20
-10.0861
 30
0.0
 10
-68.3811
 20
-10.0861
 30
0.0
 10
-68.2902
 20
-9.8845
 30
0.0
 10
-68.2902
 20
-9.8845
 30
0.0
 10
-68.2902
 20
-9.8845
 30
0.0
 10
-68.2902
 20
-9.8845
 30
0.0
 10
-66.6026
 20
-8.8783
 30
0.0
 10
-66.6026
 20
-8.8783
 30
0.0
 10
-66.6026
 20
-8.8783
 30
0.0
 10
-66.6026
 20
-8.8783
 30
0.0
 10
-66.2665
 20
-9.0298
 30
0.0
 10
-66.2665
 20
-9.0298
 30
0.0
 10
-66.2665
 20
-9.0298
 30
0.0
 10
-66.2665
 20
-9.0298
 30
0.0
 10
-66.9105
 20
-10.4591
 30
0.0
 10
-66.9105
 20
-10.4591
 30
0.0
 10
-66.9105
 20
-10.4591
 30
0.0
 10
-66.9105
 20
-10.4591
 30
0.0
 10
-66.5885
 20
-10.6042
 30
0.0
 10
-66.5885
 20
-10.6042
 30
0.0
 10
-66.5885
 20
-10.6042
 30
0.0
 10
-66.5885
 20
-10.6042
 30
0.0
 10
-66.6969
 20
-10.8448
 30
0.0
 10
-66.6969
 20
-10.8448
 30
0.0
 10
-66.6969
 20
-10.8448
 30
0.0
 10
-66.6969
 20
-10.8448
 30
0.0
 10
-67.0189
 20
-10.6997
 30
0.0
 10
-67.0189
 20
-10.6997
 30
0.0
 10
-67.0189
 20
-10.6997
 30
0.0
 10
-67.0189
 20
-10.6997
 30
0.0
 10
-67.3026
 20
-11.3295
 30
0.0
 10
-67.3026
 20
-11.3295
 30
0.0
  0
SPLINE
  5
A6
330
1F
100
AcDbEntity
  8
Vrstva 1
 62
   250
100
AcDbSpline
210
0.0
220
0.0
230
1.0
 70
    11
 71
     3
 72
    36
 73
    32
 74
     0
 42
0.0000000001
 43
0.0000000001
 40
0.0
 40
0.0
 40
0.0
 40
0.0
 40
0.1111111111111111
 40
0.1111111111111111
 40
0.1111111111111111
 40
0.1111111111111111
 40
0.2222222222222222
 40
0.2222222222222222
 40
0.2222222222222222
 40
0.2222222222222222
 40
0.3333333333333333
 40
0.3333333333333333
 40
0.3333333333333333
 40
0.3333333333333333
 40
0.4444444444444444
 40
0.4444444444444444
 40
0.4444444444444444
 40
0.4444444444444444
 40
0.5555555555555556
 40
0.5555555555555556
 40
0.5555555555555556
 40
0.5555555555555556
 40
0.6666666666666666
 40
0.6666666666666666
 40
0.6666666666666666
 40
0.6666666666666666
 40
0.7777777777777778
 40
0.7777777777777778
 40
0.7777777777777778
 40
0.7777777777777778
 40
1.0
 40
1.0
 40
1.0
 40
1.0
 10
-67.9577
 20
-9.9873
 30
0.0
 10
-67.9577
 20
-9.9873
 30
0.0
 10
-67.9577
 20
-9.9873
 30
0.0
 10
-67.9577
 20
-9.9873
 30
0.0
 10
-67.9577
 20
-9.9873
 30
0.0
 10
-67.9577
 20
-9.9873
 30
0.0
 10
-67.9545
 20
-9.9802
 30
0.0
 10
-67.9545
 20
-9.9802
 30
0.0
 10
-67.9545
 20
-9.9802
 30
0.0
 10
-67.9545
 20
-9.9802
 30
0.0
 10
-67.0397
 20
-9.4517
 30
0.0
 10
-67.0397
 20
-9.4517
 30
0.0
 10
-67.0397
 20
-9.4517
 30
0.0
 10
-66.9283
 20
-9.3743
 30
0.0
 10
-66.827
 20
-9.3008
 30
0.0
 10
-66.6956
 20
-9.1982
 30
0.0
 10
-66.6956
 20
-9.1982
 30
0.0
 10
-66.6956
 20
-9.1982
 30
0.0
 10
-66.6851
 20
-9.203
 30
0.0
 10
-66.6851
 20
-9.203
 30
0.0
 10
-66.6851
 20
-9.203
 30
0.0
 10
-66.7463
 20
-9.3201
 30
0.0
 10
-66.804
 20
-9.4388
 30
0.0
 10
-66.8582
 20
-9.5591
 30
0.0
 10
-66.8582
 20
-9.5591
 30
0.0
 10
-66.8582
 20
-9.5591
 30
0.0
 10
-67.2041
 20
-10.327
 30
0.0
 10
-67.2041
 20
-10.327
 30
0.0
 10
-67.2041
 20
-10.327
 30
0.0
 10
-67.2041
 20
-10.327
 30
0.0
 10
-67.9577
 20
-9.9873
 30
0.0
 10
-67.9577
 20
-9.9873
 30
0.0
  0
SPLINE
  5
A7
330
1F
100
AcDbEntity
  8
Vrstva 1
 62
   250
100
AcDbSpline
210
0.0
220
0.0
230
1.0
 70
    11
 71
     3
 72
    40
 73
    36
 74
     0
 42
0.0000000001
 43
0.0000000001
 40
0.0
 40
0.0
 40
0.0
 40
0.0
 40
0.1
 40
0.1
 40
0.1
 40
0.1
 40
0.2
 40
0.2
 40
0.2
 40
0.2
 40
0.3
 40
0.3
 40
0.3
 40
0.3
 40
0.4
 40
0.4
 40
0.4
 40
0.4
 40
0.5
 40
0.5
 40
0.5
 40
0.5
 40
0.6
 40
0.6
 40
0.6
 40
0.6
 40
0.7
 40
0.7
 40
0.7
 40
0.7
 40
0.8
 40
0.8
 40
0.8
 40
0.8
 40
1.0
 40
1.0
 40
1.0
 40
1.0
 10
-65.6651
 20
-9.3007
 30
0.0
 10
-65.6651
 20
-9.3007
 30
0.0
 10
-65.6651
 20
-9.3007
 30
0.0
 10
-65.6651
 20
-9.3007
 30
0.0
 10
-65.6651
 20
-9.3007
 30
0.0
 10
-65.6651
 20
-9.3007
 30
0.0
 10
-65.7814
 20
-9.559
 30
0.0
 10
-65.7814
 20
-9.559
 30
0.0
 10
-65.7814
 20
-9.559
 30
0.0
 10
-65.7814
 20
-9.559
 30
0.0
 10
-64.6563
 20
-10.0659
 30
0.0
 10
-64.6563
 20
-10.0659
 30
0.0
 10
-64.6563
 20
-10.0659
 30
0.0
 10
-64.6563
 20
-10.0659
 30
0.0
 10
-64.6595
 20
-10.073
 30
0.0
 10
-64.6595
 20
-10.073
 30
0.0
 10
-64.6595
 20
-10.073
 30
0.0
 10
-64.6595
 20
-10.073
 30
0.0
 10
-66.5738
 20
-11.6578
 30
0.0
 10
-66.5738
 20
-11.6578
 30
0.0
 10
-66.5738
 20
-11.6578
 30
0.0
 10
-66.5738
 20
-11.6578
 30
0.0
 10
-66.2518
 20
-11.8029
 30
0.0
 10
-66.2518
 20
-11.8029
 30
0.0
 10
-66.2518
 20
-11.8029
 30
0.0
 10
-66.2518
 20
-11.8029
 30
0.0
 10
-64.3069
 20
-10.1595
 30
0.0
 10
-64.3069
 20
-10.1595
 30
0.0
 10
-64.3069
 20
-10.1595
 30
0.0
 10
-64.3069
 20
-10.1595
 30
0.0
 10
-64.2145
 20
-9.9541
 30
0.0
 10
-64.2145
 20
-9.9541
 30
0.0
 10
-64.2145
 20
-9.9541
 30
0.0
 10
-64.2145
 20
-9.9541
 30
0.0
 10
-65.6651
 20
-9.3007
 30
0.0
 10
-65.6651
 20
-9.3007
 30
0.0
  0
SPLINE
  5
A8
330
1F
100
AcDbEntity
  8
Vrstva 1
 62
   250
100
AcDbSpline
210
0.0
220
0.0
230
1.0
 70
    11
 71
     3
 72
    24
 73
    20
 74
     0
 42
0.0000000001
 43
0.0000000001
 40
0.0
 40
0.0
 40
0.0
 40
0.0
 40
0.1666666666666667
 40
0.1666666666666667
 40
0.1666666666666667
 40
0.1666666666666667
 40
0.3333333333333333
 40
0.3333333333333333
 40
0.3333333333333333
 40
0.3333333333333333
 40
0.5
 40
0.5
 40
0.5
 40
0.5
 40
0.6666666666666666
 40
0.6666666666666666
 40
0.6666666666666666
 40
0.6666666666666666
 40
1.0
 40
1.0
 40
1.0
 40
1.0
 10
-64.9983
 20
-12.8655
 30
0.0
 10
-64.9983
 20
-12.8655
 30
0.0
 10
-64.9983
 20
-12.8655
 30
0.0
 10
-64.9983
 20
-12.8655
 30
0.0
 10
-64.9983
 20
-12.8655
 30
0.0
 10
-64.8243
 20
-12.7438
 30
0.0
 10
-64.4917
 20
-12.4214
 30
0.0
 10
-64.2713
 20
-12.1588
 30
0.0
 10
-64.2713
 20
-12.1588
 30
0.0
 10
-64.2713
 20
-12.1588
 30
0.0
 10
-64.634
 20
-12.038
 30
0.0
 10
-64.634
 20
-12.038
 30
0.0
 10
-64.634
 20
-12.038
 30
0.0
 10
-64.7893
 20
-12.2787
 30
0.0
 10
-65.0553
 20
-12.6144
 30
0.0
 10
-65.2288
 20
-12.7916
 30
0.0
 10
-65.2288
 20
-12.7916
 30
0.0
 10
-65.2288
 20
-12.7916
 30
0.0
 10
-64.9983
 20
-12.8655
 30
0.0
 10
-64.9983
 20
-12.8655
 30
0.0
  0
SPLINE
  5
A9
330
1F
100
AcDbEntity
  8
Vrstva 1
 62
   250
100
AcDbSpline
210
0.0
220
0.0
230
1.0
 70
    11
 71
     3
 72
    68
 73
    64
 74
     0
 42
0.0000000001
 43
0.0000000001
 40
0.0
 40
0.0
 40
0.0
 40
0.0
 40
0.0588235294117647
 40
0.0588235294117647
 40
0.0588235294117647
 40
0.0588235294117647
 40
0.1176470588235294
 40
0.1176470588235294
 40
0.1176470588235294
 40
0.1176470588235294
 40
0.1764705882352941
 40
0.1764705882352941
 40
0.1764705882352941
 40
0.1764705882352941
 40
0.2352941176470588
 40
0.2352941176470588
 40
0.2352941176470588
 40
0.2352941176470588
 40
0.2941176470588235
 40
0.2941176470588235
 40
0.2941176470588235
 40
0.2941176470588235
 40
0.3529411764705883
 40
0.3529411764705883
 40
0.3529411764705883
 40
0.3529411764705883
 40
0.4117647058823529
 40
0.4117647058823529
 40
0.4117647058823529
 40
0.4117647058823529
 40
0.4705882352941176
 40
0.4705882352941176
 40
0.4705882352941176
 40
0.4705882352941176
 40
0.5294117647058824
 40
0.5294117647058824
 40
0.5294117647058824
 40
0.5294117647058824
 40
0.5882352941176471
 40
0.5882352941176471
 40
0.5882352941176471
 40
0.5882352941176471
 40
0.6470588235294118
 40
0.6470588235294118
 40
0.6470588235294118
 40
0.6470588235294118
 40
0.7058823529411765
 40
0.7058823529411765
 40
0.7058823529411765
 40
0.7058823529411765
 40
0.7647058823529411
 40
0.7647058823529411
 40
0.7647058823529411
 40
0.7647058823529411
 40
0.8235294117647058
 40
0.8235294117647058
 40
0.8235294117647058
 40
0.8235294117647058
 40
0.8823529411764706
 40
0.8823529411764706
 40
0.8823529411764706
 40
0.8823529411764706
 40
1.0
 40
1.0
 40
1.0
 40
1.0
 10
-61.7873
 20
-11.0476
 30
0.0
 10
-61.7873
 20
-11.0476
 30
0.0
 10
-61.7873
 20
-11.0476
 30
0.0
 10
-61.7873
 20
-11.0476
 30
0.0
 10
-61.7873
 20
-11.0476
 30
0.0
 10
-61.7873
 20
-11.0476
 30
0.0
 10
-62.8877
 20
-10.552
 30
0.0
 10
-62.8877
 20
-10.552
 30
0.0
 10
-62.8877
 20
-10.552
 30
0.0
 10
-62.8877
 20
-10.552
 30
0.0
 10
-63.5336
 20
-11.5888
 30
0.0
 10
-63.5336
 20
-11.5888
 30
0.0
 10
-63.5336
 20
-11.5888
 30
0.0
 10
-63.4439
 20
-11.6165
 30
0.0
 10
-63.3365
 20
-11.6522
 30
0.0
 10
-63.202
 20
-11.7127
 30
0.0
 10
-63.202
 20
-11.7127
 30
0.0
 10
-62.7456
 20
-11.9183
 30
0.0
 10
-62.638
 20
-12.2179
 30
0.0
 10
-62.7719
 20
-12.5152
 30
0.0
 10
-62.7719
 20
-12.5152
 30
0.0
 10
-62.907
 20
-12.8246
 30
0.0
 10
-63.2478
 20
-12.9009
 30
0.0
 10
-63.538
 20
-12.7702
 30
0.0
 10
-63.538
 20
-12.7702
 30
0.0
 10
-63.7503
 20
-12.6746
 30
0.0
 10
-63.9059
 20
-12.5193
 30
0.0
 10
-63.9759
 20
-12.4196
 30
0.0
 10
-63.9759
 20
-12.4196
 30
0.0
 10
-63.9759
 20
-12.4196
 30
0.0
 10
-64.1605
 20
-12.6216
 30
0.0
 10
-64.1605
 20
-12.6216
 30
0.0
 10
-64.1605
 20
-12.6216
 30
0.0
 10
-64.0792
 20
-12.7433
 30
0.0
 10
-63.9024
 20
-12.9082
 30
0.0
 10
-63.6512
 20
-13.0214
 30
0.0
 10
-63.6512
 20
-13.0214
 30
0.0
 10
-63.1523
 20
-13.2461
 30
0.0
 10
-62.6435
 20
-13.0709
 30
0.0
 10
-62.4411
 20
-12.6216
 30
0.0
 10
-62.4411
 20
-12.6216
 30
0.0
 10
-62.312
 20
-12.335
 30
0.0
 10
-62.3697
 20
-12.0665
 30
0.0
 10
-62.5055
 20
-11.8861
 30
0.0
 10
-62.5055
 20
-11.8861
 30
0.0
 10
-62.6072
 20
-11.7338
 30
0.0
 10
-62.7646
 20
-11.6203
 30
0.0
 10
-62.945
 20
-11.5391
 30
0.0
 10
-62.945
 20
-11.5391
 30
0.0
 10
-63.03
 20
-11.5008
 30
0.0
 10
-63.0811
 20
-11.4821
 30
0.0
 10
-63.1373
 20
-11.4652
 30
0.0
 10
-63.1373
 20
-11.4652
 30
0.0
 10
-63.1373
 20
-11.4652
 30
0.0
 10
-62.7827
 20
-10.9142
 30
0.0
 10
-62.7827
 20
-10.9142
 30
0.0
 10
-62.7827
 20
-10.9142
 30
0.0
 10
-62.7827
 20
-10.9142
 30
0.0
 10
-61.9053
 20
-11.3094
 30
0.0
 10
-61.9053
 20
-11.3094
 30
0.0
 10
-61.9053
 20
-11.3094
 30
0.0
 10
-61.9053
 20
-11.3094
 30
0.0
 10
-61.7873
 20
-11.0476
 30
0.0
 10
-61.7873
 20
-11.0476
 30
0.0
  0
SPLINE
  5
AA
330
1F
100
AcDbEntity
  8
Vrstva 1
 62
   250
100
AcDbSpline
210
0.0
220
0.0
230
1.0
 70
    11
 71
     3
 72
    52
 73
    48
 74
     0
 42
0.0000000001
 43
0.0000000001
 40
0.0
 40
0.0
 40
0.0
 40
0.0
 40
0.0769230769230769
 40
0.0769230769230769
 40
0.0769230769230769
 40
0.0769230769230769
 40
0.1538461538461539
 40
0.1538461538461539
 40
0.1538461538461539
 40
0.1538461538461539
 40
0.2307692307692308
 40
0.2307692307692308
 40
0.2307692307692308
 40
0.2307692307692308
 40
0.3076923076923077
 40
0.3076923076923077
 40
0.3076923076923077
 40
0.3076923076923077
 40
0.3846153846153846
 40
0.3846153846153846
 40
0.3846153846153846
 40
0.3846153846153846
 40
0.4615384615384616
 40
0.4615384615384616
 40
0.4615384615384616
 40
0.4615384615384616
 40
0.5384615384615384
 40
0.5384615384615384
 40
0.5384615384615384
 40
0.5384615384615384
 40
0.6153846153846154
 40
0.6153846153846154
 40
0.6153846153846154
 40
0.6153846153846154
 40
0.6923076923076923
 40
0.6923076923076923
 40
0.6923076923076923
 40
0.6923076923076923
 40
0.7692307692307693
 40
0.7692307692307693
 40
0.7692307692307693
 40
0.7692307692307693
 40
0.8461538461538461
 40
0.8461538461538461
 40
0.8461538461538461
 40
0.8461538461538461
 40
1.0
 40
1.0
 40
1.0
 40
1.0
 10
68.753
 20
27.3996
 30
0.0
 10
68.753
 20
27.3996
 30
0.0
 10
68.4192
 20
27.6441
 30
0.0
 10
68.4192
 20
27.6441
 30
0.0
 10
68.4192
 20
27.6441
 30
0.0
 10
68.5551
 20
27.8304
 30
0.0
 10
68.6288
 20
28.0594
 30
0.0
 10
68.6288
 20
28.3038
 30
0.0
 10
68.6288
 20
28.3038
 30
0.0
 10
68.6288
 20
28.9326
 30
0.0
 10
68.167
 20
29.4952
 30
0.0
 10
67.2551
 20
29.4952
 30
0.0
 10
67.2551
 20
29.4952
 30
0.0
 10
66.8709
 20
29.4952
 30
0.0
 10
66.5294
 20
29.3749
 30
0.0
 10
66.2927
 20
29.1576
 30
0.0
 10
66.2927
 20
29.1576
 30
0.0
 10
66.2927
 20
29.1576
 30
0.0
 10
65.9589
 20
29.3982
 30
0.0
 10
65.9589
 20
29.3982
 30
0.0
 10
65.9589
 20
29.3982
 30
0.0
 10
65.9589
 20
29.3982
 30
0.0
 10
65.8192
 20
29.1926
 30
0.0
 10
65.8192
 20
29.1926
 30
0.0
 10
65.8192
 20
29.1926
 30
0.0
 10
65.8192
 20
29.1926
 30
0.0
 10
66.1336
 20
28.9635
 30
0.0
 10
66.1336
 20
28.9635
 30
0.0
 10
66.1336
 20
28.9635
 30
0.0
 10
65.9939
 20
28.7772
 30
0.0
 10
65.924
 20
28.5523
 30
0.0
 10
65.924
 20
28.3116
 30
0.0
 10
65.924
 20
28.3116
 30
0.0
 10
65.924
 20
27.6247
 30
0.0
 10
66.4634
 20
27.1047
 30
0.0
 10
67.29
 20
27.1047
 30
0.0
 10
67.29
 20
27.1047
 30
0.0
 10
67.6819
 20
27.1047
 30
0.0
 10
68.0234
 20
27.2328
 30
0.0
 10
68.2601
 20
27.4502
 30
0.0
 10
68.2601
 20
27.4502
 30
0.0
 10
68.2601
 20
27.4502
 30
0.0
 10
68.5977
 20
27.2096
 30
0.0
 10
68.5977
 20
27.2096
 30
0.0
 10
68.5977
 20
27.2096
 30
0.0
 10
68.5977
 20
27.2096
 30
0.0
 10
68.753
 20
27.3996
 30
0.0
 10
68.753
 20
27.3996
 30
0.0
  0
SPLINE
  5
AB
330
1F
100
AcDbEntity
  8
Vrstva 1
 62
   250
100
AcDbSpline
210
0.0
220
0.0
230
1.0
 70
    11
 71
     3
 72
    28
 73
    24
 74
     0
 42
0.0000000001
 43
0.0000000001
 40
0.0
 40
0.0
 40
0.0
 40
0.0
 40
0.1428571428571428
 40
0.1428571428571428
 40
0.1428571428571428
 40
0.1428571428571428
 40
0.2857142857142857
 40
0.2857142857142857
 40
0.2857142857142857
 40
0.2857142857142857
 40
0.4285714285714285
 40
0.4285714285714285
 40
0.4285714285714285
 40
0.4285714285714285
 40
0.5714285714285714
 40
0.5714285714285714
 40
0.5714285714285714
 40
0.5714285714285714
 40
0.7142857142857143
 40
0.7142857142857143
 40
0.7142857142857143
 40
0.7142857142857143
 40
1.0
 40
1.0
 40
1.0
 40
1.0
 10
67.973
 20
27.6481
 30
0.0
 10
67.973
 20
27.6481
 30
0.0
 10
67.973
 20
27.6481
 30
0.0
 10
67.973
 20
27.6481
 30
0.0
 10
67.973
 20
27.6481
 30
0.0
 10
67.973
 20
27.6481
 30
0.0
 10
67.9768
 20
27.6403
 30
0.0
 10
67.9768
 20
27.6403
 30
0.0
 10
67.9768
 20
27.6403
 30
0.0
 10
67.7751
 20
27.5238
 30
0.0
 10
67.5655
 20
27.4502
 30
0.0
 10
67.2745
 20
27.4502
 30
0.0
 10
67.2745
 20
27.4502
 30
0.0
 10
66.7234
 20
27.4502
 30
0.0
 10
66.1957
 20
27.7372
 30
0.0
 10
66.1957
 20
28.3038
 30
0.0
 10
66.1957
 20
28.3038
 30
0.0
 10
66.1957
 20
28.5017
 30
0.0
 10
66.2655
 20
28.6648
 30
0.0
 10
66.378
 20
28.7966
 30
0.0
 10
66.378
 20
28.7966
 30
0.0
 10
66.378
 20
28.7966
 30
0.0
 10
67.973
 20
27.6481
 30
0.0
 10
67.973
 20
27.6481
 30
0.0
  0
SPLINE
  5
AC
330
1F
100
AcDbEntity
  8
Vrstva 1
 62
   250
100
AcDbSpline
210
0.0
220
0.0
230
1.0
 70
    11
 71
     3
 72
    28
 73
    24
 74
     0
 42
0.0000000001
 43
0.0000000001
 40
0.0
 40
0.0
 40
0.0
 40
0.0
 40
0.1428571428571428
 40
0.1428571428571428
 40
0.1428571428571428
 40
0.1428571428571428
 40
0.2857142857142857
 40
0.2857142857142857
 40
0.2857142857142857
 40
0.2857142857142857
 40
0.4285714285714285
 40
0.4285714285714285
 40
0.4285714285714285
 40
0.4285714285714285
 40
0.5714285714285714
 40
0.5714285714285714
 40
0.5714285714285714
 40
0.5714285714285714
 40
0.7142857142857143
 40
0.7142857142857143
 40
0.7142857142857143
 40
0.7142857142857143
 40
1.0
 40
1.0
 40
1.0
 40
1.0
 10
66.5837
 20
28.9557
 30
0.0
 10
66.5837
 20
28.9557
 30
0.0
 10
66.5837
 20
28.9557
 30
0.0
 10
66.5837
 20
28.9557
 30
0.0
 10
66.5837
 20
28.9557
 30
0.0
 10
66.5837
 20
28.9557
 30
0.0
 10
66.5837
 20
28.9675
 30
0.0
 10
66.5837
 20
28.9675
 30
0.0
 10
66.5837
 20
28.9675
 30
0.0
 10
66.8088
 20
29.1032
 30
0.0
 10
67.0416
 20
29.1498
 30
0.0
 10
67.2667
 20
29.1498
 30
0.0
 10
67.2667
 20
29.1498
 30
0.0
 10
67.8527
 20
29.1498
 30
0.0
 10
68.3571
 20
28.8432
 30
0.0
 10
68.3571
 20
28.3
 30
0.0
 10
68.3571
 20
28.3
 30
0.0
 10
68.3571
 20
28.0866
 30
0.0
 10
68.2912
 20
27.939
 30
0.0
 10
68.1709
 20
27.811
 30
0.0
 10
68.1709
 20
27.811
 30
0.0
 10
68.1709
 20
27.811
 30
0.0
 10
66.5837
 20
28.9557
 30
0.0
 10
66.5837
 20
28.9557
 30
0.0
  0
SPLINE
  5
AD
330
1F
100
AcDbEntity
  8
Vrstva 1
 62
   250
100
AcDbSpline
210
0.0
220
0.0
230
1.0
 70
    11
 71
     3
 72
    68
 73
    64
 74
     0
 42
0.0000000001
 43
0.0000000001
 40
0.0
 40
0.0
 40
0.0
 40
0.0
 40
0.0588235294117647
 40
0.0588235294117647
 40
0.0588235294117647
 40
0.0588235294117647
 40
0.1176470588235294
 40
0.1176470588235294
 40
0.1176470588235294
 40
0.1176470588235294
 40
0.1764705882352941
 40
0.1764705882352941
 40
0.1764705882352941
 40
0.1764705882352941
 40
0.2352941176470588
 40
0.2352941176470588
 40
0.2352941176470588
 40
0.2352941176470588
 40
0.2941176470588235
 40
0.2941176470588235
 40
0.2941176470588235
 40
0.2941176470588235
 40
0.3529411764705883
 40
0.3529411764705883
 40
0.3529411764705883
 40
0.3529411764705883
 40
0.4117647058823529
 40
0.4117647058823529
 40
0.4117647058823529
 40
0.4117647058823529
 40
0.4705882352941176
 40
0.4705882352941176
 40
0.4705882352941176
 40
0.4705882352941176
 40
0.5294117647058824
 40
0.5294117647058824
 40
0.5294117647058824
 40
0.5294117647058824
 40
0.5882352941176471
 40
0.5882352941176471
 40
0.5882352941176471
 40
0.5882352941176471
 40
0.6470588235294118
 40
0.6470588235294118
 40
0.6470588235294118
 40
0.6470588235294118
 40
0.7058823529411765
 40
0.7058823529411765
 40
0.7058823529411765
 40
0.7058823529411765
 40
0.7647058823529411
 40
0.7647058823529411
 40
0.7647058823529411
 40
0.7647058823529411
 40
0.8235294117647058
 40
0.8235294117647058
 40
0.8235294117647058
 40
0.8235294117647058
 40
0.8823529411764706
 40
0.8823529411764706
 40
0.8823529411764706
 40
0.8823529411764706
 40
1.0
 40
1.0
 40
1.0
 40
1.0
 10
66.0637
 20
31.3191
 30
0.0
 10
66.0637
 20
31.3191
 30
0.0
 10
66.0637
 20
31.3191
 30
0.0
 10
66.0637
 20
31.3191
 30
0.0
 10
66.0637
 20
31.3191
 30
0.0
 10
66.0637
 20
31.3191
 30
0.0
 10
66.0637
 20
30.1121
 30
0.0
 10
66.0637
 20
30.1121
 30
0.0
 10
66.0637
 20
30.1121
 30
0.0
 10
66.0637
 20
30.1121
 30
0.0
 10
67.2745
 20
29.9492
 30
0.0
 10
67.2745
 20
29.9492
 30
0.0
 10
67.2745
 20
29.9492
 30
0.0
 10
67.2628
 20
30.0424
 30
0.0
 10
67.2512
 20
30.1549
 30
0.0
 10
67.2512
 20
30.3024
 30
0.0
 10
67.2512
 20
30.3024
 30
0.0
 10
67.2512
 20
30.803
 30
0.0
 10
67.4801
 20
31.0241
 30
0.0
 10
67.8061
 20
31.0241
 30
0.0
 10
67.8061
 20
31.0241
 30
0.0
 10
68.1437
 20
31.0281
 30
0.0
 10
68.3533
 20
30.7487
 30
0.0
 10
68.3533
 20
30.4303
 30
0.0
 10
68.3533
 20
30.4303
 30
0.0
 10
68.3533
 20
30.1976
 30
0.0
 10
68.2757
 20
29.9918
 30
0.0
 10
68.2136
 20
29.8871
 30
0.0
 10
68.2136
 20
29.8871
 30
0.0
 10
68.2136
 20
29.8871
 30
0.0
 10
68.4736
 20
29.8017
 30
0.0
 10
68.4736
 20
29.8017
 30
0.0
 10
68.4736
 20
29.8017
 30
0.0
 10
68.5512
 20
29.9259
 30
0.0
 10
68.6288
 20
30.1549
 30
0.0
 10
68.6288
 20
30.4303
 30
0.0
 10
68.6288
 20
30.4303
 30
0.0
 10
68.6288
 20
30.9775
 30
0.0
 10
68.2601
 20
31.3694
 30
0.0
 10
67.7673
 20
31.3694
 30
0.0
 10
67.7673
 20
31.3694
 30
0.0
 10
67.453
 20
31.3694
 30
0.0
 10
67.2318
 20
31.2066
 30
0.0
 10
67.1231
 20
31.0087
 30
0.0
 10
67.1231
 20
31.0087
 30
0.0
 10
67.0261
 20
30.8534
 30
0.0
 10
66.9873
 20
30.6633
 30
0.0
 10
66.9873
 20
30.4653
 30
0.0
 10
66.9873
 20
30.4653
 30
0.0
 10
66.9873
 20
30.3721
 30
0.0
 10
66.9912
 20
30.3178
 30
0.0
 10
66.9989
 20
30.2596
 30
0.0
 10
66.9989
 20
30.2596
 30
0.0
 10
66.9989
 20
30.2596
 30
0.0
 10
66.3509
 20
30.3567
 30
0.0
 10
66.3509
 20
30.3567
 30
0.0
 10
66.3509
 20
30.3567
 30
0.0
 10
66.3509
 20
30.3567
 30
0.0
 10
66.3509
 20
31.3191
 30
0.0
 10
66.3509
 20
31.3191
 30
0.0
 10
66.3509
 20
31.3191
 30
0.0
 10
66.3509
 20
31.3191
 30
0.0
 10
66.0637
 20
31.3191
 30
0.0
 10
66.0637
 20
31.3191
 30
0.0
  0
SPLINE
  5
AE
330
1F
100
AcDbEntity
  8
Vrstva 1
 62
   250
100
AcDbSpline
210
0.0
220
0.0
230
1.0
 70
    11
 71
     3
 72
    24
 73
    20
 74
     0
 42
0.0000000001
 43
0.0000000001
 40
0.0
 40
0.0
 40
0.0
 40
0.0
 40
0.1666666666666667
 40
0.1666666666666667
 40
0.1666666666666667
 40
0.1666666666666667
 40
0.3333333333333333
 40
0.3333333333333333
 40
0.3333333333333333
 40
0.3333333333333333
 40
0.5
 40
0.5
 40
0.5
 40
0.5
 40
0.6666666666666666
 40
0.6666666666666666
 40
0.6666666666666666
 40
0.6666666666666666
 40
1.0
 40
1.0
 40
1.0
 40
1.0
 10
66.021
 20
32.6501
 30
0.0
 10
66.021
 20
32.6501
 30
0.0
 10
66.021
 20
32.6501
 30
0.0
 10
66.021
 20
32.6501
 30
0.0
 10
66.021
 20
32.6501
 30
0.0
 10
66.021
 20
32.1379
 30
0.0
 10
66.4828
 20
31.7691
 30
0.0
 10
67.3327
 20
31.7691
 30
0.0
 10
67.3327
 20
31.7691
 30
0.0
 10
68.167
 20
31.7769
 30
0.0
 10
68.6288
 20
32.1145
 30
0.0
 10
68.6288
 20
32.6073
 30
0.0
 10
68.6288
 20
32.6073
 30
0.0
 10
68.6288
 20
33.1623
 30
0.0
 10
68.1554
 20
33.4843
 30
0.0
 10
67.2977
 20
33.4843
 30
0.0
 10
67.2977
 20
33.4843
 30
0.0
 10
66.4945
 20
33.4843
 30
0.0
 10
66.021
 20
33.1779
 30
0.0
 10
66.021
 20
32.6501
 30
0.0
  0
SPLINE
  5
AF
330
1F
100
AcDbEntity
  8
Vrstva 1
 62
   250
100
AcDbSpline
210
0.0
220
0.0
230
1.0
 70
    11
 71
     3
 72
    24
 73
    20
 74
     0
 42
0.0000000001
 43
0.0000000001
 40
0.0
 40
0.0
 40
0.0
 40
0.0
 40
0.1666666666666667
 40
0.1666666666666667
 40
0.1666666666666667
 40
0.1666666666666667
 40
0.3333333333333333
 40
0.3333333333333333
 40
0.3333333333333333
 40
0.3333333333333333
 40
0.5
 40
0.5
 40
0.5
 40
0.5
 40
0.6666666666666666
 40
0.6666666666666666
 40
0.6666666666666666
 40
0.6666666666666666
 40
1.0
 40
1.0
 40
1.0
 40
1.0
 10
66.2849
 20
32.6267
 30
0.0
 10
66.2849
 20
32.6267
 30
0.0
 10
66.2849
 20
32.6267
 30
0.0
 10
66.2849
 20
32.6267
 30
0.0
 10
66.2849
 20
32.6267
 30
0.0
 10
66.2849
 20
32.9838
 30
0.0
 10
66.6924
 20
33.139
 30
0.0
 10
67.3133
 20
33.139
 30
0.0
 10
67.3133
 20
33.139
 30
0.0
 10
67.9574
 20
33.139
 30
0.0
 10
68.3649
 20
32.9721
 30
0.0
 10
68.3649
 20
32.6267
 30
0.0
 10
68.3649
 20
32.6267
 30
0.0
 10
68.3649
 20
32.3163
 30
0.0
 10
67.9924
 20
32.1145
 30
0.0
 10
67.3365
 20
32.1145
 30
0.0
 10
67.3365
 20
32.1145
 30
0.0
 10
66.6497
 20
32.1145
 30
0.0
 10
66.2849
 20
32.3319
 30
0.0
 10
66.2849
 20
32.6267
 30
0.0
  0
SPLINE
  5
B0
330
1F
100
AcDbEntity
  8
Vrstva 1
 62
   250
100
AcDbSpline
210
0.0
220
0.0
230
1.0
 70
    11
 71
     3
 72
    76
 73
    72
 74
     0
 42
0.0000000001
 43
0.0000000001
 40
0.0
 40
0.0
 40
0.0
 40
0.0
 40
0.0526315789473684
 40
0.0526315789473684
 40
0.0526315789473684
 40
0.0526315789473684
 40
0.1052631578947368
 40
0.1052631578947368
 40
0.1052631578947368
 40
0.1052631578947368
 40
0.1578947368421053
 40
0.1578947368421053
 40
0.1578947368421053
 40
0.1578947368421053
 40
0.2105263157894737
 40
0.2105263157894737
 40
0.2105263157894737
 40
0.2105263157894737
 40
0.2631578947368421
 40
0.2631578947368421
 40
0.2631578947368421
 40
0.2631578947368421
 40
0.3157894736842105
 40
0.3157894736842105
 40
0.3157894736842105
 40
0.3157894736842105
 40
0.3684210526315789
 40
0.3684210526315789
 40
0.3684210526315789
 40
0.3684210526315789
 40
0.4210526315789473
 40
0.4210526315789473
 40
0.4210526315789473
 40
0.4210526315789473
 40
0.4736842105263158
 40
0.4736842105263158
 40
0.4736842105263158
 40
0.4736842105263158
 40
0.5263157894736842
 40
0.5263157894736842
 40
0.5263157894736842
 40
0.5263157894736842
 40
0.5789473684210527
 40
0.5789473684210527
 40
0.5789473684210527
 40
0.5789473684210527
 40
0.631578947368421
 40
0.631578947368421
 40
0.631578947368421
 40
0.631578947368421
 40
0.6842105263157895
 40
0.6842105263157895
 40
0.6842105263157895
 40
0.6842105263157895
 40
0.7368421052631579
 40
0.7368421052631579
 40
0.7368421052631579
 40
0.7368421052631579
 40
0.7894736842105263
 40
0.7894736842105263
 40
0.7894736842105263
 40
0.7894736842105263
 40
0.8421052631578947
 40
0.8421052631578947
 40
0.8421052631578947
 40
0.8421052631578947
 40
0.8947368421052632
 40
0.8947368421052632
 40
0.8947368421052632
 40
0.8947368421052632
 40
1.0
 40
1.0
 40
1.0
 40
1.0
 10
34.3738
 20
3.667
 30
0.0
 10
34.4553
 20
3.7913
 30
0.0
 10
34.5446
 20
4.0395
 30
0.0
 10
34.5446
 20
4.3229
 30
0.0
 10
34.5446
 20
4.3229
 30
0.0
 10
34.5446
 20
4.9243
 30
0.0
 10
34.1915
 20
5.2425
 30
0.0
 10
33.7879
 20
5.2425
 30
0.0
 10
33.7879
 20
5.2425
 30
0.0
 10
33.4347
 20
5.2387
 30
0.0
 10
33.2019
 20
4.9903
 30
0.0
 10
33.1437
 20
4.6799
 30
0.0
 10
33.1437
 20
4.6799
 30
0.0
 10
33.1437
 20
4.6799
 30
0.0
 10
33.1359
 20
4.6799
 30
0.0
 10
33.1359
 20
4.6799
 30
0.0
 10
33.1359
 20
4.6799
 30
0.0
 10
33.0234
 20
4.9865
 30
0.0
 10
32.8022
 20
5.1456
 30
0.0
 10
32.5383
 20
5.1456
 30
0.0
 10
32.5383
 20
5.1456
 30
0.0
 10
32.2317
 20
5.1456
 30
0.0
 10
31.9368
 20
4.9205
 30
0.0
 10
31.9368
 20
4.4237
 30
0.0
 10
31.9368
 20
4.4237
 30
0.0
 10
31.9368
 20
4.1521
 30
0.0
 10
32.0338
 20
3.896
 30
0.0
 10
32.1309
 20
3.7601
 30
0.0
 10
32.1309
 20
3.7601
 30
0.0
 10
32.1309
 20
3.7601
 30
0.0
 10
32.3792
 20
3.8533
 30
0.0
 10
32.3792
 20
3.8533
 30
0.0
 10
32.3792
 20
3.8533
 30
0.0
 10
32.3016
 20
3.962
 30
0.0
 10
32.2123
 20
4.156
 30
0.0
 10
32.2123
 20
4.3577
 30
0.0
 10
32.2123
 20
4.3577
 30
0.0
 10
32.2123
 20
4.6721
 30
0.0
 10
32.3909
 20
4.8002
 30
0.0
 10
32.5926
 20
4.8002
 30
0.0
 10
32.5926
 20
4.8002
 30
0.0
 10
32.8915
 20
4.8002
 30
0.0
 10
33.0195
 20
4.4858
 30
0.0
 10
33.0195
 20
4.2374
 30
0.0
 10
33.0195
 20
4.2374
 30
0.0
 10
33.0195
 20
4.2374
 30
0.0
 10
33.0195
 20
4.0473
 30
0.0
 10
33.0195
 20
4.0473
 30
0.0
 10
33.0195
 20
4.0473
 30
0.0
 10
33.0195
 20
4.0473
 30
0.0
 10
33.2756
 20
4.0473
 30
0.0
 10
33.2756
 20
4.0473
 30
0.0
 10
33.2756
 20
4.0473
 30
0.0
 10
33.2756
 20
4.0473
 30
0.0
 10
33.2756
 20
4.2374
 30
0.0
 10
33.2756
 20
4.2374
 30
0.0
 10
33.2756
 20
4.2374
 30
0.0
 10
33.2756
 20
4.5674
 30
0.0
 10
33.427
 20
4.8855
 30
0.0
 10
33.7801
 20
4.8895
 30
0.0
 10
33.7801
 20
4.8895
 30
0.0
 10
33.9935
 20
4.8934
 30
0.0
 10
34.2691
 20
4.7537
 30
0.0
 10
34.2691
 20
4.3189
 30
0.0
 10
34.2691
 20
4.3189
 30
0.0
 10
34.2691
 20
4.0783
 30
0.0
 10
34.172
 20
3.8572
 30
0.0
 10
34.1138
 20
3.7601
 30
0.0
 10
34.1138
 20
3.7601
 30
0.0
 10
34.1138
 20
3.7601
 30
0.0
 10
34.3738
 20
3.667
 30
0.0
 10
34.3738
 20
3.667
 30
0.0
  0
SPLINE
  5
B1
330
1F
100
AcDbEntity
  8
Vrstva 1
 62
   250
100
AcDbSpline
210
0.0
220
0.0
230
1.0
 70
    11
 71
     3
 72
    40
 73
    36
 74
     0
 42
0.0000000001
 43
0.0000000001
 40
0.0
 40
0.0
 40
0.0
 40
0.0
 40
0.1
 40
0.1
 40
0.1
 40
0.1
 40
0.2
 40
0.2
 40
0.2
 40
0.2
 40
0.3
 40
0.3
 40
0.3
 40
0.3
 40
0.4
 40
0.4
 40
0.4
 40
0.4
 40
0.5
 40
0.5
 40
0.5
 40
0.5
 40
0.6
 40
0.6
 40
0.6
 40
0.6
 40
0.7
 40
0.7
 40
0.7
 40
0.7
 40
0.8
 40
0.8
 40
0.8
 40
0.8
 40
1.0
 40
1.0
 40
1.0
 40
1.0
 10
34.5019
 20
6.4106
 30
0.0
 10
34.5019
 20
6.4106
 30
0.0
 10
34.5019
 20
6.4106
 30
0.0
 10
34.5019
 20
6.4106
 30
0.0
 10
34.5019
 20
6.4106
 30
0.0
 10
34.5019
 20
6.4106
 30
0.0
 10
34.5019
 20
6.7404
 30
0.0
 10
34.5019
 20
6.7404
 30
0.0
 10
34.5019
 20
6.7404
 30
0.0
 10
34.5019
 20
6.7404
 30
0.0
 10
31.9795
 20
6.7404
 30
0.0
 10
31.9795
 20
6.7404
 30
0.0
 10
31.9795
 20
6.7404
 30
0.0
 10
31.9795
 20
6.7404
 30
0.0
 10
31.9795
 20
6.4494
 30
0.0
 10
31.9795
 20
6.4494
 30
0.0
 10
31.9795
 20
6.4494
 30
0.0
 10
31.9795
 20
6.4494
 30
0.0
 10
32.2744
 20
5.8984
 30
0.0
 10
32.2744
 20
5.8984
 30
0.0
 10
32.2744
 20
5.8984
 30
0.0
 10
32.2744
 20
5.8984
 30
0.0
 10
32.5344
 20
5.9644
 30
0.0
 10
32.5344
 20
5.9644
 30
0.0
 10
32.5344
 20
5.9644
 30
0.0
 10
32.5344
 20
5.9644
 30
0.0
 10
32.2977
 20
6.4029
 30
0.0
 10
32.2977
 20
6.4029
 30
0.0
 10
32.2977
 20
6.4029
 30
0.0
 10
32.2977
 20
6.4029
 30
0.0
 10
32.2977
 20
6.4106
 30
0.0
 10
32.2977
 20
6.4106
 30
0.0
 10
32.2977
 20
6.4106
 30
0.0
 10
32.2977
 20
6.4106
 30
0.0
 10
34.5019
 20
6.4106
 30
0.0
 10
34.5019
 20
6.4106
 30
0.0
  0
SPLINE
  5
B2
330
1F
100
AcDbEntity
  8
Vrstva 1
 62
   250
100
AcDbSpline
210
0.0
220
0.0
230
1.0
 70
    11
 71
     3
 72
    48
 73
    44
 74
     0
 42
0.0000000001
 43
0.0000000001
 40
0.0
 40
0.0
 40
0.0
 40
0.0
 40
0.0833333333333333
 40
0.0833333333333333
 40
0.0833333333333333
 40
0.0833333333333333
 40
0.1666666666666667
 40
0.1666666666666667
 40
0.1666666666666667
 40
0.1666666666666667
 40
0.25
 40
0.25
 40
0.25
 40
0.25
 40
0.3333333333333333
 40
0.3333333333333333
 40
0.3333333333333333
 40
0.3333333333333333
 40
0.4166666666666667
 40
0.4166666666666667
 40
0.4166666666666667
 40
0.4166666666666667
 40
0.5
 40
0.5
 40
0.5
 40
0.5
 40
0.5833333333333334
 40
0.5833333333333334
 40
0.5833333333333334
 40
0.5833333333333334
 40
0.6666666666666666
 40
0.6666666666666666
 40
0.6666666666666666
 40
0.6666666666666666
 40
0.75
 40
0.75
 40
0.75
 40
0.75
 40
0.8333333333333334
 40
0.8333333333333334
 40
0.8333333333333334
 40
0.8333333333333334
 40
1.0
 40
1.0
 40
1.0
 40
1.0
 10
-65.9578
 20
33.1319
 30
0.0
 10
-65.9578
 20
33.0698
 30
0.0
 10
-65.9539
 20
32.9845
 30
0.0
 10
-65.9384
 20
32.8836
 30
0.0
 10
-65.9384
 20
32.8836
 30
0.0
 10
-65.8996
 20
32.5654
 30
0.0
 10
-65.7715
 20
32.286
 30
0.0
 10
-65.5659
 20
32.0763
 30
0.0
 10
-65.5659
 20
32.0763
 30
0.0
 10
-65.3175
 20
31.8241
 30
0.0
 10
-64.9256
 20
31.6494
 30
0.0
 10
-64.4288
 20
31.6494
 30
0.0
 10
-64.4288
 20
31.6494
 30
0.0
 10
-63.773
 20
31.6494
 30
0.0
 10
-63.3539
 20
32.0026
 30
0.0
 10
-63.3539
 20
32.5382
 30
0.0
 10
-63.3539
 20
32.5382
 30
0.0
 10
-63.3539
 20
33.066
 30
0.0
 10
-63.7808
 20
33.3802
 30
0.0
 10
-64.2465
 20
33.3802
 30
0.0
 10
-64.2465
 20
33.3802
 30
0.0
 10
-64.7354
 20
33.3802
 30
0.0
 10
-65.0614
 20
33.066
 30
0.0
 10
-65.0614
 20
32.6197
 30
0.0
 10
-65.0614
 20
32.6197
 30
0.0
 10
-65.0614
 20
32.3403
 30
0.0
 10
-64.9294
 20
32.1269
 30
0.0
 10
-64.7665
 20
32.0066
 30
0.0
 10
-64.7665
 20
32.0066
 30
0.0
 10
-64.7665
 20
32.0066
 30
0.0
 10
-64.7665
 20
31.9988
 30
0.0
 10
-64.7665
 20
31.9988
 30
0.0
 10
-64.7665
 20
31.9988
 30
0.0
 10
-65.1856
 20
32.0569
 30
0.0
 10
-65.5736
 20
32.3363
 30
0.0
 10
-65.659
 20
32.8757
 30
0.0
 10
-65.659
 20
32.8757
 30
0.0
 10
-65.6745
 20
32.9727
 30
0.0
 10
-65.6823
 20
33.062
 30
0.0
 10
-65.6784
 20
33.1319
 30
0.0
 10
-65.6784
 20
33.1319
 30
0.0
 10
-65.6784
 20
33.1319
 30
0.0
 10
-65.9578
 20
33.1319
 30
0.0
 10
-65.9578
 20
33.1319
 30
0.0
  0
SPLINE
  5
B3
330
1F
100
AcDbEntity
  8
Vrstva 1
 62
   250
100
AcDbSpline
210
0.0
220
0.0
230
1.0
 70
    11
 71
     3
 72
    28
 73
    24
 74
     0
 42
0.0000000001
 43
0.0000000001
 40
0.0
 40
0.0
 40
0.0
 40
0.0
 40
0.1428571428571428
 40
0.1428571428571428
 40
0.1428571428571428
 40
0.1428571428571428
 40
0.2857142857142857
 40
0.2857142857142857
 40
0.2857142857142857
 40
0.2857142857142857
 40
0.4285714285714285
 40
0.4285714285714285
 40
0.4285714285714285
 40
0.4285714285714285
 40
0.5714285714285714
 40
0.5714285714285714
 40
0.5714285714285714
 40
0.5714285714285714
 40
0.7142857142857143
 40
0.7142857142857143
 40
0.7142857142857143
 40
0.7142857142857143
 40
1.0
 40
1.0
 40
1.0
 40
1.0
 10
-63.6178
 20
32.546
 30
0.0
 10
-63.6178
 20
32.546
 30
0.0
 10
-63.6178
 20
32.546
 30
0.0
 10
-63.6178
 20
32.546
 30
0.0
 10
-63.6178
 20
32.546
 30
0.0
 10
-63.6178
 20
32.1851
 30
0.0
 10
-63.9282
 20
31.9909
 30
0.0
 10
-64.3435
 20
31.9872
 30
0.0
 10
-64.3435
 20
31.9872
 30
0.0
 10
-64.4056
 20
31.9872
 30
0.0
 10
-64.4521
 20
32.0026
 30
0.0
 10
-64.4909
 20
32.022
 30
0.0
 10
-64.4909
 20
32.022
 30
0.0
 10
-64.6772
 20
32.1151
 30
0.0
 10
-64.8014
 20
32.3091
 30
0.0
 10
-64.8014
 20
32.5148
 30
0.0
 10
-64.8014
 20
32.5148
 30
0.0
 10
-64.8014
 20
32.8291
 30
0.0
 10
-64.5841
 20
33.0348
 30
0.0
 10
-64.2232
 20
33.0348
 30
0.0
 10
-64.2232
 20
33.0348
 30
0.0
 10
-63.8623
 20
33.0348
 30
0.0
 10
-63.6178
 20
32.837
 30
0.0
 10
-63.6178
 20
32.546
 30
0.0
  0
SPLINE
  5
B4
330
1F
100
AcDbEntity
  8
Vrstva 1
 62
   250
100
AcDbSpline
210
0.0
220
0.0
230
1.0
 70
    11
 71
     3
 72
    68
 73
    64
 74
     0
 42
0.0000000001
 43
0.0000000001
 40
0.0
 40
0.0
 40
0.0
 40
0.0
 40
0.0588235294117647
 40
0.0588235294117647
 40
0.0588235294117647
 40
0.0588235294117647
 40
0.1176470588235294
 40
0.1176470588235294
 40
0.1176470588235294
 40
0.1176470588235294
 40
0.1764705882352941
 40
0.1764705882352941
 40
0.1764705882352941
 40
0.1764705882352941
 40
0.2352941176470588
 40
0.2352941176470588
 40
0.2352941176470588
 40
0.2352941176470588
 40
0.2941176470588235
 40
0.2941176470588235
 40
0.2941176470588235
 40
0.2941176470588235
 40
0.3529411764705883
 40
0.3529411764705883
 40
0.3529411764705883
 40
0.3529411764705883
 40
0.4117647058823529
 40
0.4117647058823529
 40
0.4117647058823529
 40
0.4117647058823529
 40
0.4705882352941176
 40
0.4705882352941176
 40
0.4705882352941176
 40
0.4705882352941176
 40
0.5294117647058824
 40
0.5294117647058824
 40
0.5294117647058824
 40
0.5294117647058824
 40
0.5882352941176471
 40
0.5882352941176471
 40
0.5882352941176471
 40
0.5882352941176471
 40
0.6470588235294118
 40
0.6470588235294118
 40
0.6470588235294118
 40
0.6470588235294118
 40
0.7058823529411765
 40
0.7058823529411765
 40
0.7058823529411765
 40
0.7058823529411765
 40
0.7647058823529411
 40
0.7647058823529411
 40
0.7647058823529411
 40
0.7647058823529411
 40
0.8235294117647058
 40
0.8235294117647058
 40
0.8235294117647058
 40
0.8235294117647058
 40
0.8823529411764706
 40
0.8823529411764706
 40
0.8823529411764706
 40
0.8823529411764706
 40
1.0
 40
1.0
 40
1.0
 40
1.0
 10
-65.919
 20
35.1885
 30
0.0
 10
-65.919
 20
35.1885
 30
0.0
 10
-65.919
 20
35.1885
 30
0.0
 10
-65.919
 20
35.1885
 30
0.0
 10
-65.919
 20
35.1885
 30
0.0
 10
-65.919
 20
35.1885
 30
0.0
 10
-65.919
 20
33.9817
 30
0.0
 10
-65.919
 20
33.9817
 30
0.0
 10
-65.919
 20
33.9817
 30
0.0
 10
-65.919
 20
33.9817
 30
0.0
 10
-64.7082
 20
33.8186
 30
0.0
 10
-64.7082
 20
33.8186
 30
0.0
 10
-64.7082
 20
33.8186
 30
0.0
 10
-64.7199
 20
33.9118
 30
0.0
 10
-64.7315
 20
34.0243
 30
0.0
 10
-64.7315
 20
34.1718
 30
0.0
 10
-64.7315
 20
34.1718
 30
0.0
 10
-64.7315
 20
34.6725
 30
0.0
 10
-64.5026
 20
34.8937
 30
0.0
 10
-64.1766
 20
34.8937
 30
0.0
 10
-64.1766
 20
34.8937
 30
0.0
 10
-63.839
 20
34.8975
 30
0.0
 10
-63.6294
 20
34.6181
 30
0.0
 10
-63.6294
 20
34.2999
 30
0.0
 10
-63.6294
 20
34.2999
 30
0.0
 10
-63.6294
 20
34.0671
 30
0.0
 10
-63.707
 20
33.8614
 30
0.0
 10
-63.7691
 20
33.7567
 30
0.0
 10
-63.7691
 20
33.7567
 30
0.0
 10
-63.7691
 20
33.7567
 30
0.0
 10
-63.5091
 20
33.6712
 30
0.0
 10
-63.5091
 20
33.6712
 30
0.0
 10
-63.5091
 20
33.6712
 30
0.0
 10
-63.4315
 20
33.7955
 30
0.0
 10
-63.3539
 20
34.0243
 30
0.0
 10
-63.3539
 20
34.2999
 30
0.0
 10
-63.3539
 20
34.2999
 30
0.0
 10
-63.3539
 20
34.8471
 30
0.0
 10
-63.7226
 20
35.239
 30
0.0
 10
-64.2154
 20
35.239
 30
0.0
 10
-64.2154
 20
35.239
 30
0.0
 10
-64.5297
 20
35.239
 30
0.0
 10
-64.7509
 20
35.076
 30
0.0
 10
-64.8596
 20
34.8781
 30
0.0
 10
-64.8596
 20
34.8781
 30
0.0
 10
-64.9566
 20
34.7228
 30
0.0
 10
-64.9954
 20
34.5328
 30
0.0
 10
-64.9954
 20
34.3349
 30
0.0
 10
-64.9954
 20
34.3349
 30
0.0
 10
-64.9954
 20
34.2417
 30
0.0
 10
-64.9915
 20
34.1874
 30
0.0
 10
-64.9838
 20
34.1292
 30
0.0
 10
-64.9838
 20
34.1292
 30
0.0
 10
-64.9838
 20
34.1292
 30
0.0
 10
-65.6318
 20
34.2261
 30
0.0
 10
-65.6318
 20
34.2261
 30
0.0
 10
-65.6318
 20
34.2261
 30
0.0
 10
-65.6318
 20
34.2261
 30
0.0
 10
-65.6318
 20
35.1885
 30
0.0
 10
-65.6318
 20
35.1885
 30
0.0
 10
-65.6318
 20
35.1885
 30
0.0
 10
-65.6318
 20
35.1885
 30
0.0
 10
-65.919
 20
35.1885
 30
0.0
 10
-65.919
 20
35.1885
 30
0.0
  0
SPLINE
  5
B5
330
1F
100
AcDbEntity
  8
Vrstva 1
 62
   250
100
AcDbSpline
210
0.0
220
0.0
230
1.0
 70
    11
 71
     3
 72
    24
 73
    20
 74
     0
 42
0.0000000001
 43
0.0000000001
 40
0.0
 40
0.0
 40
0.0
 40
0.0
 40
0.1666666666666667
 40
0.1666666666666667
 40
0.1666666666666667
 40
0.1666666666666667
 40
0.3333333333333333
 40
0.3333333333333333
 40
0.3333333333333333
 40
0.3333333333333333
 40
0.5
 40
0.5
 40
0.5
 40
0.5
 40
0.6666666666666666
 40
0.6666666666666666
 40
0.6666666666666666
 40
0.6666666666666666
 40
1.0
 40
1.0
 40
1.0
 40
1.0
 10
-62.9426
 20
35.8016
 30
0.0
 10
-62.9426
 20
35.8016
 30
0.0
 10
-62.9426
 20
35.8016
 30
0.0
 10
-62.9426
 20
35.8016
 30
0.0
 10
-62.9426
 20
35.8016
 30
0.0
 10
-63.125
 20
35.9103
 30
0.0
 10
-63.5557
 20
36.081
 30
0.0
 10
-63.8856
 20
36.1741
 30
0.0
 10
-63.8856
 20
36.1741
 30
0.0
 10
-63.8856
 20
36.1741
 30
0.0
 10
-63.8467
 20
35.7938
 30
0.0
 10
-63.8467
 20
35.7938
 30
0.0
 10
-63.8467
 20
35.7938
 30
0.0
 10
-63.5635
 20
35.7512
 30
0.0
 10
-63.1482
 20
35.6465
 30
0.0
 10
-62.9154
 20
35.561
 30
0.0
 10
-62.9154
 20
35.561
 30
0.0
 10
-62.9154
 20
35.561
 30
0.0
 10
-62.9426
 20
35.8016
 30
0.0
 10
-62.9426
 20
35.8016
 30
0.0
  0
SPLINE
  5
B6
330
1F
100
AcDbEntity
  8
Vrstva 1
 62
   250
100
AcDbSpline
210
0.0
220
0.0
230
1.0
 70
    11
 71
     3
 72
    68
 73
    64
 74
     0
 42
0.0000000001
 43
0.0000000001
 40
0.0
 40
0.0
 40
0.0
 40
0.0
 40
0.0588235294117647
 40
0.0588235294117647
 40
0.0588235294117647
 40
0.0588235294117647
 40
0.1176470588235294
 40
0.1176470588235294
 40
0.1176470588235294
 40
0.1176470588235294
 40
0.1764705882352941
 40
0.1764705882352941
 40
0.1764705882352941
 40
0.1764705882352941
 40
0.2352941176470588
 40
0.2352941176470588
 40
0.2352941176470588
 40
0.2352941176470588
 40
0.2941176470588235
 40
0.2941176470588235
 40
0.2941176470588235
 40
0.2941176470588235
 40
0.3529411764705883
 40
0.3529411764705883
 40
0.3529411764705883
 40
0.3529411764705883
 40
0.4117647058823529
 40
0.4117647058823529
 40
0.4117647058823529
 40
0.4117647058823529
 40
0.4705882352941176
 40
0.4705882352941176
 40
0.4705882352941176
 40
0.4705882352941176
 40
0.5294117647058824
 40
0.5294117647058824
 40
0.5294117647058824
 40
0.5294117647058824
 40
0.5882352941176471
 40
0.5882352941176471
 40
0.5882352941176471
 40
0.5882352941176471
 40
0.6470588235294118
 40
0.6470588235294118
 40
0.6470588235294118
 40
0.6470588235294118
 40
0.7058823529411765
 40
0.7058823529411765
 40
0.7058823529411765
 40
0.7058823529411765
 40
0.7647058823529411
 40
0.7647058823529411
 40
0.7647058823529411
 40
0.7647058823529411
 40
0.8235294117647058
 40
0.8235294117647058
 40
0.8235294117647058
 40
0.8235294117647058
 40
0.8823529411764706
 40
0.8823529411764706
 40
0.8823529411764706
 40
0.8823529411764706
 40
1.0
 40
1.0
 40
1.0
 40
1.0
 10
-65.919
 20
37.9825
 30
0.0
 10
-65.919
 20
37.9825
 30
0.0
 10
-65.919
 20
37.9825
 30
0.0
 10
-65.919
 20
37.9825
 30
0.0
 10
-65.919
 20
37.9825
 30
0.0
 10
-65.919
 20
37.9825
 30
0.0
 10
-65.919
 20
36.7757
 30
0.0
 10
-65.919
 20
36.7757
 30
0.0
 10
-65.919
 20
36.7757
 30
0.0
 10
-65.919
 20
36.7757
 30
0.0
 10
-64.7082
 20
36.6126
 30
0.0
 10
-64.7082
 20
36.6126
 30
0.0
 10
-64.7082
 20
36.6126
 30
0.0
 10
-64.7199
 20
36.7058
 30
0.0
 10
-64.7315
 20
36.8183
 30
0.0
 10
-64.7315
 20
36.9658
 30
0.0
 10
-64.7315
 20
36.9658
 30
0.0
 10
-64.7315
 20
37.4665
 30
0.0
 10
-64.5026
 20
37.6877
 30
0.0
 10
-64.1766
 20
37.6877
 30
0.0
 10
-64.1766
 20
37.6877
 30
0.0
 10
-63.839
 20
37.6915
 30
0.0
 10
-63.6294
 20
37.4121
 30
0.0
 10
-63.6294
 20
37.0939
 30
0.0
 10
-63.6294
 20
37.0939
 30
0.0
 10
-63.6294
 20
36.8611
 30
0.0
 10
-63.707
 20
36.6554
 30
0.0
 10
-63.7691
 20
36.5507
 30
0.0
 10
-63.7691
 20
36.5507
 30
0.0
 10
-63.7691
 20
36.5507
 30
0.0
 10
-63.5091
 20
36.4652
 30
0.0
 10
-63.5091
 20
36.4652
 30
0.0
 10
-63.5091
 20
36.4652
 30
0.0
 10
-63.4315
 20
36.5895
 30
0.0
 10
-63.3539
 20
36.8183
 30
0.0
 10
-63.3539
 20
37.0939
 30
0.0
 10
-63.3539
 20
37.0939
 30
0.0
 10
-63.3539
 20
37.6411
 30
0.0
 10
-63.7226
 20
38.033
 30
0.0
 10
-64.2154
 20
38.033
 30
0.0
 10
-64.2154
 20
38.033
 30
0.0
 10
-64.5297
 20
38.033
 30
0.0
 10
-64.7509
 20
37.87
 30
0.0
 10
-64.8596
 20
37.6721
 30
0.0
 10
-64.8596
 20
37.6721
 30
0.0
 10
-64.9566
 20
37.5168
 30
0.0
 10
-64.9954
 20
37.3268
 30
0.0
 10
-64.9954
 20
37.1289
 30
0.0
 10
-64.9954
 20
37.1289
 30
0.0
 10
-64.9954
 20
37.0357
 30
0.0
 10
-64.9915
 20
36.9814
 30
0.0
 10
-64.9838
 20
36.9232
 30
0.0
 10
-64.9838
 20
36.9232
 30
0.0
 10
-64.9838
 20
36.9232
 30
0.0
 10
-65.6318
 20
37.0201
 30
0.0
 10
-65.6318
 20
37.0201
 30
0.0
 10
-65.6318
 20
37.0201
 30
0.0
 10
-65.6318
 20
37.0201
 30
0.0
 10
-65.6318
 20
37.9825
 30
0.0
 10
-65.6318
 20
37.9825
 30
0.0
 10
-65.6318
 20
37.9825
 30
0.0
 10
-65.6318
 20
37.9825
 30
0.0
 10
-65.919
 20
37.9825
 30
0.0
 10
-65.919
 20
37.9825
 30
0.0
  0
SPLINE
  5
B7
330
1F
100
AcDbEntity
  8
Vrstva 1
 62
   250
100
AcDbSpline
210
0.0
220
0.0
230
1.0
 70
    11
 71
     3
 72
    52
 73
    48
 74
     0
 42
0.0000000001
 43
0.0000000001
 40
0.0
 40
0.0
 40
0.0
 40
0.0
 40
0.0769230769230769
 40
0.0769230769230769
 40
0.0769230769230769
 40
0.0769230769230769
 40
0.1538461538461539
 40
0.1538461538461539
 40
0.1538461538461539
 40
0.1538461538461539
 40
0.2307692307692308
 40
0.2307692307692308
 40
0.2307692307692308
 40
0.2307692307692308
 40
0.3076923076923077
 40
0.3076923076923077
 40
0.3076923076923077
 40
0.3076923076923077
 40
0.3846153846153846
 40
0.3846153846153846
 40
0.3846153846153846
 40
0.3846153846153846
 40
0.4615384615384616
 40
0.4615384615384616
 40
0.4615384615384616
 40
0.4615384615384616
 40
0.5384615384615384
 40
0.5384615384615384
 40
0.5384615384615384
 40
0.5384615384615384
 40
0.6153846153846154
 40
0.6153846153846154
 40
0.6153846153846154
 40
0.6153846153846154
 40
0.6923076923076923
 40
0.6923076923076923
 40
0.6923076923076923
 40
0.6923076923076923
 40
0.7692307692307693
 40
0.7692307692307693
 40
0.7692307692307693
 40
0.7692307692307693
 40
0.8461538461538461
 40
0.8461538461538461
 40
0.8461538461538461
 40
0.8461538461538461
 40
1.0
 40
1.0
 40
1.0
 40
1.0
 10
-19.5886
 20
67.6551
 30
0.0
 10
-19.5886
 20
67.6551
 30
0.0
 10
-19.3441
 20
67.9889
 30
0.0
 10
-19.3441
 20
67.9889
 30
0.0
 10
-19.3441
 20
67.9889
 30
0.0
 10
-19.1578
 20
67.8531
 30
0.0
 10
-18.9289
 20
67.7794
 30
0.0
 10
-18.6844
 20
67.7794
 30
0.0
 10
-18.6844
 20
67.7794
 30
0.0
 10
-18.0557
 20
67.7794
 30
0.0
 10
-17.493
 20
68.2411
 30
0.0
 10
-17.493
 20
69.153
 30
0.0
 10
-17.493
 20
69.153
 30
0.0
 10
-17.493
 20
69.5372
 30
0.0
 10
-17.6133
 20
69.8787
 30
0.0
 10
-17.8307
 20
70.1155
 30
0.0
 10
-17.8307
 20
70.1155
 30
0.0
 10
-17.8307
 20
70.1155
 30
0.0
 10
-17.5901
 20
70.4492
 30
0.0
 10
-17.5901
 20
70.4492
 30
0.0
 10
-17.5901
 20
70.4492
 30
0.0
 10
-17.5901
 20
70.4492
 30
0.0
 10
-17.7957
 20
70.5889
 30
0.0
 10
-17.7957
 20
70.5889
 30
0.0
 10
-17.7957
 20
70.5889
 30
0.0
 10
-17.7957
 20
70.5889
 30
0.0
 10
-18.0247
 20
70.2746
 30
0.0
 10
-18.0247
 20
70.2746
 30
0.0
 10
-18.0247
 20
70.2746
 30
0.0
 10
-18.211
 20
70.4143
 30
0.0
 10
-18.436
 20
70.4841
 30
0.0
 10
-18.6766
 20
70.4841
 30
0.0
 10
-18.6766
 20
70.4841
 30
0.0
 10
-19.3635
 20
70.4841
 30
0.0
 10
-19.8835
 20
69.9447
 30
0.0
 10
-19.8835
 20
69.1181
 30
0.0
 10
-19.8835
 20
69.1181
 30
0.0
 10
-19.8835
 20
68.7262
 30
0.0
 10
-19.7554
 20
68.3848
 30
0.0
 10
-19.5381
 20
68.148
 30
0.0
 10
-19.5381
 20
68.148
 30
0.0
 10
-19.5381
 20
68.148
 30
0.0
 10
-19.7787
 20
67.8104
 30
0.0
 10
-19.7787
 20
67.8104
 30
0.0
 10
-19.7787
 20
67.8104
 30
0.0
 10
-19.7787
 20
67.8104
 30
0.0
 10
-19.5886
 20
67.6551
 30
0.0
 10
-19.5886
 20
67.6551
 30
0.0
  0
SPLINE
  5
B8
330
1F
100
AcDbEntity
  8
Vrstva 1
 62
   250
100
AcDbSpline
210
0.0
220
0.0
230
1.0
 70
    11
 71
     3
 72
    28
 73
    24
 74
     0
 42
0.0000000001
 43
0.0000000001
 40
0.0
 40
0.0
 40
0.0
 40
0.0
 40
0.1428571428571428
 40
0.1428571428571428
 40
0.1428571428571428
 40
0.1428571428571428
 40
0.2857142857142857
 40
0.2857142857142857
 40
0.2857142857142857
 40
0.2857142857142857
 40
0.4285714285714285
 40
0.4285714285714285
 40
0.4285714285714285
 40
0.4285714285714285
 40
0.5714285714285714
 40
0.5714285714285714
 40
0.5714285714285714
 40
0.5714285714285714
 40
0.7142857142857143
 40
0.7142857142857143
 40
0.7142857142857143
 40
0.7142857142857143
 40
1.0
 40
1.0
 40
1.0
 40
1.0
 10
-19.3402
 20
68.4351
 30
0.0
 10
-19.3402
 20
68.4351
 30
0.0
 10
-19.3402
 20
68.4351
 30
0.0
 10
-19.3402
 20
68.4351
 30
0.0
 10
-19.3402
 20
68.4351
 30
0.0
 10
-19.3402
 20
68.4351
 30
0.0
 10
-19.348
 20
68.4314
 30
0.0
 10
-19.348
 20
68.4314
 30
0.0
 10
-19.348
 20
68.4314
 30
0.0
 10
-19.4644
 20
68.633
 30
0.0
 10
-19.5381
 20
68.8427
 30
0.0
 10
-19.5381
 20
69.1336
 30
0.0
 10
-19.5381
 20
69.1336
 30
0.0
 10
-19.5381
 20
69.6847
 30
0.0
 10
-19.251
 20
70.2125
 30
0.0
 10
-18.6844
 20
70.2125
 30
0.0
 10
-18.6844
 20
70.2125
 30
0.0
 10
-18.4865
 20
70.2125
 30
0.0
 10
-18.3235
 20
70.1426
 30
0.0
 10
-18.1916
 20
70.0301
 30
0.0
 10
-18.1916
 20
70.0301
 30
0.0
 10
-18.1916
 20
70.0301
 30
0.0
 10
-19.3402
 20
68.4351
 30
0.0
 10
-19.3402
 20
68.4351
 30
0.0
  0
SPLINE
  5
B9
330
1F
100
AcDbEntity
  8
Vrstva 1
 62
   250
100
AcDbSpline
210
0.0
220
0.0
230
1.0
 70
    11
 71
     3
 72
    28
 73
    24
 74
     0
 42
0.0000000001
 43
0.0000000001
 40
0.0
 40
0.0
 40
0.0
 40
0.0
 40
0.1428571428571428
 40
0.1428571428571428
 40
0.1428571428571428
 40
0.1428571428571428
 40
0.2857142857142857
 40
0.2857142857142857
 40
0.2857142857142857
 40
0.2857142857142857
 40
0.4285714285714285
 40
0.4285714285714285
 40
0.4285714285714285
 40
0.4285714285714285
 40
0.5714285714285714
 40
0.5714285714285714
 40
0.5714285714285714
 40
0.5714285714285714
 40
0.7142857142857143
 40
0.7142857142857143
 40
0.7142857142857143
 40
0.7142857142857143
 40
1.0
 40
1.0
 40
1.0
 40
1.0
 10
-18.0325
 20
69.8244
 30
0.0
 10
-18.0325
 20
69.8244
 30
0.0
 10
-18.0325
 20
69.8244
 30
0.0
 10
-18.0325
 20
69.8244
 30
0.0
 10
-18.0325
 20
69.8244
 30
0.0
 10
-18.0325
 20
69.8244
 30
0.0
 10
-18.0208
 20
69.8244
 30
0.0
 10
-18.0208
 20
69.8244
 30
0.0
 10
-18.0208
 20
69.8244
 30
0.0
 10
-17.885
 20
69.5993
 30
0.0
 10
-17.8384
 20
69.3665
 30
0.0
 10
-17.8384
 20
69.1415
 30
0.0
 10
-17.8384
 20
69.1415
 30
0.0
 10
-17.8384
 20
68.5555
 30
0.0
 10
-18.145
 20
68.0511
 30
0.0
 10
-18.6883
 20
68.0511
 30
0.0
 10
-18.6883
 20
68.0511
 30
0.0
 10
-18.9017
 20
68.0511
 30
0.0
 10
-19.0492
 20
68.117
 30
0.0
 10
-19.1772
 20
68.2373
 30
0.0
 10
-19.1772
 20
68.2373
 30
0.0
 10
-19.1772
 20
68.2373
 30
0.0
 10
-18.0325
 20
69.8244
 30
0.0
 10
-18.0325
 20
69.8244
 30
0.0
  0
SPLINE
  5
BA
330
1F
100
AcDbEntity
  8
Vrstva 1
 62
   250
100
AcDbSpline
210
0.0
220
0.0
230
1.0
 70
    11
 71
     3
 72
    40
 73
    36
 74
     0
 42
0.0000000001
 43
0.0000000001
 40
0.0
 40
0.0
 40
0.0
 40
0.0
 40
0.1
 40
0.1
 40
0.1
 40
0.1
 40
0.2
 40
0.2
 40
0.2
 40
0.2
 40
0.3
 40
0.3
 40
0.3
 40
0.3
 40
0.4
 40
0.4
 40
0.4
 40
0.4
 40
0.5
 40
0.5
 40
0.5
 40
0.5
 40
0.6
 40
0.6
 40
0.6
 40
0.6
 40
0.7
 40
0.7
 40
0.7
 40
0.7
 40
0.8
 40
0.8
 40
0.8
 40
0.8
 40
1.0
 40
1.0
 40
1.0
 40
1.0
 10
-16.4337
 20
67.822
 30
0.0
 10
-16.4337
 20
67.822
 30
0.0
 10
-16.4337
 20
67.822
 30
0.0
 10
-16.4337
 20
67.822
 30
0.0
 10
-16.4337
 20
67.822
 30
0.0
 10
-16.4337
 20
67.822
 30
0.0
 10
-16.1038
 20
67.822
 30
0.0
 10
-16.1038
 20
67.822
 30
0.0
 10
-16.1038
 20
67.822
 30
0.0
 10
-16.1038
 20
67.822
 30
0.0
 10
-16.1038
 20
70.3444
 30
0.0
 10
-16.1038
 20
70.3444
 30
0.0
 10
-16.1038
 20
70.3444
 30
0.0
 10
-16.1038
 20
70.3444
 30
0.0
 10
-16.3949
 20
70.3444
 30
0.0
 10
-16.3949
 20
70.3444
 30
0.0
 10
-16.3949
 20
70.3444
 30
0.0
 10
-16.3949
 20
70.3444
 30
0.0
 10
-16.9459
 20
70.0496
 30
0.0
 10
-16.9459
 20
70.0496
 30
0.0
 10
-16.9459
 20
70.0496
 30
0.0
 10
-16.9459
 20
70.0496
 30
0.0
 10
-16.8799
 20
69.7896
 30
0.0
 10
-16.8799
 20
69.7896
 30
0.0
 10
-16.8799
 20
69.7896
 30
0.0
 10
-16.8799
 20
69.7896
 30
0.0
 10
-16.4414
 20
70.0262
 30
0.0
 10
-16.4414
 20
70.0262
 30
0.0
 10
-16.4414
 20
70.0262
 30
0.0
 10
-16.4414
 20
70.0262
 30
0.0
 10
-16.4337
 20
70.0262
 30
0.0
 10
-16.4337
 20
70.0262
 30
0.0
 10
-16.4337
 20
70.0262
 30
0.0
 10
-16.4337
 20
70.0262
 30
0.0
 10
-16.4337
 20
67.822
 30
0.0
 10
-16.4337
 20
67.822
 30
0.0
  0
SPLINE
  5
BB
330
1F
100
AcDbEntity
  8
Vrstva 1
 62
   250
100
AcDbSpline
210
0.0
220
0.0
230
1.0
 70
    11
 71
     3
 72
    64
 73
    60
 74
     0
 42
0.0000000001
 43
0.0000000001
 40
0.0
 40
0.0
 40
0.0
 40
0.0
 40
0.0625
 40
0.0625
 40
0.0625
 40
0.0625
 40
0.125
 40
0.125
 40
0.125
 40
0.125
 40
0.1875
 40
0.1875
 40
0.1875
 40
0.1875
 40
0.25
 40
0.25
 40
0.25
 40
0.25
 40
0.3125
 40
0.3125
 40
0.3125
 40
0.3125
 40
0.375
 40
0.375
 40
0.375
 40
0.375
 40
0.4375
 40
0.4375
 40
0.4375
 40
0.4375
 40
0.5
 40
0.5
 40
0.5
 40
0.5
 40
0.5625
 40
0.5625
 40
0.5625
 40
0.5625
 40
0.625
 40
0.625
 40
0.625
 40
0.625
 40
0.6875
 40
0.6875
 40
0.6875
 40
0.6875
 40
0.75
 40
0.75
 40
0.75
 40
0.75
 40
0.8125
 40
0.8125
 40
0.8125
 40
0.8125
 40
0.875
 40
0.875
 40
0.875
 40
0.875
 40
1.0
 40
1.0
 40
1.0
 40
1.0
 10
-13.5737
 20
67.822
 30
0.0
 10
-13.5737
 20
67.822
 30
0.0
 10
-13.5737
 20
67.822
 30
0.0
 10
-13.5737
 20
67.822
 30
0.0
 10
-13.5737
 20
67.822
 30
0.0
 10
-13.5737
 20
67.822
 30
0.0
 10
-13.5737
 20
68.1054
 30
0.0
 10
-13.5737
 20
68.1054
 30
0.0
 10
-13.5737
 20
68.1054
 30
0.0
 10
-13.5737
 20
68.1054
 30
0.0
 10
-14.703
 20
68.1054
 30
0.0
 10
-14.703
 20
68.1054
 30
0.0
 10
-14.703
 20
68.1054
 30
0.0
 10
-14.703
 20
68.1054
 30
0.0
 10
-14.703
 20
68.113
 30
0.0
 10
-14.703
 20
68.113
 30
0.0
 10
-14.703
 20
68.113
 30
0.0
 10
-14.703
 20
68.113
 30
0.0
 10
-14.5051
 20
68.2994
 30
0.0
 10
-14.5051
 20
68.2994
 30
0.0
 10
-14.5051
 20
68.2994
 30
0.0
 10
-13.9734
 20
68.8117
 30
0.0
 10
-13.6358
 20
69.188
 30
0.0
 10
-13.6358
 20
69.6537
 30
0.0
 10
-13.6358
 20
69.6537
 30
0.0
 10
-13.6358
 20
70.0146
 30
0.0
 10
-13.8648
 20
70.3872
 30
0.0
 10
-14.4081
 20
70.3872
 30
0.0
 10
-14.4081
 20
70.3872
 30
0.0
 10
-14.6952
 20
70.3872
 30
0.0
 10
-14.9475
 20
70.2746
 30
0.0
 10
-15.1182
 20
70.131
 30
0.0
 10
-15.1182
 20
70.131
 30
0.0
 10
-15.1182
 20
70.131
 30
0.0
 10
-15.0095
 20
69.8904
 30
0.0
 10
-15.0095
 20
69.8904
 30
0.0
 10
-15.0095
 20
69.8904
 30
0.0
 10
-14.8931
 20
69.9875
 30
0.0
 10
-14.703
 20
70.1038
 30
0.0
 10
-14.474
 20
70.1038
 30
0.0
 10
-14.474
 20
70.1038
 30
0.0
 10
-14.0976
 20
70.1038
 30
0.0
 10
-13.9773
 20
69.8672
 30
0.0
 10
-13.9773
 20
69.611
 30
0.0
 10
-13.9773
 20
69.611
 30
0.0
 10
-13.9773
 20
69.2308
 30
0.0
 10
-14.2722
 20
68.9048
 30
0.0
 10
-14.9164
 20
68.2917
 30
0.0
 10
-14.9164
 20
68.2917
 30
0.0
 10
-14.9164
 20
68.2917
 30
0.0
 10
-15.1842
 20
68.0317
 30
0.0
 10
-15.1842
 20
68.0317
 30
0.0
 10
-15.1842
 20
68.0317
 30
0.0
 10
-15.1842
 20
68.0317
 30
0.0
 10
-15.1842
 20
67.822
 30
0.0
 10
-15.1842
 20
67.822
 30
0.0
 10
-15.1842
 20
67.822
 30
0.0
 10
-15.1842
 20
67.822
 30
0.0
 10
-13.5737
 20
67.822
 30
0.0
 10
-13.5737
 20
67.822
 30
0.0
  0
SPLINE
  5
BC
330
1F
100
AcDbEntity
  8
Vrstva 1
 62
   250
100
AcDbSpline
210
0.0
220
0.0
230
1.0
 70
    11
 71
     3
 72
    52
 73
    48
 74
     0
 42
0.0000000001
 43
0.0000000001
 40
0.0
 40
0.0
 40
0.0
 40
0.0
 40
0.0769230769230769
 40
0.0769230769230769
 40
0.0769230769230769
 40
0.0769230769230769
 40
0.1538461538461539
 40
0.1538461538461539
 40
0.1538461538461539
 40
0.1538461538461539
 40
0.2307692307692308
 40
0.2307692307692308
 40
0.2307692307692308
 40
0.2307692307692308
 40
0.3076923076923077
 40
0.3076923076923077
 40
0.3076923076923077
 40
0.3076923076923077
 40
0.3846153846153846
 40
0.3846153846153846
 40
0.3846153846153846
 40
0.3846153846153846
 40
0.4615384615384616
 40
0.4615384615384616
 40
0.4615384615384616
 40
0.4615384615384616
 40
0.5384615384615384
 40
0.5384615384615384
 40
0.5384615384615384
 40
0.5384615384615384
 40
0.6153846153846154
 40
0.6153846153846154
 40
0.6153846153846154
 40
0.6153846153846154
 40
0.6923076923076923
 40
0.6923076923076923
 40
0.6923076923076923
 40
0.6923076923076923
 40
0.7692307692307693
 40
0.7692307692307693
 40
0.7692307692307693
 40
0.7692307692307693
 40
0.8461538461538461
 40
0.8461538461538461
 40
0.8461538461538461
 40
0.8461538461538461
 40
1.0
 40
1.0
 40
1.0
 40
1.0
 10
-11.816
 20
67.822
 30
0.0
 10
-11.816
 20
67.822
 30
0.0
 10
-11.816
 20
67.822
 30
0.0
 10
-11.816
 20
67.822
 30
0.0
 10
-11.816
 20
67.822
 30
0.0
 10
-11.816
 20
67.822
 30
0.0
 10
-11.816
 20
68.5127
 30
0.0
 10
-11.816
 20
68.5127
 30
0.0
 10
-11.816
 20
68.5127
 30
0.0
 10
-11.816
 20
68.5127
 30
0.0
 10
-11.4628
 20
68.5127
 30
0.0
 10
-11.4628
 20
68.5127
 30
0.0
 10
-11.4628
 20
68.5127
 30
0.0
 10
-11.4628
 20
68.5127
 30
0.0
 10
-11.4628
 20
68.7767
 30
0.0
 10
-11.4628
 20
68.7767
 30
0.0
 10
-11.4628
 20
68.7767
 30
0.0
 10
-11.4628
 20
68.7767
 30
0.0
 10
-11.816
 20
68.7767
 30
0.0
 10
-11.816
 20
68.7767
 30
0.0
 10
-11.816
 20
68.7767
 30
0.0
 10
-11.816
 20
68.7767
 30
0.0
 10
-11.816
 20
70.3444
 30
0.0
 10
-11.816
 20
70.3444
 30
0.0
 10
-11.816
 20
70.3444
 30
0.0
 10
-11.816
 20
70.3444
 30
0.0
 10
-12.1846
 20
70.3444
 30
0.0
 10
-12.1846
 20
70.3444
 30
0.0
 10
-12.1846
 20
70.3444
 30
0.0
 10
-12.1846
 20
70.3444
 30
0.0
 10
-13.3099
 20
68.7339
 30
0.0
 10
-13.3099
 20
68.7339
 30
0.0
 10
-13.3099
 20
68.7339
 30
0.0
 10
-13.3099
 20
68.7339
 30
0.0
 10
-13.3099
 20
68.5127
 30
0.0
 10
-13.3099
 20
68.5127
 30
0.0
 10
-13.3099
 20
68.5127
 30
0.0
 10
-13.3099
 20
68.5127
 30
0.0
 10
-12.138
 20
68.5127
 30
0.0
 10
-12.138
 20
68.5127
 30
0.0
 10
-12.138
 20
68.5127
 30
0.0
 10
-12.138
 20
68.5127
 30
0.0
 10
-12.138
 20
67.822
 30
0.0
 10
-12.138
 20
67.822
 30
0.0
 10
-12.138
 20
67.822
 30
0.0
 10
-12.138
 20
67.822
 30
0.0
 10
-11.816
 20
67.822
 30
0.0
 10
-11.816
 20
67.822
 30
0.0
  0
SPLINE
  5
BD
330
1F
100
AcDbEntity
  8
Vrstva 1
 62
   250
100
AcDbSpline
210
0.0
220
0.0
230
1.0
 70
    11
 71
     3
 72
    36
 73
    32
 74
     0
 42
0.0000000001
 43
0.0000000001
 40
0.0
 40
0.0
 40
0.0
 40
0.0
 40
0.1111111111111111
 40
0.1111111111111111
 40
0.1111111111111111
 40
0.1111111111111111
 40
0.2222222222222222
 40
0.2222222222222222
 40
0.2222222222222222
 40
0.2222222222222222
 40
0.3333333333333333
 40
0.3333333333333333
 40
0.3333333333333333
 40
0.3333333333333333
 40
0.4444444444444444
 40
0.4444444444444444
 40
0.4444444444444444
 40
0.4444444444444444
 40
0.5555555555555556
 40
0.5555555555555556
 40
0.5555555555555556
 40
0.5555555555555556
 40
0.6666666666666666
 40
0.6666666666666666
 40
0.6666666666666666
 40
0.6666666666666666
 40
0.7777777777777778
 40
0.7777777777777778
 40
0.7777777777777778
 40
0.7777777777777778
 40
1.0
 40
1.0
 40
1.0
 40
1.0
 10
-12.9645
 20
68.7767
 30
0.0
 10
-12.9645
 20
68.7767
 30
0.0
 10
-12.9645
 20
68.7767
 30
0.0
 10
-12.9645
 20
68.7767
 30
0.0
 10
-12.9645
 20
68.7767
 30
0.0
 10
-12.9645
 20
68.7767
 30
0.0
 10
-12.9645
 20
68.7845
 30
0.0
 10
-12.9645
 20
68.7845
 30
0.0
 10
-12.9645
 20
68.7845
 30
0.0
 10
-12.9645
 20
68.7845
 30
0.0
 10
-12.3476
 20
69.6421
 30
0.0
 10
-12.3476
 20
69.6421
 30
0.0
 10
-12.3476
 20
69.6421
 30
0.0
 10
-12.2778
 20
69.7584
 30
0.0
 10
-12.2157
 20
69.8672
 30
0.0
 10
-12.138
 20
70.0146
 30
0.0
 10
-12.138
 20
70.0146
 30
0.0
 10
-12.138
 20
70.0146
 30
0.0
 10
-12.1264
 20
70.0146
 30
0.0
 10
-12.1264
 20
70.0146
 30
0.0
 10
-12.1264
 20
70.0146
 30
0.0
 10
-12.1342
 20
69.8827
 30
0.0
 10
-12.138
 20
69.7507
 30
0.0
 10
-12.138
 20
69.6187
 30
0.0
 10
-12.138
 20
69.6187
 30
0.0
 10
-12.138
 20
69.6187
 30
0.0
 10
-12.138
 20
68.7767
 30
0.0
 10
-12.138
 20
68.7767
 30
0.0
 10
-12.138
 20
68.7767
 30
0.0
 10
-12.138
 20
68.7767
 30
0.0
 10
-12.9645
 20
68.7767
 30
0.0
 10
-12.9645
 20
68.7767
 30
0.0
  0
SPLINE
  5
BE
330
1F
100
AcDbEntity
  8
Vrstva 1
 62
   250
100
AcDbSpline
210
0.0
220
0.0
230
1.0
 70
    11
 71
     3
 72
    16
 73
    12
 74
     0
 42
0.0000000001
 43
0.0000000001
 40
0.0
 40
0.0
 40
0.0
 40
0.0
 40
0.25
 40
0.25
 40
0.25
 40
0.25
 40
0.5
 40
0.5
 40
0.5
 40
0.5
 40
1.0
 40
1.0
 40
1.0
 40
1.0
 10
-63.4129
 20
52.8151
 30
0.0
 10
-63.4129
 20
52.8151
 30
0.0
 10
-61.7278
 20
57.6522
 30
0.0
 10
-61.7278
 20
57.6522
 30
0.0
 10
-61.7278
 20
57.6522
 30
0.0
 10
-61.7278
 20
57.6522
 30
0.0
 10
-60.0427
 20
52.8151
 30
0.0
 10
-60.0427
 20
52.8151
 30
0.0
 10
-60.0427
 20
52.8151
 30
0.0
 10
-60.0427
 20
52.8151
 30
0.0
 10
-63.4129
 20
52.8151
 30
0.0
 10
-63.4129
 20
52.8151
 30
0.0
  0
SPLINE
  5
BF
330
1F
100
AcDbEntity
  8
Vrstva 1
 62
   250
100
AcDbSpline
210
0.0
220
0.0
230
1.0
 70
    11
 71
     3
 72
    16
 73
    12
 74
     0
 42
0.0000000001
 43
0.0000000001
 40
0.0
 40
0.0
 40
0.0
 40
0.0
 40
0.25
 40
0.25
 40
0.25
 40
0.25
 40
0.5
 40
0.5
 40
0.5
 40
0.5
 40
1.0
 40
1.0
 40
1.0
 40
1.0
 10
-9.9714
 20
-22.5475
 30
0.0
 10
-9.9714
 20
-22.5475
 30
0.0
 10
-5.2637
 20
-20.5289
 30
0.0
 10
-5.2637
 20
-20.5289
 30
0.0
 10
-5.2637
 20
-20.5289
 30
0.0
 10
-5.2637
 20
-20.5289
 30
0.0
 10
-7.6982
 20
-25.0356
 30
0.0
 10
-7.6982
 20
-25.0356
 30
0.0
 10
-7.6982
 20
-25.0356
 30
0.0
 10
-7.6982
 20
-25.0356
 30
0.0
 10
-9.9714
 20
-22.5475
 30
0.0
 10
-9.9714
 20
-22.5475
 30
0.0
  0
SPLINE
  5
C0
330
1F
100
AcDbEntity
  8
Vrstva 1
 62
   250
100
AcDbSpline
210
0.0
220
0.0
230
1.0
 70
    11
 71
     3
 72
    16
 73
    12
 74
     0
 42
0.0000000001
 43
0.0000000001
 40
0.0
 40
0.0
 40
0.0
 40
0.0
 40
0.25
 40
0.25
 40
0.25
 40
0.25
 40
0.5
 40
0.5
 40
0.5
 40
0.5
 40
1.0
 40
1.0
 40
1.0
 40
1.0
 10
-8.8726
 20
-37.2935
 30
0.0
 10
-8.8726
 20
-37.2935
 30
0.0
 10
-5.1464
 20
-40.8082
 30
0.0
 10
-5.1464
 20
-40.8082
 30
0.0
 10
-5.1464
 20
-40.8082
 30
0.0
 10
-5.1464
 20
-40.8082
 30
0.0
 10
-10.2498
 20
-40.3694
 30
0.0
 10
-10.2498
 20
-40.3694
 30
0.0
 10
-10.2498
 20
-40.3694
 30
0.0
 10
-10.2498
 20
-40.3694
 30
0.0
 10
-8.8726
 20
-37.2935
 30
0.0
 10
-8.8726
 20
-37.2935
 30
0.0
  0
SPLINE
  5
C1
330
1F
100
AcDbEntity
  8
Vrstva 1
 62
   250
100
AcDbSpline
210
0.0
220
0.0
230
1.0
 70
    11
 71
     3
 72
    16
 73
    12
 74
     0
 42
0.0000000001
 43
0.0000000001
 40
0.0
 40
0.0
 40
0.0
 40
0.0
 40
0.25
 40
0.25
 40
0.25
 40
0.25
 40
0.5
 40
0.5
 40
0.5
 40
0.5
 40
1.0
 40
1.0
 40
1.0
 40
1.0
 10
68.5099
 20
46.2821
 30
0.0
 10
68.5099
 20
46.2821
 30
0.0
 10
70.195
 20
51.1192
 30
0.0
 10
70.195
 20
51.1192
 30
0.0
 10
70.195
 20
51.1192
 30
0.0
 10
70.195
 20
51.1192
 30
0.0
 10
71.8801
 20
46.2821
 30
0.0
 10
71.8801
 20
46.2821
 30
0.0
 10
71.8801
 20
46.2821
 30
0.0
 10
71.8801
 20
46.2821
 30
0.0
 10
68.5099
 20
46.2821
 30
0.0
 10
68.5099
 20
46.2821
 30
0.0
  0
SPLINE
  5
C2
330
1F
100
AcDbEntity
  8
Vrstva 1
 62
   250
100
AcDbSpline
210
0.0
220
0.0
230
1.0
 70
    11
 71
     3
 72
    16
 73
    12
 74
     0
 42
0.0000000001
 43
0.0000000001
 40
0.0
 40
0.0
 40
0.0
 40
0.0
 40
0.25
 40
0.25
 40
0.25
 40
0.25
 40
0.5
 40
0.5
 40
0.5
 40
0.5
 40
1.0
 40
1.0
 40
1.0
 40
1.0
 10
33.3923
 20
29.0572
 30
0.0
 10
33.3923
 20
29.0572
 30
0.0
 10
35.0774
 20
33.8942
 30
0.0
 10
35.0774
 20
33.8942
 30
0.0
 10
35.0774
 20
33.8942
 30
0.0
 10
35.0774
 20
33.8942
 30
0.0
 10
36.7625
 20
29.0572
 30
0.0
 10
36.7625
 20
29.0572
 30
0.0
 10
36.7625
 20
29.0572
 30
0.0
 10
36.7625
 20
29.0572
 30
0.0
 10
33.3923
 20
29.0572
 30
0.0
 10
33.3923
 20
29.0572
 30
0.0
  0
SPLINE
  5
C3
330
1F
100
AcDbEntity
  8
Vrstva 1
 62
   250
100
AcDbSpline
210
0.0
220
0.0
230
1.0
 70
    11
 71
     3
 72
    16
 73
    12
 74
     0
 42
0.0000000001
 43
0.0000000001
 40
0.0
 40
0.0
 40
0.0
 40
0.0
 40
0.25
 40
0.25
 40
0.25
 40
0.25
 40
0.5
 40
0.5
 40
0.5
 40
0.5
 40
1.0
 40
1.0
 40
1.0
 40
1.0
 10
-51.475
 20
65.1106
 30
0.0
 10
-51.475
 20
65.1106
 30
0.0
 10
-56.3122
 20
66.7956
 30
0.0
 10
-56.3122
 20
66.7956
 30
0.0
 10
-56.3122
 20
66.7956
 30
0.0
 10
-56.3122
 20
66.7956
 30
0.0
 10
-51.475
 20
68.4807
 30
0.0
 10
-51.475
 20
68.4807
 30
0.0
 10
-51.475
 20
68.4807
 30
0.0
 10
-51.475
 20
68.4807
 30
0.0
 10
-51.475
 20
65.1106
 30
0.0
 10
-51.475
 20
65.1106
 30
0.0
  0
SPLINE
  5
C4
330
1F
100
AcDbEntity
  8
Vrstva 1
 62
   250
100
AcDbSpline
210
0.0
220
0.0
230
1.0
 70
    11
 71
     3
 72
    16
 73
    12
 74
     0
 42
0.0000000001
 43
0.0000000001
 40
0.0
 40
0.0
 40
0.0
 40
0.0
 40
0.25
 40
0.25
 40
0.25
 40
0.25
 40
0.5
 40
0.5
 40
0.5
 40
0.5
 40
1.0
 40
1.0
 40
1.0
 40
1.0
 10
-63.3137
 20
17.5746
 30
0.0
 10
-63.3137
 20
17.5746
 30
0.0
 10
-61.6286
 20
12.7373
 30
0.0
 10
-61.6286
 20
12.7373
 30
0.0
 10
-61.6286
 20
12.7373
 30
0.0
 10
-61.6286
 20
12.7373
 30
0.0
 10
-59.9435
 20
17.5746
 30
0.0
 10
-59.9435
 20
17.5746
 30
0.0
 10
-59.9435
 20
17.5746
 30
0.0
 10
-59.9435
 20
17.5746
 30
0.0
 10
-63.3137
 20
17.5746
 30
0.0
 10
-63.3137
 20
17.5746
 30
0.0
  0
SPLINE
  5
C5
330
1F
100
AcDbEntity
  8
Vrstva 1
 62
   250
100
AcDbSpline
210
0.0
220
0.0
230
1.0
 70
    11
 71
     3
 72
    16
 73
    12
 74
     0
 42
0.0000000001
 43
0.0000000001
 40
0.0
 40
0.0
 40
0.0
 40
0.0
 40
0.25
 40
0.25
 40
0.25
 40
0.25
 40
0.5
 40
0.5
 40
0.5
 40
0.5
 40
1.0
 40
1.0
 40
1.0
 40
1.0
 10
-32.0647
 20
-42.7868
 30
0.0
 10
-32.0647
 20
-42.7868
 30
0.0
 10
-34.4993
 20
-47.2936
 30
0.0
 10
-34.4993
 20
-47.2936
 30
0.0
 10
-34.4993
 20
-47.2936
 30
0.0
 10
-34.4993
 20
-47.2936
 30
0.0
 10
-29.7915
 20
-45.2751
 30
0.0
 10
-29.7915
 20
-45.2751
 30
0.0
 10
-29.7915
 20
-45.2751
 30
0.0
 10
-29.7915
 20
-45.2751
 30
0.0
 10
-32.0647
 20
-42.7868
 30
0.0
 10
-32.0647
 20
-42.7868
 30
0.0
  0
SPLINE
  5
C6
330
1F
100
AcDbEntity
  8
Vrstva 1
 62
   250
100
AcDbSpline
210
0.0
220
0.0
230
1.0
 70
    11
 71
     3
 72
    16
 73
    12
 74
     0
 42
0.0000000001
 43
0.0000000001
 40
0.0
 40
0.0
 40
0.0
 40
0.0
 40
0.25
 40
0.25
 40
0.25
 40
0.25
 40
0.5
 40
0.5
 40
0.5
 40
0.5
 40
1.0
 40
1.0
 40
1.0
 40
1.0
 10
-29.6913
 20
-27.9943
 30
0.0
 10
-29.6913
 20
-27.9943
 30
0.0
 10
-34.7948
 20
-27.5556
 30
0.0
 10
-34.7948
 20
-27.5556
 30
0.0
 10
-34.7948
 20
-27.5556
 30
0.0
 10
-34.7948
 20
-27.5556
 30
0.0
 10
-31.0685
 20
-31.0704
 30
0.0
 10
-31.0685
 20
-31.0704
 30
0.0
 10
-31.0685
 20
-31.0704
 30
0.0
 10
-31.0685
 20
-31.0704
 30
0.0
 10
-29.6913
 20
-27.9943
 30
0.0
 10
-29.6913
 20
-27.9943
 30
0.0
  0
SPLINE
  5
C7
330
1F
100
AcDbEntity
  8
Vrstva 1
 62
   250
100
AcDbSpline
210
0.0
220
0.0
230
1.0
 70
    11
 71
     3
 72
    16
 73
    12
 74
     0
 42
0.0000000001
 43
0.0000000001
 40
0.0
 40
0.0
 40
0.0
 40
0.0
 40
0.25
 40
0.25
 40
0.25
 40
0.25
 40
0.5
 40
0.5
 40
0.5
 40
0.5
 40
1.0
 40
1.0
 40
1.0
 40
1.0
 10
68.5729
 20
21.5776
 30
0.0
 10
68.5729
 20
21.5776
 30
0.0
 10
70.258
 20
16.7403
 30
0.0
 10
70.258
 20
16.7403
 30
0.0
 10
70.258
 20
16.7403
 30
0.0
 10
70.258
 20
16.7403
 30
0.0
 10
71.9431
 20
21.5776
 30
0.0
 10
71.9431
 20
21.5776
 30
0.0
 10
71.9431
 20
21.5776
 30
0.0
 10
71.9431
 20
21.5776
 30
0.0
 10
68.5729
 20
21.5776
 30
0.0
 10
68.5729
 20
21.5776
 30
0.0
  0
SPLINE
  5
C8
330
1F
100
AcDbEntity
  8
Vrstva 1
 62
   250
100
AcDbSpline
210
0.0
220
0.0
230
1.0
 70
    11
 71
     3
 72
    16
 73
    12
 74
     0
 42
0.0000000001
 43
0.0000000001
 40
0.0
 40
0.0
 40
0.0
 40
0.0
 40
0.25
 40
0.25
 40
0.25
 40
0.25
 40
0.5
 40
0.5
 40
0.5
 40
0.5
 40
1.0
 40
1.0
 40
1.0
 40
1.0
 10
33.4553
 20
17.3526
 30
0.0
 10
33.4553
 20
17.3526
 30
0.0
 10
35.1404
 20
12.5153
 30
0.0
 10
35.1404
 20
12.5153
 30
0.0
 10
35.1404
 20
12.5153
 30
0.0
 10
35.1404
 20
12.5153
 30
0.0
 10
36.8255
 20
17.3526
 30
0.0
 10
36.8255
 20
17.3526
 30
0.0
 10
36.8255
 20
17.3526
 30
0.0
 10
36.8255
 20
17.3526
 30
0.0
 10
33.4553
 20
17.3526
 30
0.0
 10
33.4553
 20
17.3526
 30
0.0
  0
SPLINE
  5
C9
330
1F
100
AcDbEntity
  8
Vrstva 1
 62
   250
100
AcDbSpline
210
0.0
220
0.0
230
1.0
 70
    11
 71
     3
 72
    16
 73
    12
 74
     0
 42
0.0000000001
 43
0.0000000001
 40
0.0
 40
0.0
 40
0.0
 40
0.0
 40
0.25
 40
0.25
 40
0.25
 40
0.25
 40
0.5
 40
0.5
 40
0.5
 40
0.5
 40
1.0
 40
1.0
 40
1.0
 40
1.0
 10
24.0284
 20
65.0835
 30
0.0
 10
24.0284
 20
65.0835
 30
0.0
 10
28.8655
 20
66.7685
 30
0.0
 10
28.8655
 20
66.7685
 30
0.0
 10
28.8655
 20
66.7685
 30
0.0
 10
28.8655
 20
66.7685
 30
0.0
 10
24.0284
 20
68.4537
 30
0.0
 10
24.0284
 20
68.4537
 30
0.0
 10
24.0284
 20
68.4537
 30
0.0
 10
24.0284
 20
68.4537
 30
0.0
 10
24.0284
 20
65.0835
 30
0.0
 10
24.0284
 20
65.0835
 30
0.0
  0
SPLINE
  5
CA
330
1F
100
AcDbEntity
  8
Vrstva 1
  6
New Line1
 62
   250
370
    15
100
AcDbSpline
210
0.0
220
0.0
230
1.0
 70
    24
 71
     3
 72
     8
 73
     4
 74
     0
 42
0.0000000001
 43
0.0000000001
 40
0.0
 40
0.0
 40
0.0
 40
0.0
 40
1.0
 40
1.0
 40
1.0
 40
1.0
 10
61.3335
 20
33.9594
 30
0.0
 10
61.3335
 20
33.9594
 30
0.0
 10
-24.9053
 20
34.0624
 30
0.0
 10
-24.9053
 20
34.0624
 30
0.0
  0
ENDSEC
  0
SECTION
  2
OBJECTS
  0
DICTIONARY
  5
C
330
0
100
AcDbDictionary
281
     1
  3
ACAD_GROUP
350
D
  3
ACAD_LAYOUT
350
1A
  3
ACAD_MATERIAL
350
3B
  3
ACAD_MLEADERSTYLE
350
CE
  3
ACAD_MLINESTYLE
350
17
  3
ACAD_PLOTSETTINGS
350
19
  3
ACAD_PLOTSTYLENAME
350
E
  3
ACAD_VISUALSTYLE
350
2A
  3
AcDbVariableDictionary
350
CC
  0
DICTIONARY
  5
D
102
{ACAD_REACTORS
330
C
102
}
330
C
100
AcDbDictionary
281
     1
  0
DICTIONARY
  5
1A
102
{ACAD_REACTORS
330
C
102
}
330
C
100
AcDbDictionary
281
     1
  3
Layout1
350
1E
  3
Layout2
350
26
  3
Model
350
22
  0
DICTIONARY
  5
3B
102
{ACAD_REACTORS
330
C
102
}
330
C
100
AcDbDictionary
281
     1
  3
ByBlock
350
3D
  3
ByLayer
350
3C
  3
Global
350
3E
  0
DICTIONARY
  5
CE
102
{ACAD_REACTORS
330
C
102
}
330
C
100
AcDbDictionary
281
     1
  0
DICTIONARY
  5
17
102
{ACAD_REACTORS
330
C
102
}
330
C
100
AcDbDictionary
281
     1
  3
Standard
350
18
  0
DICTIONARY
  5
19
102
{ACAD_REACTORS
330
C
102
}
330
C
100
AcDbDictionary
281
     1
  0
ACDBDICTIONARYWDFLT
  5
E
102
{ACAD_REACTORS
330
C
102
}
330
C
100
AcDbDictionary
281
     1
  3
Normal
350
F
100
AcDbDictionaryWithDefault
340
F
  0
DICTIONARY
  5
2A
102
{ACAD_REACTORS
330
C
102
}
330
C
100
AcDbDictionary
281
     1
  3
2dWireframe
350
2F
  3
3D Hidden
350
31
  3
3dWireframe
350
30
  3
Basic
350
32
  3
Brighten
350
36
  3
ColorChange
350
3A
  3
Conceptual
350
34
  3
Dim
350
35
  3
Facepattern
350
39
  3
Flat
350
2B
  3
FlatWithEdges
350
2C
  3
Gouraud
350
2D
  3
GouraudWithEdges
350
2E
  3
Linepattern
350
38
  3
Realistic
350
33
  3
Thicken
350
37
  0
DICTIONARY
  5
CC
102
{ACAD_REACTORS
330
C
102
}
330
C
100
AcDbDictionary
281
     1
  3
DIMASSOC
350
CF
  3
HIDETEXT
350
D0
  0
LAYOUT
  5
1E
102
{ACAD_REACTORS
330
1A
102
}
330
1A
100
AcDbPlotSettings
  1

  2
none_device
  4

  6

 40
0.0
 41
0.0
 42
0.0
 43
0.0
 44
0.0
 45
0.0
 46
0.0
 47
0.0
 48
0.0
 49
0.0
140
0.0
141
0.0
142
1.0
143
1.0
 70
   688
 72
     0
 73
     0
 74
     5
  7

 75
    16
147
1.0
148
0.0
149
0.0
100
AcDbLayout
  1
Layout1
 70
     1
 71
     1
 10
0.0
 20
0.0
 11
12.0
 21
9.0
 12
0.0
 22
0.0
 32
0.0
 14
1.000000000000000E+20
 24
1.000000000000000E+20
 34
1.000000000000000E+20
 15
-1.000000000000000E+20
 25
-1.000000000000000E+20
 35
-1.000000000000000E+20
146
0.0
 13
0.0
 23
0.0
 33
0.0
 16
1.0
 26
0.0
 36
0.0
 17
0.0
 27
1.0
 37
0.0
 76
     0
330
1B
  0
LAYOUT
  5
26
102
{ACAD_REACTORS
330
1A
102
}
330
1A
100
AcDbPlotSettings
  1

  2
none_device
  4

  6

 40
0.0
 41
0.0
 42
0.0
 43
0.0
 44
0.0
 45
0.0
 46
0.0
 47
0.0
 48
0.0
 49
0.0
140
0.0
141
0.0
142
1.0
143
1.0
 70
   688
 72
     0
 73
     0
 74
     5
  7

 75
    16
147
1.0
148
0.0
149
0.0
100
AcDbLayout
  1
Layout2
 70
     1
 71
     2
 10
0.0
 20
0.0
 11
0.0
 21
0.0
 12
0.0
 22
0.0
 32
0.0
 14
0.0
 24
0.0
 34
0.0
 15
0.0
 25
0.0
 35
0.0
146
0.0
 13
0.0
 23
0.0
 33
0.0
 16
1.0
 26
0.0
 36
0.0
 17
0.0
 27
1.0
 37
0.0
 76
     0
330
23
  0
LAYOUT
  5
22
102
{ACAD_REACTORS
330
1A
102
}
330
1A
100
AcDbPlotSettings
  1

  2
none_device
  4

  6

 40
0.0
 41
0.0
 42
0.0
 43
0.0
 44
0.0
 45
0.0
 46
0.0
 47
0.0
 48
0.0
 49
0.0
140
0.0
141
0.0
142
1.0
143
1.0
 70
  1712
 72
     0
 73
     0
 74
     0
  7

 75
     0
147
1.0
148
0.0
149
0.0
100
AcDbLayout
  1
Model
 70
     1
 71
     0
 10
0.0
 20
0.0
 11
12.0
 21
9.0
 12
0.0
 22
0.0
 32
0.0
 14
-71.9719
 24
-70.6625
 34
0.0
 15
71.9431
 25
70.5889
 35
0.0
146
0.0
 13
0.0
 23
0.0
 33
0.0
 16
1.0
 26
0.0
 36
0.0
 17
0.0
 27
1.0
 37
0.0
 76
     0
330
1F
331
29
  0
MATERIAL
  5
3D
102
{ACAD_REACTORS
330
3B
102
}
102
{ACAD_XDICTIONARY
360
F3
102
}
330
3B
100
AcDbMaterial
  1
ByBlock
  0
MATERIAL
  5
3C
102
{ACAD_REACTORS
330
3B
102
}
102
{ACAD_XDICTIONARY
360
F1
102
}
330
3B
100
AcDbMaterial
  1
ByLayer
  0
MATERIAL
  5
3E
102
{ACAD_REACTORS
330
3B
102
}
102
{ACAD_XDICTIONARY
360
F5
102
}
330
3B
100
AcDbMaterial
  1
Global
  0
MLINESTYLE
  5
18
102
{ACAD_REACTORS
330
17
102
}
330
17
100
AcDbMlineStyle
  2
Standard
 70
     0
  3

 62
   256
 51
90.0
 52
90.0
 71
     2
 49
0.5
 62
   256
  6
BYLAYER
 49
-0.5
 62
   256
  6
BYLAYER
  0
ACDBPLACEHOLDER
  5
F
102
{ACAD_REACTORS
330
E
102
}
330
E
  0
VISUALSTYLE
  5
2F
102
{ACAD_REACTORS
330
2A
102
}
102
{ACAD_XDICTIONARY
360
D9
102
}
330
2A
100
AcDbVisualStyle
  2
2dWireframe
 70
     4
 71
     0
 72
     2
 73
     0
 90
        0
 40
-0.6
 41
-30.0
 62
     5
 63
     7
 74
     1
 91
        4
 64
     7
 65
   257
 75
     1
175
     1
 42
1.0
 92
        0
 66
   257
 43
1.0
 76
     1
 77
     6
 78
     2
 67
     7
 79
     5
170
     0
171
     0
290
     0
174
     0
 93
        1
 44
0.0
173
     0
291
     0
 45
0.0
1001
ACAD
1000
AcDbSavedByObjectVersion
1070
     0
  0
VISUALSTYLE
  5
31
102
{ACAD_REACTORS
330
2A
102
}
102
{ACAD_XDICTIONARY
360
DD
102
}
330
2A
100
AcDbVisualStyle
  2
3D Hidden
 70
     6
 71
     1
 72
     2
 73
     2
 90
        0
 40
-0.6
 41
-30.0
 62
     5
 63
     7
 74
     2
 91
        2
 64
     7
 65
   257
 75
     2
175
     1
 42
40.0
 92
        0
 66
   257
 43
1.0
 76
     1
 77
     6
 78
     2
 67
     7
 79
     3
170
     0
171
     0
290
     0
174
     0
 93
        1
 44
0.0
173
     0
291
     0
 45
0.0
1001
ACAD
1000
AcDbSavedByObjectVersion
1070
     0
  0
VISUALSTYLE
  5
30
102
{ACAD_REACTORS
330
2A
102
}
102
{ACAD_XDICTIONARY
360
DB
102
}
330
2A
100
AcDbVisualStyle
  2
3dWireframe
 70
     5
 71
     0
 72
     2
 73
     0
 90
        0
 40
-0.6
 41
-30.0
 62
     5
 63
     7
 74
     1
 91
        4
 64
     7
 65
   257
 75
     1
175
     1
 42
1.0
 92
        0
 66
   257
 43
1.0
 76
     1
 77
     6
 78
     2
 67
     7
 79
     5
170
     0
171
     0
290
     0
174
     0
 93
        1
 44
0.0
173
     0
291
     0
 45
0.0
1001
ACAD
1000
AcDbSavedByObjectVersion
1070
     0
  0
VISUALSTYLE
  5
32
102
{ACAD_REACTORS
330
2A
102
}
102
{ACAD_XDICTIONARY
360
DF
102
}
330
2A
100
AcDbVisualStyle
  2
Basic
 70
     7
 71
     1
 72
     0
 73
     1
 90
        0
 40
-0.6
 41
-30.0
 62
     5
 63
     7
 74
     0
 91
        4
 64
     7
 65
   257
 75
     1
175
     1
 42
1.0
 92
        8
 66
     7
 43
1.0
 76
     1
 77
     6
 78
     2
 67
     7
 79
     5
170
     0
171
     0
290
     0
174
     0
 93
        1
 44
0.0
173
     0
291
     1
 45
0.0
1001
ACAD
1000
AcDbSavedByObjectVersion
1070
     0
  0
VISUALSTYLE
  5
36
102
{ACAD_REACTORS
330
2A
102
}
102
{ACAD_XDICTIONARY
360
E7
102
}
330
2A
100
AcDbVisualStyle
  2
Brighten
 70
    12
 71
     2
 72
     2
 73
     0
 90
        0
 40
-0.6
 41
-30.0
 62
     5
 63
     7
 74
     1
 91
        4
 64
     7
 65
   257
 75
     1
175
     1
 42
1.0
 92
        8
 66
     7
 43
1.0
 76
     1
 77
     6
 78
     2
 67
     7
 79
     5
170
     0
171
     0
290
     0
174
     0
 93
        1
 44
50.0
173
     0
291
     1
 45
0.0
1001
ACAD
1000
AcDbSavedByObjectVersion
1070
     0
  0
VISUALSTYLE
  5
3A
102
{ACAD_REACTORS
330
2A
102
}
102
{ACAD_XDICTIONARY
360
EF
102
}
330
2A
100
AcDbVisualStyle
  2
ColorChange
 70
    16
 71
     2
 72
     2
 73
     3
 90
        0
 40
-0.6
 41
-30.0
 62
     5
 63
     8
 74
     1
 91
        4
 64
     7
 65
   257
 75
     1
175
     1
 42
1.0
 92
        8
 66
     8
 43
1.0
 76
     1
 77
     6
 78
     2
 67
     7
 79
     5
170
     0
171
     0
290
     0
174
     0
 93
        1
 44
0.0
173
     0
291
     1
 45
0.0
1001
ACAD
1000
AcDbSavedByObjectVersion
1070
     0
  0
VISUALSTYLE
  5
34
102
{ACAD_REACTORS
330
2A
102
}
102
{ACAD_XDICTIONARY
360
E3
102
}
330
2A
100
AcDbVisualStyle
  2
Conceptual
 70
     9
 71
     3
 72
     2
 73
     0
 90
        0
 40
-0.6
 41
-30.0
 62
     5
 63
     7
 74
     2
 91
        2
 64
     7
 65
   257
 75
     1
175
     1
 42
40.0
 92
        8
 66
     7
 43
1.0
 76
     1
 77
     6
 78
     2
 67
     7
 79
     3
170
     0
171
     0
290
     0
174
     0
 93
        1
 44
0.0
173
     0
291
     0
 45
0.0
1001
ACAD
1000
AcDbSavedByObjectVersion
1070
     0
  0
VISUALSTYLE
  5
35
102
{ACAD_REACTORS
330
2A
102
}
102
{ACAD_XDICTIONARY
360
E5
102
}
330
2A
100
AcDbVisualStyle
  2
Dim
 70
    11
 71
     2
 72
     2
 73
     0
 90
        0
 40
-0.6
 41
-30.0
 62
     5
 63
     7
 74
     1
 91
        4
 64
     7
 65
   257
 75
     1
175
     1
 42
1.0
 92
        8
 66
     7
 43
1.0
 76
     1
 77
     6
 78
     2
 67
     7
 79
     5
170
     0
171
     0
290
     0
174
     0
 93
        1
 44
-50.0
173
     0
291
     1
 45
0.0
1001
ACAD
1000
AcDbSavedByObjectVersion
1070
     0
  0
VISUALSTYLE
  5
39
102
{ACAD_REACTORS
330
2A
102
}
102
{ACAD_XDICTIONARY
360
ED
102
}
330
2A
100
AcDbVisualStyle
  2
Facepattern
 70
    15
 71
     2
 72
     2
 73
     0
 90
        0
 40
-0.6
 41
-30.0
 62
     5
 63
     7
 74
     1
 91
        4
 64
     7
 65
   257
 75
     1
175
     1
 42
1.0
 92
        8
 66
     7
 43
1.0
 76
     1
 77
     6
 78
     2
 67
     7
 79
     5
170
     0
171
     0
290
     0
174
     0
 93
        1
 44
0.0
173
     0
291
     1
 45
0.0
1001
ACAD
1000
AcDbSavedByObjectVersion
1070
     0
  0
VISUALSTYLE
  5
2B
102
{ACAD_REACTORS
330
2A
102
}
102
{ACAD_XDICTIONARY
360
D1
102
}
330
2A
100
AcDbVisualStyle
  2
Flat
 70
     0
 71
     2
 72
     1
 73
     1
 90
        2
 40
-0.6
 41
30.0
 62
     5
 63
     7
 74
     0
 91
        4
 64
     7
 65
   257
 75
     1
175
     1
 42
1.0
 92
        8
 66
     7
 43
1.0
 76
     1
 77
     6
 78
     2
 67
     7
 79
     5
170
     0
171
     0
290
     0
174
     0
 93
       13
 44
0.0
173
     0
291
     1
 45
0.0
1001
ACAD
1000
AcDbSavedByObjectVersion
1070
     0
  0
VISUALSTYLE
  5
2C
102
{ACAD_REACTORS
330
2A
102
}
102
{ACAD_XDICTIONARY
360
D3
102
}
330
2A
100
AcDbVisualStyle
  2
FlatWithEdges
 70
     1
 71
     2
 72
     1
 73
     1
 90
        2
 40
-0.6
 41
30.0
 62
     5
 63
     7
 74
     1
 91
        4
 64
     7
 65
   257
 75
     1
175
     1
 42
1.0
 92
        0
 66
   257
 43
1.0
 76
     1
 77
     6
 78
     2
 67
     7
 79
     5
170
     0
171
     0
290
     0
174
     0
 93
       13
 44
0.0
173
     0
291
     1
 45
0.0
1001
ACAD
1000
AcDbSavedByObjectVersion
1070
     0
  0
VISUALSTYLE
  5
2D
102
{ACAD_REACTORS
330
2A
102
}
102
{ACAD_XDICTIONARY
360
D5
102
}
330
2A
100
AcDbVisualStyle
  2
Gouraud
 70
     2
 71
     2
 72
     2
 73
     1
 90
        2
 40
-0.6
 41
30.0
 62
     5
 63
     7
 74
     0
 91
        4
 64
     7
 65
   257
 75
     1
175
     1
 42
1.0
 92
        0
 66
     7
 43
1.0
 76
     1
 77
     6
 78
     2
 67
     7
 79
     5
170
     0
171
     0
290
     0
174
     0
 93
       13
 44
0.0
173
     0
291
     1
 45
0.0
1001
ACAD
1000
AcDbSavedByObjectVersion
1070
     0
  0
VISUALSTYLE
  5
2E
102
{ACAD_REACTORS
330
2A
102
}
102
{ACAD_XDICTIONARY
360
D7
102
}
330
2A
100
AcDbVisualStyle
  2
GouraudWithEdges
 70
     3
 71
     2
 72
     2
 73
     1
 90
        2
 40
-0.6
 41
30.0
 62
     5
 63
     7
 74
     1
 91
        4
 64
     7
 65
   257
 75
     1
175
     1
 42
1.0
 92
        0
 66
   257
 43
1.0
 76
     1
 77
     6
 78
     2
 67
     7
 79
     5
170
     0
171
     0
290
     0
174
     0
 93
       13
 44
0.0
173
     0
291
     1
 45
0.0
1001
ACAD
1000
AcDbSavedByObjectVersion
1070
     0
  0
VISUALSTYLE
  5
38
102
{ACAD_REACTORS
330
2A
102
}
102
{ACAD_XDICTIONARY
360
EB
102
}
330
2A
100
AcDbVisualStyle
  2
Linepattern
 70
    14
 71
     2
 72
     2
 73
     0
 90
        0
 40
-0.6
 41
-30.0
 62
     5
 63
     7
 74
     1
 91
        4
 64
     7
 65
   257
 75
     7
175
     7
 42
1.0
 92
        8
 66
     7
 43
1.0
 76
     1
 77
     6
 78
     2
 67
     7
 79
     5
170
     0
171
     0
290
     0
174
     0
 93
        1
 44
0.0
173
     0
291
     1
 45
0.0
1001
ACAD
1000
AcDbSavedByObjectVersion
1070
     0
  0
VISUALSTYLE
  5
33
102
{ACAD_REACTORS
330
2A
102
}
102
{ACAD_XDICTIONARY
360
E1
102
}
330
2A
100
AcDbVisualStyle
  2
Realistic
 70
     8
 71
     2
 72
     2
 73
     0
 90
        0
 40
-0.6
 41
-30.0
 62
     5
 63
     7
 74
     1
 91
        0
 64
     7
 65
   257
 75
     1
175
     1
 42
1.0
 92
        8
 66
     8
 43
1.0
 76
     1
 77
     6
 78
     2
 67
     7
 79
     5
170
     0
171
     0
290
     0
174
     0
 93
       13
 44
0.0
173
     0
291
     0
 45
0.0
1001
ACAD
1000
AcDbSavedByObjectVersion
1070
     0
  0
VISUALSTYLE
  5
37
102
{ACAD_REACTORS
330
2A
102
}
102
{ACAD_XDICTIONARY
360
E9
102
}
330
2A
100
AcDbVisualStyle
  2
Thicken
 70
    13
 71
     2
 72
     2
 73
     0
 90
        0
 40
-0.6
 41
-30.0
 62
     5
 63
     7
 74
     1
 91
        4
 64
     7
 65
   257
 75
     1
175
     1
 42
1.0
 92
       12
 66
     7
 43
1.0
 76
     1
 77
     6
 78
     2
 67
     7
 79
     5
170
     0
171
     0
290
     0
174
     0
 93
        1
 44
0.0
173
     0
291
     1
 45
0.0
1001
ACAD
1000
AcDbSavedByObjectVersion
1070
     0
  0
DICTIONARYVAR
  5
CF
102
{ACAD_REACTORS
330
CC
102
}
330
CC
100
DictionaryVariables
280
     0
  1
2
  0
DICTIONARYVAR
  5
D0
102
{ACAD_REACTORS
330
CC
102
}
330
CC
100
DictionaryVariables
280
     0
  1
1
  0
DICTIONARY
  5
F3
330
3D
100
AcDbDictionary
280
     1
281
     1
  3
ACAD_XREC_ROUNDTRIP
360
F4
  0
DICTIONARY
  5
F1
330
3C
100
AcDbDictionary
280
     1
281
     1
  3
ACAD_XREC_ROUNDTRIP
360
F2
  0
DICTIONARY
  5
F5
330
3E
100
AcDbDictionary
280
     1
281
     1
  3
ACAD_XREC_ROUNDTRIP
360
F6
  0
DICTIONARY
  5
D9
330
2F
100
AcDbDictionary
280
     1
281
     1
  3
ACAD_XREC_ROUNDTRIP
360
DA
  0
DICTIONARY
  5
DD
330
31
100
AcDbDictionary
280
     1
281
     1
  3
ACAD_XREC_ROUNDTRIP
360
DE
  0
DICTIONARY
  5
DB
330
30
100
AcDbDictionary
280
     1
281
     1
  3
ACAD_XREC_ROUNDTRIP
360
DC
  0
DICTIONARY
  5
DF
330
32
100
AcDbDictionary
280
     1
281
     1
  3
ACAD_XREC_ROUNDTRIP
360
E0
  0
DICTIONARY
  5
E7
330
36
100
AcDbDictionary
280
     1
281
     1
  3
ACAD_XREC_ROUNDTRIP
360
E8
  0
DICTIONARY
  5
EF
330
3A
100
AcDbDictionary
280
     1
281
     1
  3
ACAD_XREC_ROUNDTRIP
360
F0
  0
DICTIONARY
  5
E3
330
34
100
AcDbDictionary
280
     1
281
     1
  3
ACAD_XREC_ROUNDTRIP
360
E4
  0
DICTIONARY
  5
E5
330
35
100
AcDbDictionary
280
     1
281
     1
  3
ACAD_XREC_ROUNDTRIP
360
E6
  0
DICTIONARY
  5
ED
330
39
100
AcDbDictionary
280
     1
281
     1
  3
ACAD_XREC_ROUNDTRIP
360
EE
  0
DICTIONARY
  5
D1
330
2B
100
AcDbDictionary
280
     1
281
     1
  3
ACAD_XREC_ROUNDTRIP
360
D2
  0
DICTIONARY
  5
D3
330
2C
100
AcDbDictionary
280
     1
281
     1
  3
ACAD_XREC_ROUNDTRIP
360
D4
  0
DICTIONARY
  5
D5
330
2D
100
AcDbDictionary
280
     1
281
     1
  3
ACAD_XREC_ROUNDTRIP
360
D6
  0
DICTIONARY
  5
D7
330
2E
100
AcDbDictionary
280
     1
281
     1
  3
ACAD_XREC_ROUNDTRIP
360
D8
  0
DICTIONARY
  5
EB
330
38
100
AcDbDictionary
280
     1
281
     1
  3
ACAD_XREC_ROUNDTRIP
360
EC
  0
DICTIONARY
  5
E1
330
33
100
AcDbDictionary
280
     1
281
     1
  3
ACAD_XREC_ROUNDTRIP
360
E2
  0
DICTIONARY
  5
E9
330
37
100
AcDbDictionary
280
     1
281
     1
  3
ACAD_XREC_ROUNDTRIP
360
EA
  0
XRECORD
  5
F4
102
{ACAD_REACTORS
330
F3
102
}
330
F3
100
AcDbXrecord
280
     1
102
MATERIAL
148
0.0
149
0.0
149
0.0
 93
        0
 94
      127
282
     0
 72
     1
 77
     1
171
     1
175
     1
179
     1
273
     0
  0
XRECORD
  5
F2
102
{ACAD_REACTORS
330
F1
102
}
330
F1
100
AcDbXrecord
280
     1
102
MATERIAL
148
0.0
149
0.0
149
0.0
 93
        0
 94
      127
282
     0
 72
     1
 77
     1
171
     1
175
     1
179
     1
273
     0
  0
XRECORD
  5
F6
102
{ACAD_REACTORS
330
F5
102
}
330
F5
100
AcDbXrecord
280
     1
102
MATERIAL
148
0.0
149
0.0
149
0.0
 93
        0
 94
      127
282
     0
 72
     1
 77
     1
171
     1
175
     1
179
     1
273
     0
  0
XRECORD
  5
DA
102
{ACAD_REACTORS
330
D9
102
}
330
D9
100
AcDbXrecord
280
     1
102
RTVSPropertyOp0
 70
     1
102
RTVSPropertyOp1
 70
     1
102
RTVSPropertyOp2
 70
     1
102
RTVSPropertyOp3
 70
     1
102
RTVSPropertyOp4
 70
     1
102
RTVSPropertyOp5
 70
     1
102
RTVSPropertyOp6
 70
     1
102
RTVSPropertyOp7
 70
     1
102
RTVSPropertyOp8
 70
     1
102
RTVSPropertyOp9
 70
     1
102
RTVSPropertyOp10
 70
     1
102
RTVSPropertyOp11
 70
     1
102
RTVSPropertyOp12
 70
     1
102
RTVSPropertyOp13
 70
     1
102
RTVSPropertyOp14
 70
     1
102
RTVSPropertyOp15
 70
     1
102
RTVSPropertyOp16
 70
     1
102
RTVSPropertyOp17
 70
     1
102
RTVSPropertyOp18
 70
     1
102
RTVSPropertyOp19
 70
     1
102
RTVSPropertyOp20
 70
     1
102
RTVSPropertyOp21
 70
     1
102
RTVSPropertyOp22
 70
     1
102
RTVSPropertyOp23
 70
     1
102
RTVSPropertyOp24
 70
     1
102
RTVSPropertyOp25
 70
     1
102
RTVSPropertyOp26
 70
     1
102
RTVSPropertyOp27
 70
     1
  0
XRECORD
  5
DE
102
{ACAD_REACTORS
330
DD
102
}
330
DD
100
AcDbXrecord
280
     1
102
RTVSPropertyOp0
 70
     1
102
RTVSPropertyOp1
 70
     1
102
RTVSPropertyOp2
 70
     1
102
RTVSPropertyOp3
 70
     1
102
RTVSPropertyOp4
 70
     1
102
RTVSPropertyOp5
 70
     1
102
RTVSPropertyOp6
 70
     1
102
RTVSPropertyOp7
 70
     1
102
RTVSPropertyOp8
 70
     1
102
RTVSPropertyOp9
 70
     1
102
RTVSPropertyOp10
 70
     1
102
RTVSPropertyOp11
 70
     1
102
RTVSPropertyOp12
 70
     1
102
RTVSPropertyOp13
 70
     1
102
RTVSPropertyOp14
 70
     1
102
RTVSPropertyOp15
 70
     1
102
RTVSPropertyOp16
 70
     1
102
RTVSPropertyOp17
 70
     1
102
RTVSPropertyOp18
 70
     1
102
RTVSPropertyOp19
 70
     1
102
RTVSPropertyOp20
 70
     1
102
RTVSPropertyOp21
 70
     1
102
RTVSPropertyOp22
 70
     1
102
RTVSPropertyOp23
 70
     1
102
RTVSPropertyOp24
 70
     1
102
RTVSPropertyOp25
 70
     1
102
RTVSPropertyOp26
 70
     1
102
RTVSPropertyOp27
 70
     1
  0
XRECORD
  5
DC
102
{ACAD_REACTORS
330
DB
102
}
330
DB
100
AcDbXrecord
280
     1
102
RTVSPropertyOp0
 70
     1
102
RTVSPropertyOp1
 70
     1
102
RTVSPropertyOp2
 70
     1
102
RTVSPropertyOp3
 70
     1
102
RTVSPropertyOp4
 70
     1
102
RTVSPropertyOp5
 70
     1
102
RTVSPropertyOp6
 70
     1
102
RTVSPropertyOp7
 70
     1
102
RTVSPropertyOp8
 70
     1
102
RTVSPropertyOp9
 70
     1
102
RTVSPropertyOp10
 70
     1
102
RTVSPropertyOp11
 70
     1
102
RTVSPropertyOp12
 70
     1
102
RTVSPropertyOp13
 70
     1
102
RTVSPropertyOp14
 70
     1
102
RTVSPropertyOp15
 70
     1
102
RTVSPropertyOp16
 70
     1
102
RTVSPropertyOp17
 70
     1
102
RTVSPropertyOp18
 70
     1
102
RTVSPropertyOp19
 70
     1
102
RTVSPropertyOp20
 70
     1
102
RTVSPropertyOp21
 70
     1
102
RTVSPropertyOp22
 70
     1
102
RTVSPropertyOp23
 70
     1
102
RTVSPropertyOp24
 70
     1
102
RTVSPropertyOp25
 70
     1
102
RTVSPropertyOp26
 70
     1
102
RTVSPropertyOp27
 70
     1
  0
XRECORD
  5
E0
102
{ACAD_REACTORS
330
DF
102
}
330
DF
100
AcDbXrecord
280
     1
102
RTVSPropertyOp0
 70
     1
102
RTVSPropertyOp1
 70
     1
102
RTVSPropertyOp2
 70
     1
102
RTVSPropertyOp3
 70
     1
102
RTVSPropertyOp4
 70
     1
102
RTVSPropertyOp5
 70
     1
102
RTVSPropertyOp6
 70
     1
102
RTVSPropertyOp7
 70
     1
102
RTVSPropertyOp8
 70
     1
102
RTVSPropertyOp9
 70
     1
102
RTVSPropertyOp10
 70
     1
102
RTVSPropertyOp11
 70
     1
102
RTVSPropertyOp12
 70
     1
102
RTVSPropertyOp13
 70
     1
102
RTVSPropertyOp14
 70
     1
102
RTVSPropertyOp15
 70
     1
102
RTVSPropertyOp16
 70
     1
102
RTVSPropertyOp17
 70
     1
102
RTVSPropertyOp18
 70
     1
102
RTVSPropertyOp19
 70
     1
102
RTVSPropertyOp20
 70
     1
102
RTVSPropertyOp21
 70
     1
102
RTVSPropertyOp22
 70
     1
102
RTVSPropertyOp23
 70
     1
102
RTVSPropertyOp24
 70
     1
102
RTVSPropertyOp25
 70
     1
102
RTVSPropertyOp26
 70
     1
102
RTVSPropertyOp27
 70
     1
  0
XRECORD
  5
E8
102
{ACAD_REACTORS
330
E7
102
}
330
E7
100
AcDbXrecord
280
     1
102
RTVSPropertyOp0
 70
     1
102
RTVSPropertyOp1
 70
     1
102
RTVSPropertyOp2
 70
     1
102
RTVSPropertyOp3
 70
     1
102
RTVSPropertyOp4
 70
     1
102
RTVSPropertyOp5
 70
     1
102
RTVSPropertyOp6
 70
     1
102
RTVSPropertyOp7
 70
     1
102
RTVSPropertyOp8
 70
     1
102
RTVSPropertyOp9
 70
     1
102
RTVSPropertyOp10
 70
     1
102
RTVSPropertyOp11
 70
     1
102
RTVSPropertyOp12
 70
     1
102
RTVSPropertyOp13
 70
     1
102
RTVSPropertyOp14
 70
     1
102
RTVSPropertyOp15
 70
     1
102
RTVSPropertyOp16
 70
     1
102
RTVSPropertyOp17
 70
     1
102
RTVSPropertyOp18
 70
     1
102
RTVSPropertyOp19
 70
     1
102
RTVSPropertyOp20
 70
     1
102
RTVSPropertyOp21
 70
     1
102
RTVSPropertyOp22
 70
     1
102
RTVSPropertyOp23
 70
     1
102
RTVSPropertyOp24
 70
     1
102
RTVSPropertyOp25
 70
     1
102
RTVSPropertyOp26
 70
     1
102
RTVSPropertyOp27
 70
     1
  0
XRECORD
  5
F0
102
{ACAD_REACTORS
330
EF
102
}
330
EF
100
AcDbXrecord
280
     1
102
RTVSPropertyOp0
 70
     1
102
RTVSPropertyOp1
 70
     1
102
RTVSPropertyOp2
 70
     1
102
RTVSPropertyOp3
 70
     1
102
RTVSPropertyOp4
 70
     1
102
RTVSPropertyOp5
 70
     1
102
RTVSPropertyOp6
 70
     1
102
RTVSPropertyOp7
 70
     1
102
RTVSPropertyOp8
 70
     1
102
RTVSPropertyOp9
 70
     1
102
RTVSPropertyOp10
 70
     1
102
RTVSPropertyOp11
 70
     1
102
RTVSPropertyOp12
 70
     1
102
RTVSPropertyOp13
 70
     1
102
RTVSPropertyOp14
 70
     1
102
RTVSPropertyOp15
 70
     1
102
RTVSPropertyOp16
 70
     1
102
RTVSPropertyOp17
 70
     1
102
RTVSPropertyOp18
 70
     1
102
RTVSPropertyOp19
 70
     1
102
RTVSPropertyOp20
 70
     1
102
RTVSPropertyOp21
 70
     1
102
RTVSPropertyOp22
 70
     1
102
RTVSPropertyOp23
 70
     1
102
RTVSPropertyOp24
 70
     1
102
RTVSPropertyOp25
 70
     1
102
RTVSPropertyOp26
 70
     1
102
RTVSPropertyOp27
 70
     1
  0
XRECORD
  5
E4
102
{ACAD_REACTORS
330
E3
102
}
330
E3
100
AcDbXrecord
280
     1
102
RTVSPropertyOp0
 70
     1
102
RTVSPropertyOp1
 70
     1
102
RTVSPropertyOp2
 70
     1
102
RTVSPropertyOp3
 70
     1
102
RTVSPropertyOp4
 70
     1
102
RTVSPropertyOp5
 70
     1
102
RTVSPropertyOp6
 70
     1
102
RTVSPropertyOp7
 70
     1
102
RTVSPropertyOp8
 70
     1
102
RTVSPropertyOp9
 70
     1
102
RTVSPropertyOp10
 70
     1
102
RTVSPropertyOp11
 70
     1
102
RTVSPropertyOp12
 70
     1
102
RTVSPropertyOp13
 70
     1
102
RTVSPropertyOp14
 70
     1
102
RTVSPropertyOp15
 70
     1
102
RTVSPropertyOp16
 70
     1
102
RTVSPropertyOp17
 70
     1
102
RTVSPropertyOp18
 70
     1
102
RTVSPropertyOp19
 70
     1
102
RTVSPropertyOp20
 70
     1
102
RTVSPropertyOp21
 70
     1
102
RTVSPropertyOp22
 70
     1
102
RTVSPropertyOp23
 70
     1
102
RTVSPropertyOp24
 70
     1
102
RTVSPropertyOp25
 70
     1
102
RTVSPropertyOp26
 70
     1
102
RTVSPropertyOp27
 70
     1
  0
XRECORD
  5
E6
102
{ACAD_REACTORS
330
E5
102
}
330
E5
100
AcDbXrecord
280
     1
102
RTVSPropertyOp0
 70
     1
102
RTVSPropertyOp1
 70
     1
102
RTVSPropertyOp2
 70
     1
102
RTVSPropertyOp3
 70
     1
102
RTVSPropertyOp4
 70
     1
102
RTVSPropertyOp5
 70
     1
102
RTVSPropertyOp6
 70
     1
102
RTVSPropertyOp7
 70
     1
102
RTVSPropertyOp8
 70
     1
102
RTVSPropertyOp9
 70
     1
102
RTVSPropertyOp10
 70
     1
102
RTVSPropertyOp11
 70
     1
102
RTVSPropertyOp12
 70
     1
102
RTVSPropertyOp13
 70
     1
102
RTVSPropertyOp14
 70
     1
102
RTVSPropertyOp15
 70
     1
102
RTVSPropertyOp16
 70
     1
102
RTVSPropertyOp17
 70
     1
102
RTVSPropertyOp18
 70
     1
102
RTVSPropertyOp19
 70
     1
102
RTVSPropertyOp20
 70
     1
102
RTVSPropertyOp21
 70
     1
102
RTVSPropertyOp22
 70
     1
102
RTVSPropertyOp23
 70
     1
102
RTVSPropertyOp24
 70
     1
102
RTVSPropertyOp25
 70
     1
102
RTVSPropertyOp26
 70
     1
102
RTVSPropertyOp27
 70
     1
  0
XRECORD
  5
EE
102
{ACAD_REACTORS
330
ED
102
}
330
ED
100
AcDbXrecord
280
     1
102
RTVSPropertyOp0
 70
     1
102
RTVSPropertyOp1
 70
     1
102
RTVSPropertyOp2
 70
     1
102
RTVSPropertyOp3
 70
     1
102
RTVSPropertyOp4
 70
     1
102
RTVSPropertyOp5
 70
     1
102
RTVSPropertyOp6
 70
     1
102
RTVSPropertyOp7
 70
     1
102
RTVSPropertyOp8
 70
     1
102
RTVSPropertyOp9
 70
     1
102
RTVSPropertyOp10
 70
     1
102
RTVSPropertyOp11
 70
     1
102
RTVSPropertyOp12
 70
     1
102
RTVSPropertyOp13
 70
     1
102
RTVSPropertyOp14
 70
     1
102
RTVSPropertyOp15
 70
     1
102
RTVSPropertyOp16
 70
     1
102
RTVSPropertyOp17
 70
     1
102
RTVSPropertyOp18
 70
     1
102
RTVSPropertyOp19
 70
     1
102
RTVSPropertyOp20
 70
     1
102
RTVSPropertyOp21
 70
     1
102
RTVSPropertyOp22
 70
     1
102
RTVSPropertyOp23
 70
     1
102
RTVSPropertyOp24
 70
     1
102
RTVSPropertyOp25
 70
     1
102
RTVSPropertyOp26
 70
     1
102
RTVSPropertyOp27
 70
     1
  0
XRECORD
  5
D2
102
{ACAD_REACTORS
330
D1
102
}
330
D1
100
AcDbXrecord
280
     1
102
RTVSPropertyOp0
 70
     1
102
RTVSPropertyOp1
 70
     1
102
RTVSPropertyOp2
 70
     1
102
RTVSPropertyOp3
 70
     1
102
RTVSPropertyOp4
 70
     1
102
RTVSPropertyOp5
 70
     1
102
RTVSPropertyOp6
 70
     1
102
RTVSPropertyOp7
 70
     1
102
RTVSPropertyOp8
 70
     1
102
RTVSPropertyOp9
 70
     1
102
RTVSPropertyOp10
 70
     1
102
RTVSPropertyOp11
 70
     1
102
RTVSPropertyOp12
 70
     1
102
RTVSPropertyOp13
 70
     1
102
RTVSPropertyOp14
 70
     1
102
RTVSPropertyOp15
 70
     1
102
RTVSPropertyOp16
 70
     1
102
RTVSPropertyOp17
 70
     1
102
RTVSPropertyOp18
 70
     1
102
RTVSPropertyOp19
 70
     1
102
RTVSPropertyOp20
 70
     1
102
RTVSPropertyOp21
 70
     1
102
RTVSPropertyOp22
 70
     1
102
RTVSPropertyOp23
 70
     1
102
RTVSPropertyOp24
 70
     1
102
RTVSPropertyOp25
 70
     1
102
RTVSPropertyOp26
 70
     1
102
RTVSPropertyOp27
 70
     1
  0
XRECORD
  5
D4
102
{ACAD_REACTORS
330
D3
102
}
330
D3
100
AcDbXrecord
280
     1
102
RTVSPropertyOp0
 70
     1
102
RTVSPropertyOp1
 70
     1
102
RTVSPropertyOp2
 70
     1
102
RTVSPropertyOp3
 70
     1
102
RTVSPropertyOp4
 70
     1
102
RTVSPropertyOp5
 70
     1
102
RTVSPropertyOp6
 70
     1
102
RTVSPropertyOp7
 70
     1
102
RTVSPropertyOp8
 70
     1
102
RTVSPropertyOp9
 70
     1
102
RTVSPropertyOp10
 70
     1
102
RTVSPropertyOp11
 70
     1
102
RTVSPropertyOp12
 70
     1
102
RTVSPropertyOp13
 70
     1
102
RTVSPropertyOp14
 70
     1
102
RTVSPropertyOp15
 70
     1
102
RTVSPropertyOp16
 70
     1
102
RTVSPropertyOp17
 70
     1
102
RTVSPropertyOp18
 70
     1
102
RTVSPropertyOp19
 70
     1
102
RTVSPropertyOp20
 70
     1
102
RTVSPropertyOp21
 70
     1
102
RTVSPropertyOp22
 70
     1
102
RTVSPropertyOp23
 70
     1
102
RTVSPropertyOp24
 70
     1
102
RTVSPropertyOp25
 70
     1
102
RTVSPropertyOp26
 70
     1
102
RTVSPropertyOp27
 70
     1
  0
XRECORD
  5
D6
102
{ACAD_REACTORS
330
D5
102
}
330
D5
100
AcDbXrecord
280
     1
102
RTVSPropertyOp0
 70
     1
102
RTVSPropertyOp1
 70
     1
102
RTVSPropertyOp2
 70
     1
102
RTVSPropertyOp3
 70
     1
102
RTVSPropertyOp4
 70
     1
102
RTVSPropertyOp5
 70
     1
102
RTVSPropertyOp6
 70
     1
102
RTVSPropertyOp7
 70
     1
102
RTVSPropertyOp8
 70
     1
102
RTVSPropertyOp9
 70
     1
102
RTVSPropertyOp10
 70
     1
102
RTVSPropertyOp11
 70
     1
102
RTVSPropertyOp12
 70
     1
102
RTVSPropertyOp13
 70
     1
102
RTVSPropertyOp14
 70
     1
102
RTVSPropertyOp15
 70
     1
102
RTVSPropertyOp16
 70
     1
102
RTVSPropertyOp17
 70
     1
102
RTVSPropertyOp18
 70
     1
102
RTVSPropertyOp19
 70
     1
102
RTVSPropertyOp20
 70
     1
102
RTVSPropertyOp21
 70
     1
102
RTVSPropertyOp22
 70
     1
102
RTVSPropertyOp23
 70
     1
102
RTVSPropertyOp24
 70
     1
102
RTVSPropertyOp25
 70
     1
102
RTVSPropertyOp26
 70
     1
102
RTVSPropertyOp27
 70
     1
  0
XRECORD
  5
D8
102
{ACAD_REACTORS
330
D7
102
}
330
D7
100
AcDbXrecord
280
     1
102
RTVSPropertyOp0
 70
     1
102
RTVSPropertyOp1
 70
     1
102
RTVSPropertyOp2
 70
     1
102
RTVSPropertyOp3
 70
     1
102
RTVSPropertyOp4
 70
     1
102
RTVSPropertyOp5
 70
     1
102
RTVSPropertyOp6
 70
     1
102
RTVSPropertyOp7
 70
     1
102
RTVSPropertyOp8
 70
     1
102
RTVSPropertyOp9
 70
     1
102
RTVSPropertyOp10
 70
     1
102
RTVSPropertyOp11
 70
     1
102
RTVSPropertyOp12
 70
     1
102
RTVSPropertyOp13
 70
     1
102
RTVSPropertyOp14
 70
     1
102
RTVSPropertyOp15
 70
     1
102
RTVSPropertyOp16
 70
     1
102
RTVSPropertyOp17
 70
     1
102
RTVSPropertyOp18
 70
     1
102
RTVSPropertyOp19
 70
     1
102
RTVSPropertyOp20
 70
     1
102
RTVSPropertyOp21
 70
     1
102
RTVSPropertyOp22
 70
     1
102
RTVSPropertyOp23
 70
     1
102
RTVSPropertyOp24
 70
     1
102
RTVSPropertyOp25
 70
     1
102
RTVSPropertyOp26
 70
     1
102
RTVSPropertyOp27
 70
     1
  0
XRECORD
  5
EC
102
{ACAD_REACTORS
330
EB
102
}
330
EB
100
AcDbXrecord
280
     1
102
RTVSPropertyOp0
 70
     1
102
RTVSPropertyOp1
 70
     1
102
RTVSPropertyOp2
 70
     1
102
RTVSPropertyOp3
 70
     1
102
RTVSPropertyOp4
 70
     1
102
RTVSPropertyOp5
 70
     1
102
RTVSPropertyOp6
 70
     1
102
RTVSPropertyOp7
 70
     1
102
RTVSPropertyOp8
 70
     1
102
RTVSPropertyOp9
 70
     1
102
RTVSPropertyOp10
 70
     1
102
RTVSPropertyOp11
 70
     1
102
RTVSPropertyOp12
 70
     1
102
RTVSPropertyOp13
 70
     1
102
RTVSPropertyOp14
 70
     1
102
RTVSPropertyOp15
 70
     1
102
RTVSPropertyOp16
 70
     1
102
RTVSPropertyOp17
 70
     1
102
RTVSPropertyOp18
 70
     1
102
RTVSPropertyOp19
 70
     1
102
RTVSPropertyOp20
 70
     1
102
RTVSPropertyOp21
 70
     1
102
RTVSPropertyOp22
 70
     1
102
RTVSPropertyOp23
 70
     1
102
RTVSPropertyOp24
 70
     1
102
RTVSPropertyOp25
 70
     1
102
RTVSPropertyOp26
 70
     1
102
RTVSPropertyOp27
 70
     1
  0
XRECORD
  5
E2
102
{ACAD_REACTORS
330
E1
102
}
330
E1
100
AcDbXrecord
280
     1
102
RTVSPropertyOp0
 70
     1
102
RTVSPropertyOp1
 70
     1
102
RTVSPropertyOp2
 70
     1
102
RTVSPropertyOp3
 70
     1
102
RTVSPropertyOp4
 70
     1
102
RTVSPropertyOp5
 70
     1
102
RTVSPropertyOp6
 70
     1
102
RTVSPropertyOp7
 70
     1
102
RTVSPropertyOp8
 70
     1
102
RTVSPropertyOp9
 70
     1
102
RTVSPropertyOp10
 70
     1
102
RTVSPropertyOp11
 70
     1
102
RTVSPropertyOp12
 70
     1
102
RTVSPropertyOp13
 70
     1
102
RTVSPropertyOp14
 70
     1
102
RTVSPropertyOp15
 70
     1
102
RTVSPropertyOp16
 70
     1
102
RTVSPropertyOp17
 70
     1
102
RTVSPropertyOp18
 70
     1
102
RTVSPropertyOp19
 70
     1
102
RTVSPropertyOp20
 70
     1
102
RTVSPropertyOp21
 70
     1
102
RTVSPropertyOp22
 70
     1
102
RTVSPropertyOp23
 70
     1
102
RTVSPropertyOp24
 70
     1
102
RTVSPropertyOp25
 70
     1
102
RTVSPropertyOp26
 70
     1
102
RTVSPropertyOp27
 70
     1
  0
XRECORD
  5
EA
102
{ACAD_REACTORS
330
E9
102
}
330
E9
100
AcDbXrecord
280
     1
102
RTVSPropertyOp0
 70
     1
102
RTVSPropertyOp1
 70
     1
102
RTVSPropertyOp2
 70
     1
102
RTVSPropertyOp3
 70
     1
102
RTVSPropertyOp4
 70
     1
102
RTVSPropertyOp5
 70
     1
102
RTVSPropertyOp6
 70
     1
102
RTVSPropertyOp7
 70
     1
102
RTVSPropertyOp8
 70
     1
102
RTVSPropertyOp9
 70
     1
102
RTVSPropertyOp10
 70
     1
102
RTVSPropertyOp11
 70
     1
102
RTVSPropertyOp12
 70
     1
102
RTVSPropertyOp13
 70
     1
102
RTVSPropertyOp14
 70
     1
102
RTVSPropertyOp15
 70
     1
102
RTVSPropertyOp16
 70
     1
102
RTVSPropertyOp17
 70
     1
102
RTVSPropertyOp18
 70
     1
102
RTVSPropertyOp19
 70
     1
102
RTVSPropertyOp20
 70
     1
102
RTVSPropertyOp21
 70
     1
102
RTVSPropertyOp22
 70
     1
102
RTVSPropertyOp23
 70
     1
102
RTVSPropertyOp24
 70
     1
102
RTVSPropertyOp25
 70
     1
102
RTVSPropertyOp26
 70
     1
102
RTVSPropertyOp27
 70
     1
  0
ENDSEC
  0
EOF
